  0
SECTION
  2
HEADER
  9
$ACADVER
  1
AC1014
  9
$ACADMAINTVER
 70
     9
  9
$DWGCODEPAGE
  3
ANSI_1252
  9
$INSBASE
 10
10.04486393377212
 20
2.2891170498
 30
0.0
  9
$EXTMIN
 10
-7.874539795974712
 20
-14.71983545933009
 30
-0.0015258207003583
  9
$EXTMAX
 10
28.12765746965286
 20
11.13935723689539
 30
0.0000000349246037
  9
$LIMMIN
 10
0.0
 20
0.0
  9
$LIMMAX
 10
17.0
 20
11.0
  9
$ORTHOMODE
 70
     1
  9
$REGENMODE
 70
     1
  9
$FILLMODE
 70
     1
  9
$QTEXTMODE
 70
     0
  9
$MIRRTEXT
 70
     1
  9
$DRAGMODE
 70
     2
  9
$LTSCALE
 40
2.0
  9
$OSMODE
 70
    55
  9
$ATTMODE
 70
     1
  9
$TEXTSIZE
 40
0.2
  9
$TRACEWID
 40
0.05
  9
$TEXTSTYLE
  7
STANDARD
  9
$CLAYER
  8
0
  9
$CELTYPE
  6
BYLAYER
  9
$CECOLOR
 62
   256
  9
$CELTSCALE
 40
1.0
  9
$DELOBJ
 70
     1
  9
$DISPSILH
 70
     0
  9
$DIMSCALE
 40
1.0
  9
$DIMASZ
 40
0.1875
  9
$DIMEXO
 40
0.0625
  9
$DIMDLI
 40
0.38
  9
$DIMRND
 40
0.0
  9
$DIMDLE
 40
0.0
  9
$DIMEXE
 40
0.18
  9
$DIMTP
 40
0.0
  9
$DIMTM
 40
0.0
  9
$DIMTXT
 40
0.125
  9
$DIMCEN
 40
0.09
  9
$DIMTSZ
 40
0.0
  9
$DIMTOL
 70
     0
  9
$DIMLIM
 70
     0
  9
$DIMTIH
 70
     1
  9
$DIMTOH
 70
     1
  9
$DIMSE1
 70
     0
  9
$DIMSE2
 70
     0
  9
$DIMTAD
 70
     0
  9
$DIMZIN
 70
     4
  9
$DIMBLK
  1
_FILLED
  9
$DIMASO
 70
     1
  9
$DIMSHO
 70
     1
  9
$DIMPOST
  1

  9
$DIMAPOST
  1

  9
$DIMALT
 70
     0
  9
$DIMALTD
 70
     2
  9
$DIMALTF
 40
25.4
  9
$DIMLFAC
 40
16.0
  9
$DIMTOFL
 70
     0
  9
$DIMTVP
 40
0.0
  9
$DIMTIX
 70
     0
  9
$DIMSOXD
 70
     0
  9
$DIMSAH
 70
     0
  9
$DIMBLK1
  1

  9
$DIMBLK2
  1

  9
$DIMSTYLE
  2
STANDARD
  9
$DIMCLRD
 70
     0
  9
$DIMCLRE
 70
     0
  9
$DIMCLRT
 70
     0
  9
$DIMTFAC
 40
1.0
  9
$DIMGAP
 40
0.09
  9
$DIMJUST
 70
     0
  9
$DIMSD1
 70
     0
  9
$DIMSD2
 70
     0
  9
$DIMTOLJ
 70
     1
  9
$DIMTZIN
 70
     4
  9
$DIMALTZ
 70
     0
  9
$DIMALTTZ
 70
     0
  9
$DIMFIT
 70
     3
  9
$DIMUPT
 70
     0
  9
$DIMUNIT
 70
     5
  9
$DIMDEC
 70
     1
  9
$DIMTDEC
 70
     1
  9
$DIMALTU
 70
     2
  9
$DIMALTTD
 70
     2
  9
$DIMTXSTY
  7
STANDARD
  9
$DIMAUNIT
 70
     0
  9
$LUNITS
 70
     2
  9
$LUPREC
 70
     4
  9
$SKETCHINC
 40
0.1
  9
$FILLETRAD
 40
0.5
  9
$AUNITS
 70
     0
  9
$AUPREC
 70
     0
  9
$MENU
  1
acad
  9
$ELEVATION
 40
0.0
  9
$PELEVATION
 40
0.0
  9
$THICKNESS
 40
0.0
  9
$LIMCHECK
 70
     0
  9
$BLIPMODE
 70
     0
  9
$CHAMFERA
 40
0.0
  9
$CHAMFERB
 40
0.0
  9
$CHAMFERC
 40
0.0
  9
$CHAMFERD
 40
0.0
  9
$SKPOLY
 70
     0
  9
$TDCREATE
 40
2453676.839854954
  9
$TDUPDATE
 40
2453685.597138541
  9
$TDINDWG
 40
0.0204942014
  9
$TDUSRTIMER
 40
0.0204942014
  9
$USRTIMER
 70
     1
  9
$ANGBASE
 50
0.0
  9
$ANGDIR
 70
     0
  9
$PDMODE
 70
     3
  9
$PDSIZE
 40
0.3125
  9
$PLINEWID
 40
0.0
  9
$COORDS
 70
     1
  9
$SPLFRAME
 70
     0
  9
$SPLINETYPE
 70
     6
  9
$SPLINESEGS
 70
     8
  9
$ATTDIA
 70
     0
  9
$ATTREQ
 70
     1
  9
$HANDLING
 70
 22529
  9
$HANDSEED
  5
550
  9
$SURFTAB1
 70
     6
  9
$SURFTAB2
 70
     6
  9
$SURFTYPE
 70
     6
  9
$SURFU
 70
     6
  9
$SURFV
 70
     6
  9
$UCSNAME
  2

  9
$UCSORG
 10
0.0
 20
0.0
 30
0.0
  9
$UCSXDIR
 10
1.0
 20
0.0
 30
0.0
  9
$UCSYDIR
 10
0.0
 20
1.0
 30
0.0
  9
$PUCSNAME
  2

  9
$PUCSORG
 10
0.0
 20
0.0
 30
0.0
  9
$PUCSXDIR
 10
1.0
 20
0.0
 30
0.0
  9
$PUCSYDIR
 10
0.0
 20
1.0
 30
0.0
  9
$USERI1
 70
     0
  9
$USERI2
 70
     0
  9
$USERI3
 70
     0
  9
$USERI4
 70
     0
  9
$USERI5
 70
     0
  9
$USERR1
 40
0.0
  9
$USERR2
 40
0.0
  9
$USERR3
 40
0.0
  9
$USERR4
 40
0.0
  9
$USERR5
 40
0.0
  9
$WORLDVIEW
 70
     1
  9
$SHADEDGE
 70
     3
  9
$SHADEDIF
 70
    70
  9
$TILEMODE
 70
     1
  9
$MAXACTVP
 70
    16
  9
$PINSBASE
 10
0.0
 20
0.0
 30
0.0
  9
$PLIMCHECK
 70
     0
  9
$PEXTMIN
 10
1.000000000000000E+20
 20
1.000000000000000E+20
 30
1.000000000000000E+20
  9
$PEXTMAX
 10
-1.000000000000000E+20
 20
-1.000000000000000E+20
 30
-1.000000000000000E+20
  9
$PLIMMIN
 10
0.0
 20
0.0
  9
$PLIMMAX
 10
12.0
 20
9.0
  9
$UNITMODE
 70
     0
  9
$VISRETAIN
 70
     0
  9
$PLINEGEN
 70
     1
  9
$PSLTSCALE
 70
     0
  9
$TREEDEPTH
 70
  3020
  9
$PICKSTYLE
 70
     1
  9
$CMLSTYLE
  2
STANDARD
  9
$CMLJUST
 70
     0
  9
$CMLSCALE
 40
1.0
  9
$PROXYGRAPHICS
 70
     0
  9
$MEASUREMENT
 70
     0
  0
ENDSEC
  0
SECTION
  2
CLASSES
  0
CLASS
  1
ACDBDICTIONARYWDFLT
  2
AcDbDictionaryWithDefault
  3
AutoCAD 2000
 90
        0
280
     0
281
     0
  0
CLASS
  1
ACDBPLACEHOLDER
  2
AcDbPlaceHolder
  3
AutoCAD 2000
 90
        0
280
     0
281
     0
  0
CLASS
  1
LAYOUT
  2
AcDbLayout
  3
AutoCAD 2000
 90
        0
280
     0
281
     0
  0
CLASS
  1
LWPOLYLINE
  2
AcDbPolyline
  3
AutoCAD 2000
 90
        0
280
     0
281
     1
  0
CLASS
  1
IMAGE
  2
AcDbRasterImage
  3
ISM
 90
      127
280
     0
281
     1
  0
CLASS
  1
OLE2FRAME
  2
AcDbOle2Frame
  3
AutoCAD 2000
 90
        0
280
     0
281
     1
  0
CLASS
  1
HATCH
  2
AcDbHatch
  3
AutoCAD 2000
 90
        0
280
     0
281
     1
  0
CLASS
  1
DICTIONARYVAR
  2
AcDbDictionaryVar
  3
AutoCAD 2000
 90
        0
280
     0
281
     0
  0
CLASS
  1
RASTERVARIABLES
  2
AcDbRasterVariables
  3
ISM
 90
        0
280
     0
281
     0
  0
CLASS
  1
IMAGEDEF
  2
AcDbRasterImageDef
  3
ISM
 90
        0
280
     0
281
     0
  0
CLASS
  1
IMAGEDEF_REACTOR
  2
AcDbRasterImageDefReactor
  3
ISM
 90
        1
280
     0
281
     0
  0
CLASS
  1
IDBUFFER
  2
AcDbIdBuffer
  3
AutoCAD 2000
 90
        0
280
     0
281
     0
  0
CLASS
  1
SPATIAL_FILTER
  2
AcDbSpatialFilter
  3
AutoCAD 2000
 90
        0
280
     0
281
     0
  0
CLASS
  1
XRECORD
  2
AcDbXrecord
  3
AutoCAD 2000
 90
        0
280
     0
281
     0
  0
CLASS
  1
SORTENTSTABLE
  2
AcDbSortentsTable
  3
AutoCAD 2000
 90
        0
280
     0
281
     0
  0
CLASS
  1
LAYER_INDEX
  2
AcDbLayerIndex
  3
AutoCAD 2000
 90
        0
280
     0
281
     0
  0
CLASS
  1
SPATIAL_INDEX
  2
AcDbSpatialIndex
  3
AutoCAD 2000
 90
        0
280
     0
281
     0
  0
CLASS
  1
OBJECT_PTR
  2
CAseDLPNTableRecord
  3
ASE-LPNTableRecord
 90
        1
280
     0
281
     0
  0
CLASS
  1
PLOTSETTINGS
  2
AcDbPlotSettings
  3
AutoCAD 2000
 90
        0
280
     0
281
     0
  0
CLASS
  1
VBA_PROJECT
  2
AcDbVbaProject
  3
acadvba
 90
        0
280
     0
281
     0
  0
CLASS
  1
WIPEOUT
  2
AcDbWipeout
  3
"WipeOut|Product Desc: Object Enabler for WipeOut entity^I^I^I^I^I^I|Company: Autodesk, Inc.^I^I^I^I^I^I|WEB Address: www.autodesk.com"
 90
      127
280
     0
281
     1
  0
CLASS
  1
WIPEOUTVARIABLES
  2
AcDbWipeoutVariables
  3
"WipeOut|Product Desc:     WipeOut Dbx Application|Company:          Autodesk, Inc.|WEB Address:      www.autodesk.com"
 90
        0
280
     0
281
     0
  0
CLASS
  1
RTEXT
  2
RText
  3
RText|AutoCAD Express Tool|expresstools@autodesk.com
 90
        0
280
     1
281
     1
  0
CLASS
  1
ARCALIGNEDTEXT
  2
AcDbArcAlignedText
  3
ATEXT|AutoCAD Express Tool|expresstools@autodesk.com
 90
        0
280
     1
281
     1
  0
CLASS
  1
TABLESTYLE
  2
AcDbTableStyle
  3
ObjectDBX Classes
 90
     2047
280
     0
281
     0
  0
CLASS
  1
ACAD_PROXY_OBJECT_WRAPPER
  2
AcDbProxyObjectWrapper
  3
AutoCAD 2000
 90
        0
280
     0
281
     0
  0
CLASS
  1
LONG_TRANSACTION
  2
AcDbLongTransaction
  3
AutoCAD 2000
 90
        0
280
     0
281
     0
  0
CLASS
  1
LWPOLYLINE
  2
AcDbPolyline
  3
AutoCAD 2000
 90
        0
280
     0
281
     1
  0
CLASS
  1
HATCH
  2
AcDbHatch
  3
AutoCAD 2000
 90
        0
280
     0
281
     1
  0
CLASS
  1
XRECORD
  2
AcDbXrecord
  3
AutoCAD 2000
 90
        0
280
     0
281
     0
  0
CLASS
  1
LONG_TRANSACTION
  2
AcDbLongTransaction
  3
AutoCAD 2000
 90
        0
280
     0
281
     0
  0
CLASS
  1
LWPOLYLINE
  2
AcDbPolyline
  3
AutoCAD 2000
 90
        0
280
     0
281
     1
  0
CLASS
  1
HATCH
  2
AcDbHatch
  3
AutoCAD 2000
 90
        0
280
     0
281
     1
  0
CLASS
  1
XRECORD
  2
AcDbXrecord
  3
AutoCAD 2000
 90
        0
280
     0
281
     0
  0
ENDSEC
  0
SECTION
  2
TABLES
  0
TABLE
  2
VPORT
  5
1E
330
0
100
AcDbSymbolTable
 70
     3
  0
VPORT
  5
52C
330
1E
100
AcDbSymbolTableRecord
100
AcDbViewportTableRecord
  2
*ACTIVE
 70
     0
 10
0.0
 20
0.0
 11
1.0
 21
1.0
 12
10.1265587645331
 22
-1.790239154202549
 13
0.0
 23
0.0
 14
1.0
 24
1.0
 15
0.0
 25
0.0
 16
0.0
 26
0.0
 36
1.0
 17
0.0
 27
0.0
 37
0.0
 40
30.5971227258557
 41
1.786792452830188
 42
50.0
 43
0.0
 44
0.0
 50
0.0
 51
0.0
 71
     0
 72
   100
 73
     1
 74
     1
 75
     0
 76
     0
 77
     0
 78
     0
  0
ENDTAB
  0
TABLE
  2
LTYPE
  5
19
330
0
100
AcDbSymbolTable
 70
     3
  0
LTYPE
  5
1A
330
19
100
AcDbSymbolTableRecord
100
AcDbLinetypeTableRecord
  2
BYBLOCK
 70
     0
  3

 72
    65
 73
     0
 40
0.0
  0
LTYPE
  5
1B
330
19
100
AcDbSymbolTableRecord
100
AcDbLinetypeTableRecord
  2
BYLAYER
 70
     0
  3

 72
    65
 73
     0
 40
0.0
  0
LTYPE
  5
8
330
19
100
AcDbSymbolTableRecord
100
AcDbLinetypeTableRecord
  2
CONTINUOUS
 70
     0
  3
Solid line
 72
    65
 73
     0
 40
0.0
  0
LTYPE
  5
2E4
330
19
100
AcDbSymbolTableRecord
100
AcDbLinetypeTableRecord
  2
CENTER
 70
     0
  3
____ _ ____ _ ____ _ ____ _ ____ _ ____ _ ____
 72
    65
 73
     4
 40
0.6
 49
0.375
 74
     0
 49
-0.075
 74
     0
 49
0.075
 74
     0
 49
-0.075
 74
     0
  0
LTYPE
  5
4AE
330
19
100
AcDbSymbolTableRecord
100
AcDbLinetypeTableRecord
  2
HIDDEN
 70
     0
  3
Hidden __ __ __ __ __ __ __ __ __ __ __ __ __ _
 72
    65
 73
     2
 40
0.375
 49
0.25
 74
     0
 49
-0.125
 74
     0
  0
ENDTAB
  0
TABLE
  2
LAYER
  5
11
102
{ACAD_XDICTIONARY
360
12
102
}
330
0
100
AcDbSymbolTable
 70
     3
  0
LAYER
  5
6
330
11
100
AcDbSymbolTableRecord
100
AcDbLayerTableRecord
  2
0
 70
     0
 62
     7
  6
CONTINUOUS
  0
LAYER
  5
2E3
330
11
100
AcDbSymbolTableRecord
100
AcDbLayerTableRecord
  2
CENTER
 70
     0
 62
     1
  6
CENTER
1001
ACAECLAYERSTANDARD
1000

1000

  0
LAYER
  5
442
330
11
100
AcDbSymbolTableRecord
100
AcDbLayerTableRecord
  2
DEFPOINTS
 70
     0
 62
     7
  6
CONTINUOUS
  0
ENDTAB
  0
TABLE
  2
STYLE
  5
16
330
0
100
AcDbSymbolTable
 70
     1
  0
STYLE
  5
17
330
16
100
AcDbSymbolTableRecord
100
AcDbTextStyleTableRecord
  2
STANDARD
 70
     0
 40
0.0
 41
0.8
 50
0.0
 71
     0
 42
0.2
  3
txt
  4

  0
ENDTAB
  0
TABLE
  2
VIEW
  5
1C
330
0
100
AcDbSymbolTable
 70
     0
  0
ENDTAB
  0
TABLE
  2
UCS
  5
1D
330
0
100
AcDbSymbolTable
 70
     0
  0
ENDTAB
  0
TABLE
  2
APPID
  5
20
330
0
100
AcDbSymbolTable
 70
     4
  0
APPID
  5
15
330
20
100
AcDbSymbolTableRecord
100
AcDbRegAppTableRecord
  2
ACAD
 70
     0
  0
APPID
  5
2E5
330
20
100
AcDbSymbolTableRecord
100
AcDbRegAppTableRecord
  2
ACAECLAYERSTANDARD
 70
     0
  0
APPID
  5
415
330
20
100
AcDbSymbolTableRecord
100
AcDbRegAppTableRecord
  2
DCO15
 70
     0
  0
APPID
  5
41D
330
20
100
AcDbSymbolTableRecord
100
AcDbRegAppTableRecord
  2
ACAD_DSTYLE_DIMTEXT_FILL
 70
     0
  0
ENDTAB
  0
TABLE
  2
DIMSTYLE
  5
21
330
0
100
AcDbSymbolTable
 70
     1
  0
DIMSTYLE
105
22
330
21
100
AcDbSymbolTableRecord
100
AcDbDimStyleTableRecord
  2
STANDARD
 70
     0
  3

  4

  5
_FILLED
  6

  7

 40
1.0
 41
0.1875
 42
0.0625
 43
0.38
 44
0.18
 45
0.0
 46
0.0
 47
0.0
 48
0.0
140
0.125
141
0.09
142
0.0
143
25.4
144
16.0
145
0.0
146
1.0
147
0.09
 71
     0
 72
     0
 73
     1
 74
     1
 75
     0
 76
     0
 77
     0
 78
     4
170
     0
171
     2
172
     0
173
     0
174
     0
175
     0
176
     0
177
     0
178
     0
270
     5
271
     1
272
     1
273
     2
274
     2
340
17
275
     0
280
     0
281
     0
282
     0
283
     1
284
     4
285
     0
286
     0
287
     3
288
     0
  0
ENDTAB
  0
TABLE
  2
BLOCK_RECORD
  5
1
330
0
100
AcDbSymbolTable
 70
     1
  0
BLOCK_RECORD
  5
2
102
{ACAD_XDICTIONARY
360
3
102
}
330
1
100
AcDbSymbolTableRecord
100
AcDbBlockTableRecord
  2
*MODEL_SPACE
  0
BLOCK_RECORD
  5
D
102
{ACAD_XDICTIONARY
360
4E0
102
}
330
1
100
AcDbSymbolTableRecord
100
AcDbBlockTableRecord
  2
*PAPER_SPACE
  0
BLOCK_RECORD
  5
23
330
1
100
AcDbSymbolTableRecord
100
AcDbBlockTableRecord
  2
_FILLED
  0
ENDTAB
  0
ENDSEC
  0
SECTION
  2
BLOCKS
  0
BLOCK
  5
5
330
2
100
AcDbEntity
  8
0
100
AcDbBlockBegin
  2
*MODEL_SPACE
 70
     0
 10
0.0
 20
0.0
 30
0.0
  3
*MODEL_SPACE
  1

  0
ENDBLK
  5
9
330
2
100
AcDbEntity
  8
0
100
AcDbBlockEnd
  0
BLOCK
  5
E
330
D
100
AcDbEntity
 67
     1
  8
0
100
AcDbBlockBegin
  2
*PAPER_SPACE
 70
     0
 10
0.0
 20
0.0
 30
0.0
  3
*PAPER_SPACE
  1

  0
ENDBLK
  5
F
330
D
100
AcDbEntity
 67
     1
  8
0
100
AcDbBlockEnd
  0
BLOCK
  5
24
330
23
100
AcDbEntity
  8
0
100
AcDbBlockBegin
  2
_FILLED
 70
     0
 10
0.0
 20
0.0
 30
0.0
  3
_FILLED
  1

  0
SOLID
  5
25
330
23
100
AcDbEntity
  8
0
  6
BYBLOCK
 62
     0
100
AcDbTrace
 10
0.0
 20
0.0
 30
0.0
 11
-1.0
 21
0.1666666667
 31
0.0
 12
-1.0
 22
-0.1666666667
 32
0.0
 13
-1.0
 23
-0.1666666667
 33
0.0
  0
ENDBLK
  5
26
330
23
100
AcDbEntity
  8
0
  6
BYBLOCK
 62
     0
100
AcDbBlockEnd
  0
ENDSEC
  0
SECTION
  2
ENTITIES
  0
LWPOLYLINE
  5
31
330
2
100
AcDbEntity
  8
0
100
AcDbPolyline
 90
       38
 70
     0
 43
0.0
 10
8.051223028400016
 20
-9.3010993603
 10
8.078117444399993
 20
-9.299085035499999
 10
8.105587780400014
 20
-9.296829054700005
 10
8.119774758000005
 20
-9.295448909100002
 10
8.13392240760001
 20
-9.293673587500002
 10
8.14814909879999
 20
-9.291181293100002
 10
8.162122921199994
 20
-9.287554776299998
 10
8.17144524919999
 20
-9.284195435500002
 10
8.180456894000002
 20
-9.280066371499998
 10
8.1890530796
 20
-9.275150902699998
 10
8.198258911599992
 20
-9.268584505900001
 10
8.206797247600007
 20
-9.2611432403
 10
8.214679594800003
 20
-9.253000401900003
 10
8.223793005999993
 20
-9.241876502700002
 10
8.232007854000016
 20
-9.2300764051
 10
8.239467569200002
 20
-9.217778030700003
 10
8.247837194800013
 20
-9.202117003499999
 10
8.255424317999995
 20
-9.186068501100002
 10
8.262380677999999
 20
-9.169734318700001
 10
8.273452578800004
 20
-9.1405895555
 10
8.283377975599989
 20
-9.111035864299999
 10
8.293766185200013
 20
-9.076705865900002
 10
8.303312962799992
 20
-9.042132141100005
 10
8.313269311600009
 20
-9.0032136883
 10
8.32261962199999
 20
-8.964145417899999
 10
8.332502311599995
 20
-8.920444429100001
 10
8.341925138800007
 20
-8.876641936300003
 10
8.361815925999991
 20
-8.778301390700001
 10
8.382640229999992
 20
-8.668597870700004
 10
8.404869498799996
 20
-8.546072833899998
 10
8.428936026800016
 20
-8.409463669099999
 10
8.455140364399994
 20
-8.258338736300004
 10
8.483699478000005
 20
-8.093045224299999
 10
8.514614518000001
 20
-7.915211870699998
 10
8.548273980400011
 20
-7.724220006700001
 10
8.584721266800016
 20
-7.521596309100004
 10
8.62377321080001
 20
-7.309793478700001
 10
8.665301873200007
 20
-7.0911804355
  0
LINE
  5
32
330
2
100
AcDbEntity
  8
0
100
AcDbLine
 10
3.674416029999994
 20
-9.343156993900004
 30
0.0
 11
4.202120276399986
 21
-9.3346946211
 31
0.0
  0
LWPOLYLINE
  5
33
330
2
100
AcDbEntity
  8
0
100
AcDbPolyline
 90
       12
 70
     0
 43
0.0
 10
4.20212846839999
 20
-9.334693385900003
 10
4.279136954800009
 20
-9.333586829099999
 10
4.460830359600009
 20
-9.331080155500004
 10
4.653283042800012
 20
-9.328575085099998
 10
5.059226337200016
 20
-9.323734257899999
 10
5.257320407599991
 20
-9.321566073900001
 10
5.447857711599993
 20
-9.319588949100001
 10
5.625550806000006
 20
-9.317834723499998
 10
5.792997084400013
 20
-9.316256755499999
 10
6.100433519600017
 20
-9.313538809900002
 10
6.392663169200005
 20
-9.311155965099999
 10
6.539887485999997
 20
-9.310027573100001
  0
LWPOLYLINE
  5
34
330
2
100
AcDbEntity
  8
0
100
AcDbPolyline
 90
        7
 70
     0
 43
0.0
 10
6.539887485999997
 20
-9.310027573100001
 10
6.73328938840001
 20
-9.308621014700001
 10
6.860304826799989
 20
-9.307743789100001
 10
7.036546687600008
 20
-9.306585229100001
 10
7.410884113200012
 20
-9.304335504299999
 10
7.7811947916
 20
-9.302372974699999
 10
8.051223103599994
 20
-9.3010993635
  0
LWPOLYLINE
  5
35
330
2
100
AcDbEntity
  8
0
100
AcDbPolyline
 90
        8
 70
     0
 43
0.0
 10
8.051227620399998
 20
-9.301100070700002
 10
8.719398951599998
 20
-9.298499326700003
 10
9.064737764400007
 20
-9.297454993900004
 10
9.408830834799999
 20
-9.296633273899999
 10
9.580368585200005
 20
-9.296313040299999
 10
9.75067897880001
 20
-9.296059825900002
 10
9.917174398000014
 20
-9.295889128300004
 10
10.07712027639999
 20
-9.2958263075
  0
LWPOLYLINE
  5
36
330
2
100
AcDbEntity
  8
0
100
AcDbPolyline
 90
        9
 70
     0
 43
0.0
 10
10.07712027639999
 20
-9.736000205100005
 10
8.9723658284
 20
-9.736542909100002
 10
7.879681303599994
 20
-9.738155683500004
 10
6.822100444400007
 20
-9.740759552299998
 10
5.861258796399994
 20
-9.7440481187
 10
5.017159397999989
 20
-9.7476975187
 10
4.263531938800014
 20
-9.751590859499998
 10
3.575038030000001
 20
-9.755703048299999
 10
2.932475482800015
 20
-9.7600520883
  0
LWPOLYLINE
  5
37
330
2
100
AcDbEntity
  8
0
100
AcDbPolyline
 90
        9
 70
     0
 43
0.0
 10
10.07712027639999
 20
-9.736000205100005
 10
11.18187472439998
 20
-9.736542909100002
 10
12.27455925079999
 20
-9.738155683500004
 10
13.33214010840001
 20
-9.740759552299998
 10
14.29298175799999
 20
-9.7440481187
 10
15.1370811548
 20
-9.7476975187
 10
15.8907086156
 20
-9.751590859499998
 10
16.57920252280001
 20
-9.755703048299999
 10
17.2217650716
 20
-9.7600520883
  0
LWPOLYLINE
  5
38
330
2
100
AcDbEntity
  8
0
100
AcDbPolyline
 90
        8
 70
     0
 43
0.0
 10
12.1030196412
 20
-9.301100101100004
 10
11.43484160279999
 20
-9.298499326700003
 10
11.08950279000001
 20
-9.297454993900004
 10
10.74540971959999
 20
-9.296633273899999
 10
10.57387196920001
 20
-9.296313040299999
 10
10.4035615756
 20
-9.296059825900002
 10
10.2370661564
 20
-9.295889128300004
 10
10.07712027639999
 20
-9.2958263075
  0
LWPOLYLINE
  5
39
330
2
100
AcDbEntity
  8
0
100
AcDbPolyline
 90
       15
 70
     0
 43
0.0
 10
15.95214698520001
 20
-9.334695009900002
 10
15.67864330840001
 20
-9.330882541100002
 10
15.36767894199999
 20
-9.326924685100003
 10
15.0574527132
 20
-9.323313622699998
 10
14.7821109068
 20
-9.320362750699999
 10
14.534579022
 20
-9.317891493099999
 10
14.28397388120001
 20
-9.315551929900003
 10
14.0194101452
 20
-9.313248465900002
 10
13.75243094199999
 20
-9.311084457900001
 10
13.51466685080001
 20
-9.309291549100002
 10
13.26768696760001
 20
-9.3075669539
 10
12.98360310679999
 20
-9.3057478451
 10
12.66626528439999
 20
-9.303906011500004
 10
12.36496075159999
 20
-9.302332934700004
 10
12.1030175244
 20
-9.301099369900001
  0
LINE
  5
3A
330
2
100
AcDbEntity
  8
0
100
AcDbLine
 10
16.4798245228
 20
-9.343156993900004
 30
0.0
 11
15.9521469852
 21
-9.334695011500004
 31
0.0
  0
LWPOLYLINE
  5
3B
330
2
100
AcDbEntity
  8
0
100
AcDbPolyline
 90
       38
 70
     0
 43
0.0
 10
12.1030175244
 20
-9.301099369900001
 10
12.07612311959999
 20
-9.299082581100002
 10
12.04865279
 20
-9.296828296299999
 10
12.03446484279999
 20
-9.295463209899999
 10
12.02031823800001
 20
-9.293695344300004
 10
12.00609199800001
 20
-9.291183873900003
 10
11.99211748760001
 20
-9.287536702700002
 10
11.9827967916
 20
-9.284179984300003
 10
11.97378444279999
 20
-9.280062313900003
 10
11.9651876588
 20
-9.275158789100004
 10
11.95597850679999
 20
-9.268594733100002
 10
11.94744031159999
 20
-9.261148622699998
 10
11.93956091800001
 20
-9.252997816300002
 10
11.93044699
 20
-9.2418551875
 10
11.9222327372
 20
-9.230037579499999
 10
11.91477066359999
 20
-9.217723968299999
 10
11.90640588280001
 20
-9.202078827500002
 10
11.89881698199999
 20
-9.186049550700005
 10
11.89185989559999
 20
-9.169734317100001
 10
11.88078016919999
 20
-9.140554243499998
 10
11.87085696759999
 20
-9.110960755500002
 10
11.86047320119999
 20
-9.076631576300002
 10
11.8509211116
 20
-9.042062225900004
 10
11.8409687212
 20
-9.003192176300004
 10
11.83162387960001
 20
-8.964171547500001
 10
11.82174084440001
 20
-8.920476605099999
 10
11.81232051
 20
-8.8766795939
 10
11.792424046
 20
-8.778297765099999
 10
11.7715962284
 20
-8.668576405100004
 10
11.749370494
 20
-8.546070347499998
 10
11.72530855479999
 20
-8.409478731500001
 10
11.69910008760001
 20
-8.258338421099999
 10
11.67055035640001
 20
-8.093069486700002
 10
11.63963227319999
 20
-7.915225275499999
 10
11.605945894
 20
-7.724184136300003
 10
11.56951538199999
 20
-7.521590947500001
 10
11.5304680012
 20
-7.309794136299998
 10
11.4889379484
 20
-7.091176563499999
  0
LWPOLYLINE
  5
3C
330
2
100
AcDbEntity
  8
0
100
AcDbPolyline
 90
       60
 70
     0
 43
0.0
 10
10.07712027639999
 20
4.2610326637
 10
10.02523963800001
 20
4.255886894100001
 10
9.973581084399995
 20
4.248794929299997
 10
9.922029613999995
 20
4.239728174100001
 10
9.870860781999994
 20
4.2287150605
 10
9.820327425199991
 20
4.215807740499997
 10
9.770325986800003
 20
4.2009708717
 10
9.721604638000002
 20
4.184443018899997
 10
9.673565919600008
 20
4.166026594899996
 10
9.626743980399993
 20
4.145918204499999
 10
9.580759738799997
 20
4.123962182100001
 10
9.535004103600016
 20
4.099801671699999
 10
9.490256310000006
 20
4.073820226899997
 10
9.445278958000017
 20
4.045224375699994
 10
9.401494241199998
 20
4.0148333805
 10
9.357827642800003
 20
3.9818179373
 10
9.315544825199992
 20
3.9470476093
 10
9.274022927600015
 20
3.909956132499999
 10
9.234057402800004
 20
3.871191100499999
 10
9.195922148400001
 20
3.831035015699995
 10
9.159509769200013
 20
3.789313138899998
 10
9.126854615599995
 20
3.748554132499997
 10
9.095927646000006
 20
3.706467706899999
 10
9.070050986799998
 20
3.668075679699995
 10
9.045802260399995
 20
3.628638951699997
 10
9.025794967600006
 20
3.592690673299998
 10
9.007439967599992
 20
3.555872054099999
 10
8.991654302
 20
3.519934482899998
 10
8.977705321200005
 20
3.483249634899998
 10
8.965346375600006
 20
3.444783204499998
 10
8.954829759600016
 20
3.4057665869
 10
8.945172449200015
 20
3.362855220499994
 10
8.937051559600007
 20
3.319626604500001
 10
8.922941684400001
 20
3.222508482899996
 10
8.911407785199997
 20
3.114528284499996
 10
8.901093926000015
 20
2.996343881299999
 10
8.890691398000001
 20
2.867777550100001
 10
8.879981113200017
 20
2.728097503699999
 10
8.86871785240001
 20
2.576270964499997
 10
8.856510892399995
 20
2.411130097299995
 10
8.842751489199997
 20
2.231202599699997
 10
8.826538071599998
 20
2.034746055699997
 10
8.80696129719999
 20
1.819838834899996
 10
8.78331374519999
 20
1.584471372499997
 10
8.75475363160001
 20
1.326315103699997
 10
8.720259324399989
 20
1.042762996499995
 10
8.678652697199993
 20
0.730699428499996
 10
8.628509017200002
 20
0.3857522781
 10
8.567828841199997
 20
0.001915582099997
 10
8.493656233199999
 20
-0.4296070595000004
 10
8.448937751599999
 20
-0.6738846419000027
 10
8.402369137199997
 20
-0.9178167779000006
 10
8.346862559599998
 20
-1.1965812563
 10
8.289018454
 20
-1.474870329899999
 10
8.219613855600016
 20
-1.794337686700004
 10
8.14718443960001
 20
-2.113133622700004
 10
8.069375494000013
 20
-2.441103749100001
 10
7.988323687600001
 20
-2.768288033899999
 10
7.909095017200002
 20
-3.0750626803
 10
7.826816954799994
 20
-3.381029731499999
  0
LWPOLYLINE
  5
3D
330
2
100
AcDbEntity
  8
0
100
AcDbPolyline
 90
       20
 70
     0
 43
0.0
 10
2.932475482800015
 20
-9.7600520883
 10
2.889658201200006
 20
-9.746255328300001
 10
2.8465702668
 20
-9.733307800300003
 10
2.803263169199993
 20
-9.7210878339
 10
2.759788394800011
 20
-9.709473761899999
 10
2.699227962799994
 20
-9.694144257899999
 10
2.638495985199995
 20
-9.679541315500003
 10
2.577644921200004
 20
-9.665457952300002
 10
2.490441817200007
 20
-9.645860601900004
 10
2.403130930800017
 20
-9.626682630700003
 10
2.324409661999993
 20
-9.609539526700004
 10
2.245782993200009
 20
-9.592166793899998
 10
2.179240268400008
 20
-9.5769904339
 10
2.112687498799999
 20
-9.561303627500002
 10
2.086956146799991
 20
-9.555060501100001
 10
2.061313957999999
 20
-9.548530174700005
 10
2.035880300400009
 20
-9.541511182699998
 10
2.010774542000007
 20
-9.533802061100004
 10
1.988276253999998
 20
-9.526097585900004
 10
1.965815294000009
 20
-9.517916105899999
  0
LWPOLYLINE
  5
3E
330
2
100
AcDbEntity
  8
0
100
AcDbPolyline
 90
       44
 70
     0
 43
0.0
 10
1.965815294000009
 20
-9.517916105899999
 10
1.936569692400013
 20
-9.507110585900001
 10
1.9301772636
 20
-9.5045100675
 10
1.924029809199993
 20
-9.501517611499998
 10
1.918274729199993
 20
-9.497935606700004
 10
1.913059425200003
 20
-9.4935664435
 10
1.908531297199999
 20
-9.488212510700002
 10
1.906327293999993
 20
-9.484662819500002
 10
1.90454481559999
 20
-9.480877571500002
 10
1.903332370800001
 20
-9.477008005100003
 10
1.902838466800005
 20
-9.473205357099999
 10
1.903211614000014
 20
-9.469620869100005
 10
1.904697290800015
 20
-9.466122531500005
 10
1.907157953199998
 20
-9.4630101539
 10
1.910378972399996
 20
-9.460236989100003
 10
1.914145719600014
 20
-9.457756291500004
 10
1.918243567600001
 20
-9.4555213139
 10
1.922457889199989
 20
-9.453485310700003
 10
1.93262381880001
 20
-9.449074917099999
 10
1.942399169200001
 20
-9.445411573100003
 10
1.951998714799998
 20
-9.442303493099998
 10
1.961637226800007
 20
-9.439558894699999
 10
1.979438305200005
 20
-9.435113721900002
 10
1.997747629999992
 20
-9.431151521899998
 10
2.016257778799996
 20
-9.427603328300001
 10
2.049276934000005
 20
-9.422080166699998
 10
2.082222055599999
 20
-9.417353528300004
 10
2.119848802799992
 20
-9.412610128300002
 10
2.157600585200015
 20
-9.408385182700001
 10
2.200506007600012
 20
-9.4040844035
 10
2.243431148399992
 20
-9.400203387499999
 10
2.291342853999992
 20
-9.3962545603
 10
2.339286959600002
 20
-9.392635771500003
 10
2.443816254000012
 20
-9.385647205099999
 10
2.556117516400007
 20
-9.379185670700003
 10
2.67537390839999
 20
-9.373211246700002
 10
2.800789833200013
 20
-9.367693725100004
 10
2.92964986039999
 20
-9.3626814275
 10
3.057445385199997
 20
-9.358271405099998
 10
3.183123196400003
 20
-9.354419856300005
 10
3.307203423600014
 20
-9.351042209900001
 10
3.430062047599989
 20
-9.348074713900004
 10
3.552251221999995
 20
-9.3454617955
 10
3.674416030000003
 20
-9.343156993900002
  0
LWPOLYLINE
  5
3F
330
2
100
AcDbEntity
  8
0
100
AcDbPolyline
 90
       57
 70
     0
 43
0.0
 10
10.07712027639999
 20
4.257125665299994
 10
10.16664020280001
 20
4.247012316499997
 10
10.25565843960001
 20
4.231052738899997
 10
10.34333603000001
 20
4.209321026899999
 10
10.4285982556
 20
4.1820855789
 10
10.51084479159999
 20
4.149559358099999
 10
10.590429438
 20
4.1115947949
 10
10.6684380188
 20
4.067490876499995
 10
10.70726388919999
 20
4.042782820500001
 10
10.7452031596
 20
4.016733710099998
 10
10.78309557080001
 20
3.988711930899995
 10
10.81997845239999
 20
3.959373599700001
 10
10.85643445560001
 20
3.928213756499999
 10
10.89176271479999
 20
3.895780770899996
 10
10.92606907640001
 20
3.861962740499997
 10
10.95914313080001
 20
3.826938412499998
 10
10.99013821080001
 20
3.791673326099996
 10
11.01983848279999
 20
3.755311889299996
 10
11.04630056440001
 20
3.720424167699995
 10
11.07148300279999
 20
3.684602542099995
 10
11.1130268892
 20
3.618123121299994
 10
11.14590493720001
 20
3.555486170899996
 10
11.17233556280001
 20
3.4930740717
 10
11.1835849004
 20
3.460550484499997
 10
11.19343058999999
 20
3.427571742099999
 10
11.2103407612
 20
3.356373250899999
 10
11.2240460012
 20
3.277584713300001
 10
11.23536622040001
 20
3.190516758099995
 10
11.24502339159999
 20
3.095440241299996
 10
11.25386394680001
 20
2.992793577299998
 10
11.2628303612
 20
2.882434644500001
 10
11.27203379159999
 20
2.763877369299997
 10
11.28157191959999
 20
2.636474447699995
 10
11.29166925399999
 20
2.499515310100001
 10
11.30265741880001
 20
2.3521560621
 10
11.31499687160001
 20
2.193390545299997
 10
11.32929330359999
 20
2.022077602899997
 10
11.34612351800001
 20
1.8369626765
 10
11.36594357719999
 20
1.6367228605
 10
11.3892792988
 20
1.419879577300001
 10
11.41675643479999
 20
1.184814764499996
 10
11.44908477239999
 20
0.9297539613000012
 10
11.48707463319999
 20
0.6523765164999987
 10
11.53171290680001
 20
0.3496467292999981
 10
11.58432873079999
 20
0.0176039628999973
 10
11.6469043612
 20
-0.3497606995000027
 10
11.721689574
 20
-0.7579269667000049
 10
11.76589128439999
 20
-0.9864450115000025
 10
11.81167860920001
 20
-1.214650854700003
 10
11.8655976844
 20
-1.4734861795
 10
11.92153623480001
 20
-1.731892750699998
 10
11.9848059036
 20
-2.0131215651
 10
12.0503988028
 20
-2.293818152299998
 10
12.11860882999999
 20
-2.5753066515
 10
12.1892180732
 20
-2.856202875500002
 10
12.25793012759999
 20
-3.119856150700002
 10
12.3289230972
 20
-3.382902139500004
  0
LWPOLYLINE
  5
40
330
2
100
AcDbEntity
  8
0
  6
HIDDEN
 48
0.5
100
AcDbPolyline
 90
       18
 70
     0
 43
0.0
 10
-2.864745582799997
 20
4.657353042899998
 10
-2.742458731600009
 20
4.621872186899999
 10
-2.62159865800001
 20
4.587323458899994
 10
-2.502351344399983
 20
4.5537716125
 10
-2.384913579600009
 20
4.521284298899999
 10
-2.269493974799985
 20
4.489932190099999
 10
-2.156311128400005
 20
4.4597882877
 10
-2.04559318599999
 20
4.4309276221
 10
-1.937576376399988
 20
4.403426681299997
 10
-1.8325052884
 20
4.377363255699997
 10
-1.730630130000008
 20
4.352815526099995
 10
-1.632206686800003
 20
4.329861796499997
 10
-1.537493192400006
 20
4.308579489300001
 10
-1.446749969999984
 20
4.289044783699999
 10
-1.360236104400001
 20
4.271331577299996
 10
-1.278208374799987
 20
4.255510953299996
 10
-1.2009182468
 20
4.241650233299999
 10
-1.192694659599993
 20
4.240244238099997
  0
LWPOLYLINE
  5
41
330
2
100
AcDbEntity
  8
0
  6
HIDDEN
 48
0.5
100
AcDbPolyline
 90
       40
 70
     0
 43
0.0
 10
-2.864908194000008
 20
5.968905894099997
 10
-2.754723811600001
 20
5.933799735699999
 10
-2.645721530000002
 20
5.899476054099999
 10
-2.538186885199991
 20
5.866025730899998
 10
-2.432392486799983
 20
5.833533734100001
 10
-2.328554893199992
 20
5.802066247699997
 10
-2.226838624399988
 20
5.7716729053
 10
-2.127418891600001
 20
5.742406158099996
 10
-2.030497149199987
 20
5.714325465299999
 10
-1.936269819599999
 20
5.687487732499995
 10
-1.844914269199989
 20
5.6619433997
 10
-1.756599411600006
 20
5.637739678099997
 10
-1.671492963600002
 20
5.614922559699998
 10
-1.589759225999983
 20
5.593536111699997
 10
-1.511554707599998
 20
5.573621279699999
 10
-1.437027979600003
 20
5.5552158845
 10
-1.366320656400006
 20
5.538354902099996
 10
-1.299567682000002
 20
5.523070516499998
 10
-1.236896494799992
 20
5.509391905299999
 10
-1.178426545999997
 20
5.497345140499994
 10
-1.1242692852
 20
5.486953182099995
 10
-1.074527907599986
 20
5.478235831699997
 10
-1.029297299599988
 20
5.471209719699999
 10
-0.9886636628000076
 20
5.465888234899999
 10
-0.9527044836000015
 20
5.462281526099999
 10
-0.937107264399998
 20
5.461159033299999
 10
-0.9214883011999859
 20
5.4603964685
 10
-0.9082825396000089
 20
5.4601037085
 10
-0.8950746291999962
 20
5.4602366525
 10
-0.884275771599988
 20
5.4607568925
 10
-0.8735138307999932
 20
5.461802385299996
 10
-0.8651148227999954
 20
5.463123857299997
 10
-0.8568470003999948
 20
5.465090679699997
 10
-0.8508055764000062
 20
5.467169191699994
 10
-0.8451059203999875
 20
5.470095266899996
 10
-0.8424815075999845
 20
5.471982415699997
 10
-0.8401619315999937
 20
5.474207151699999
 10
-0.8383129652000036
 20
5.476806607699998
 10
-0.8367950852000092
 20
5.4808822285
 10
-0.8364810916000067
 20
5.485211900499997
  0
LWPOLYLINE
  5
42
330
2
100
AcDbEntity
  8
0
  6
HIDDEN
 48
0.5
100
AcDbPolyline
 90
       31
 70
     0
 43
0.0
 10
-2.258953534799985
 20
5.127585471700001
 10
-2.181382813200002
 20
5.097404836499997
 10
-2.106028800399997
 20
5.067689628499998
 10
-2.033118990800005
 20
5.038527954899997
 10
-1.962867074000001
 20
5.010004630099999
 10
-1.895460822800004
 20
4.982196113299998
 10
-1.831023507600008
 20
4.955153743699995
 10
-1.76966465160001
 20
4.928923542100001
 10
-1.711515617999992
 20
4.903561439699998
 10
-1.65670905959999
 20
4.879125210899999
 10
-1.605361317199992
 20
4.855666809299997
 10
-1.557577441999995
 20
4.833234306899996
 10
-1.513455528399987
 20
4.811873743699997
 10
-1.473086910799992
 20
4.791629231699999
 10
-1.454779618000003
 20
4.782170369299997
 10
-1.436559464400005
 20
4.772544748499996
 10
-1.420207342799983
 20
4.763695546899995
 10
-1.403955544399991
 20
4.754663542099997
 10
-1.389588744399986
 20
4.746443778900001
 10
-1.375339702800005
 20
4.738021415699996
 10
-1.362979002000002
 20
4.730447444500001
 10
-1.350760763599993
 20
4.722646398099996
 10
-1.340428310800007
 20
4.715738034899999
 10
-1.330272694799987
 20
4.708570806099999
 10
-1.321986333199987
 20
4.7023502125
 10
-1.313933606799992
 20
4.695834169299999
 10
-1.307700907600008
 20
4.690325596499995
 10
-1.301782541199997
 20
4.684470590099998
 10
-1.298927379600002
 20
4.681309348500001
 10
-1.296255006800009
 20
4.677998548499999
 10
-1.293836666000004
 20
4.674507102100001
  0
LWPOLYLINE
  5
43
330
2
100
AcDbEntity
  8
0
100
AcDbPolyline
 90
       31
 70
     0
 43
0.0
 10
-1.263557977999994
 20
-1.530276408300004
 10
-1.182349281999989
 20
-1.578571827499999
 10
-1.092617130000007
 20
-1.631535272299998
 10
-0.9927160659999856
 20
-1.689690913900001
 10
-0.8803790755999898
 20
-1.753622136300002
 10
-0.8165964467999913
 20
-1.789051579500004
 10
-0.752505081999999
 20
-1.823919640300005
 10
-0.6785494131999883
 20
-1.863154464300002
 10
-0.6041219011999886
 20
-1.901487270700002
 10
-0.5163870739999937
 20
-1.945114643499998
 10
-0.4279707267999982
 20
-1.987344845100004
 10
-0.3287860899999941
 20
-2.032641040299999
 10
-0.2288031475999901
 20
-2.076147747500002
 10
-0.1279206211999906
 20
-2.1179495075
 10
-0.0263487251999948
 20
-2.158047173100001
 10
0.0744874316000051
 20
-2.196022309100001
 10
0.1758700860000033
 20
-2.2325134883
 10
0.2806233212000109
 20
-2.268593033900003
 10
0.3858331547999967
 20
-2.303319078699999
 10
0.4970880476000162
 20
-2.338552593900004
 10
0.6087353436000172
 20
-2.372522718700004
 10
0.7292336124000088
 20
-2.407787835500002
 10
0.8500787499999944
 20
-2.441845982700002
 10
0.9828819580000072
 20
-2.477928653100001
 10
1.115999750000014
 20
-2.512833605099999
 10
1.264382905199994
 20
-2.550422334700002
 10
1.413056751600009
 20
-2.5868449011
 10
1.575711889199993
 20
-2.625440801900005
 10
1.73862470840001
 20
-2.662935030700005
 10
1.907768642799993
 20
-2.700778561900001
 10
2.077119285999998
 20
-2.737683859500002
  0
LWPOLYLINE
  5
44
330
2
100
AcDbEntity
  8
0
  6
HIDDEN
 48
0.5
100
AcDbPolyline
 90
       84
 70
     0
 43
0.0
 10
-2.284317845200007
 20
6.416734041299996
 10
-2.139581955599993
 20
6.360154015699997
 10
-1.995012393999985
 20
6.302951732499998
 10
-1.850741021200008
 20
6.244886860499995
 10
-1.7068996948
 20
6.185719058899998
 10
-1.563620275599987
 20
6.125207994899994
 10
-1.446454117200005
 20
6.074334902099998
 10
-1.329829016399997
 20
6.022260391700001
 10
-1.213818029199984
 20
5.968851305299999
 10
-1.098494211599984
 20
5.913974484499995
 10
-0.9839306211999883
 20
5.857496772499999
 10
-0.9156052980000026
 20
5.822742324499998
 10
-0.8477482067999915
 20
5.787094954899998
 10
-0.7805275268000003
 20
5.750286142099994
 10
-0.7141114355999889
 20
5.712047369299995
 10
-0.6765979635999884
 20
5.689430066900001
 10
-0.639530459599996
 20
5.666093647699995
 10
-0.6030371939999953
 20
5.6418737053
 10
-0.5672464323999975
 20
5.616605831699999
 10
-0.5322864467999864
 20
5.590125622099996
 10
-0.4982855044000019
 20
5.562268668499996
 10
-0.465371875599999
 20
5.532870566100001
 10
-0.4413959700000021
 20
5.509618274899999
 10
-0.4183063875999835
 20
5.485400610900001
 10
-0.3962995779999971
 20
5.4602201565
 10
-0.3755719827999826
 20
5.434079490899996
 10
-0.3563200467999934
 20
5.406981196499998
 10
-0.3387402179999981
 20
5.378927857299999
 10
-0.3230289411999934
 20
5.349922052499998
 10
-0.3093826596000042
 20
5.319966366099997
 10
-0.2988362211999913
 20
5.292172348499995
 10
-0.2892823251999914
 20
5.263951286099995
 10
-0.2798711860000083
 20
5.235647870099995
 10
-0.2666633780000041
 20
5.198654889299994
 10
-0.2527298867999832
 20
5.161939863699998
 10
-0.2385721891999992
 20
5.125325418899997
 10
-0.2246917603999918
 20
5.088634180500001
 10
-0.2115900771999861
 20
5.0516887725
 10
-0.1997686148000071
 20
5.014311820499997
 10
-0.1890593011999897
 20
4.973872335700001
 10
-0.1804575603999865
 20
4.932868108499995
 10
-0.1740485331999935
 20
4.891425593299999
 10
-0.1699173604000066
 20
4.849671242900001
 10
-0.1681491795999932
 20
4.807731506899997
 10
-0.1687206419999825
 20
4.768014990099999
 10
-0.1715090627999984
 20
4.728399218900001
 10
-0.1765413075999902
 20
4.689037654099998
 10
-0.1838442419999921
 20
4.650083762899996
 10
-0.19344472840001
 20
4.611691006099995
 10
-0.2035248995999836
 20
4.578867695699997
 10
-0.2145243523999909
 20
4.546344172499999
 10
-0.2240204356000106
 20
4.519096028500001
 10
-0.2339582211999982
 20
4.492013690899995
 10
-0.2447188852000011
 20
4.465220073299995
 10
-0.2566835988000093
 20
4.438838090899999
 10
-0.2695865155999968
 20
4.414036514899997
 10
-0.2839147603999947
 20
4.389892359699999
 10
-0.2996344243999829
 20
4.3665709821
 10
-0.3167115939999974
 20
4.344237734099998
 10
-0.3351123555999891
 20
4.323057970899995
 10
-0.3548027987999944
 20
4.303197047699995
 10
-0.3757490099999927
 20
4.284820318099995
 10
-0.3979170787999919
 20
4.268093137299999
 10
-0.4222385907999922
 20
4.252559993299996
 10
-0.4476870052000095
 20
4.2388892349
 10
-0.474101512399983
 20
4.226975932499996
 10
-0.5013213075999943
 20
4.2167151485
 10
-0.5291855827999826
 20
4.208001950099998
 10
-0.5575335284000005
 20
4.200731404499997
 10
-0.5862043379999875
 20
4.194798575699998
 10
-0.6150372035999965
 20
4.190098529299994
 10
-0.6509070099999974
 20
4.185828167699995
 10
-0.6867720115999987
 20
4.183164986899996
 10
-0.7226254803999837
 20
4.181973913299998
 10
-0.7584606835999921
 20
4.182119873299996
 10
-0.794270888400007
 20
4.183467796499996
 10
-0.830049366799983
 20
4.185882604500001
 10
-0.8822704243999908
 20
4.191050780499999
 10
-0.9343883107999886
 20
4.197787726099996
 10
-0.9863820132
 20
4.205671735700001
 10
-1.038230513999991
 20
4.214281100499995
 10
-1.089912798799986
 20
4.223194111699996
 10
-1.141407853200007
 20
4.231989060499998
 10
-1.192694659599993
 20
4.240244238099997
  0
LINE
  5
45
330
2
100
AcDbEntity
  8
0
  6
HIDDEN
 48
0.5
100
AcDbLine
 10
22.33342579479999
 20
5.189503818899998
 30
0.0
 11
22.41319408919999
 21
5.127585476499993
 31
0.0
  0
LINE
  5
46
330
2
100
AcDbEntity
  8
0
  6
HIDDEN
 48
0.5
100
AcDbLine
 10
22.89364399480001
 20
4.754647063699996
 30
0.0
 11
23.01898613880001
 21
4.657353049299997
 31
0.0
  0
LINE
  5
47
330
2
100
AcDbEntity
  8
0
  6
HIDDEN
 48
0.5
100
AcDbLine
 10
22.44304209719998
 20
6.416095706899993
 30
0.0
 11
22.5125131228
 21
6.362170388499995
 31
0.0
  0
LINE
  5
48
330
2
100
AcDbEntity
  8
0
  6
HIDDEN
 48
0.5
100
AcDbLine
 10
23.01914874839999
 20
5.968905898899995
 30
0.0
 11
23.13114356119998
 21
5.881972449299999
 31
0.0
  0
LWPOLYLINE
  5
49
330
2
100
AcDbEntity
  8
0
  6
HIDDEN
 48
0.5
100
AcDbPolyline
 90
       32
 70
     0
 43
0.0
 10
22.3334257948
 20
5.1895038189
 10
22.3325487532
 20
5.190348266899995
 10
22.3318212204
 20
5.191340942099998
 10
22.331203654
 20
5.192417961299994
 10
22.33039418839999
 20
5.194131756499999
 10
22.329714854
 20
5.195884727699997
 10
22.32912870199999
 20
5.197667506899996
 10
22.32808510360001
 20
5.201467106899997
 10
22.32722519
 20
5.2053204909
 10
22.32629653719999
 20
5.210340914900001
 10
22.32552091799999
 20
5.215384177299995
 10
22.3247159052
 20
5.2215996109
 10
22.3240370908
 20
5.227831193299998
 10
22.32335802520001
 20
5.235226390099995
 10
22.32278866359999
 20
5.242630494099998
 10
22.32224237240001
 20
5.251144015699999
 10
22.3217922284
 20
5.2596632925
 10
22.32138264919999
 20
5.269209215699994
 10
22.3210586268
 20
5.278758396499995
 10
22.32059160119999
 20
5.299756417299995
 10
22.3203911948
 20
5.322554662099996
 10
22.32045653240001
 20
5.346928553299996
 10
22.32078156599999
 20
5.372621495699995
 10
22.32135624119999
 20
5.399396518099997
 10
22.32216900599999
 20
5.427060850899998
 10
22.32320352280001
 20
5.455334514899995
 10
22.32444396279999
 20
5.484024087699999
 10
22.32587153240001
 20
5.512900015699997
 10
22.3274701292
 20
5.541813300499995
 10
22.32921900120001
 20
5.570545713299999
 10
22.33110284919999
 20
5.598986135699995
 10
22.33310337239998
 20
5.626980449299999
  0
LWPOLYLINE
  5
4A
330
2
100
AcDbEntity
  8
0
  6
HIDDEN
 48
0.5
100
AcDbPolyline
 90
       33
 70
     0
 43
0.0
 10
22.89364399480001
 20
4.754647063699998
 10
22.8929005372
 20
4.755366996500001
 10
22.89228818680001
 20
4.756215974100001
 10
22.89177300599999
 20
4.757138047699996
 10
22.890850118
 20
4.7592649101
 10
22.8901367292
 20
4.761452809299996
 10
22.8893631628
 20
4.764444846099998
 10
22.888734094
 20
4.767476919700001
 10
22.8880890732
 20
4.771283785299999
 10
22.8875597628
 20
4.775106134099999
 10
22.88703975800001
 20
4.779652156499999
 10
22.88661135160001
 20
4.7842085005
 10
22.88620771160001
 20
4.789445014099996
 10
22.88588093079999
 20
4.794686646099997
 10
22.88536239320001
 20
4.806425649299995
 10
22.8850482812
 20
4.819329734099994
 10
22.88493130520001
 20
4.8333369789
 10
22.88500523799999
 20
4.848343911699998
 10
22.88526453880001
 20
4.864326495699998
 10
22.88570489720001
 20
4.881233526099997
 10
22.88632225719999
 20
4.8990089037
 10
22.88711667480001
 20
4.917683778899998
 10
22.88808646039999
 20
4.937211735699996
 10
22.88923264600001
 20
4.957593692499997
 10
22.89055997880001
 20
4.978871535700001
 10
22.89206883319999
 20
5.000999636499997
 10
22.893766822
 20
5.024030126100001
 10
22.8956594956
 20
5.047966321299995
 10
22.897750838
 20
5.072783209299998
 10
22.9000505852
 20
5.098513668499997
 10
22.90255856600001
 20
5.125070097299996
 10
22.905282142
 20
5.152442913299999
 10
22.90822308439999
 20
5.180556732500001
  0
LWPOLYLINE
  5
4B
330
2
100
AcDbEntity
  8
0
  6
HIDDEN
 48
0.5
100
AcDbPolyline
 90
       30
 70
     0
 43
0.0
 10
-1.293836666000004
 20
4.674507102100001
 10
-1.287149726800009
 20
4.663764890899997
 10
-1.280602697999995
 20
4.652935282899996
 10
-1.274204384400007
 20
4.6420164365
 10
-1.267963597200008
 20
4.6310065037
 10
-1.261889142799986
 20
4.619903639699998
 10
-1.2573378676
 20
4.611303174100001
 10
-1.252895734800006
 20
4.602645865299997
 10
-1.248568365199986
 20
4.593930887699997
 10
-1.244361379600007
 20
4.585157422099996
 10
-1.240280398799995
 20
4.576324644499997
 10
-1.236331040399988
 20
4.567431729299997
 10
-1.232808875599999
 20
4.559172302099995
 10
-1.22940978759999
 20
4.550861138899996
 10
-1.226140005199994
 20
4.542498401300001
 10
-1.223005758799985
 20
4.534084250900001
 10
-1.220013278799996
 20
4.525618854099995
 10
-1.217168794000002
 20
4.517102370899998
 10
-1.214673914000002
 20
4.509175663699998
 10
-1.212317560400009
 20
4.501206422099997
 10
-1.210106176399989
 20
4.493195726099997
 10
-1.208046203599991
 20
4.485144654099997
 10
-1.206144083600008
 20
4.477054284499999
 10
-1.204406259600006
 20
4.468925694100001
 10
-1.20294023560001
 20
4.461316361299999
 10
-1.201628528399993
 20
4.453678340499998
 10
-1.200477131599996
 20
4.4460152125
 10
-1.199492035600002
 20
4.438330554899998
 10
-1.198679233999996
 20
4.430627948499996
 10
-1.198044717199991
 20
4.422910967699998
  0
LWPOLYLINE
  5
4C
330
2
100
AcDbEntity
  8
0
  6
HIDDEN
 48
0.5
100
AcDbPolyline
 90
       37
 70
     0
 43
0.0
 10
-2.938220286800003
 20
5.037546228499998
 10
-2.935189616400009
 20
5.009930158099997
 10
-2.931986131599984
 20
4.982140135699999
 10
-2.928621515599985
 20
4.954343886099998
 10
-2.925102926800008
 20
4.926667098899997
 10
-2.921450285199995
 20
4.899330866900001
 10
-2.917675787599989
 20
4.872488212499995
 10
-2.913803169999994
 20
4.846367385299998
 10
-2.909851626000005
 20
4.821153330899996
 10
-2.905854117199993
 20
4.797104972500001
 10
-2.901831569999984
 20
4.7743907069
 10
-2.89985913480001
 20
4.763804209299998
 10
-2.897816293200008
 20
4.7532310701
 10
-2.895869957200005
 20
4.7435333405
 10
-2.893846358800004
 20
4.733851473299999
 10
-2.891945064400005
 20
4.725135503699995
 10
-2.889958245200006
 20
4.7164385469
 10
-2.888110653199987
 20
4.708739327699994
 10
-2.88616679879999
 20
4.701064156499995
 10
-2.884389421199983
 20
4.694442164499996
 10
-2.882500402000005
 20
4.687850246099998
 10
-2.8808113348
 20
4.682361910099999
 10
-2.87899431400001
 20
4.676917364499999
 10
-2.87741796840001
 20
4.672600025299999
 10
-2.875680046799999
 20
4.668337279699997
 10
-2.874218494800004
 20
4.6651721805
 10
-2.872575869200005
 20
4.662118015699995
 10
-2.871735049999983
 20
4.660768542100001
 10
-2.870795576399984
 20
4.659475953299995
 10
-2.869708979600005
 20
4.658258442899999
 10
-2.869128376399999
 20
4.657719785299995
 10
-2.868501133199998
 20
4.657249231699999
 10
-2.867824651599988
 20
4.6568938877
 10
-2.867096328400009
 20
4.656700862099995
 10
-2.866270737999997
 20
4.656713436499998
 10
-2.865461088399996
 20
4.656939497300001
 10
-2.864745582799997
 20
4.657353042899998
  0
LWPOLYLINE
  5
4D
330
2
100
AcDbEntity
  8
0
  6
HIDDEN
 48
0.5
100
AcDbPolyline
 90
       36
 70
     0
 43
0.0
 10
-2.796688490000008
 20
5.5846335437
 10
-2.799837256399996
 20
5.6141037565
 10
-2.803173213199983
 20
5.643858849299995
 10
-2.806681473999987
 20
5.673697572499996
 10
-2.810334144400002
 20
5.703323057299996
 10
-2.814092675599994
 20
5.732380908499997
 10
-2.81793267079999
 20
5.760652114899997
 10
-2.821817054799993
 20
5.7878410717
 10
-2.825707326799999
 20
5.8136693549
 10
-2.82957301159999
 20
5.837935426899996
 10
-2.833388361999993
 20
5.860481830099999
 10
-2.837109346000005
 20
5.881064895699999
 10
-2.838873480399996
 20
5.890313324499999
 10
-2.840705086799999
 20
5.899548578899995
 10
-2.842391450000008
 20
5.907708873299995
 10
-2.844151317199987
 20
5.915853750099998
 10
-2.845750749199993
 20
5.922912914899995
 10
-2.847431181199993
 20
5.929952833299999
 10
-2.848933778000002
 20
5.935904241300001
 10
-2.850528145999987
 20
5.9418328701
 10
-2.851929702799992
 20
5.946698020500001
 10
-2.853435302799994
 20
5.9515286333
 10
-2.8547235188
 20
5.955316102099999
 10
-2.856140993999986
 20
5.959066263699995
 10
-2.857319275599991
 20
5.9618337757
 10
-2.858644352400006
 20
5.964510815699995
 10
-2.859317515599997
 20
5.965686289299995
 10
-2.860069741199993
 20
5.966823775699999
 10
-2.860939435599988
 20
5.967918026900001
 10
-2.861393611599993
 20
5.968401970899996
 10
-2.861888419600006
 20
5.968832417299999
 10
-2.862431009999994
 20
5.969166281299997
 10
-2.863028530000008
 20
5.9693604813
 10
-2.863685889999999
 20
5.969380118099998
 10
-2.8643361556
 20
5.969224250899998
 10
-2.864908194000008
 20
5.968905894099997
  0
LINE
  5
4E
330
2
100
AcDbEntity
  8
0
  6
HIDDEN
 48
0.5
100
AcDbLine
 10
-2.938220286800012
 20
5.037546228499996
 30
0.0
 11
-2.952586467599994
 21
5.172137020499993
 31
0.0
  0
LWPOLYLINE
  5
4F
330
2
100
AcDbEntity
  8
0
  6
HIDDEN
 48
0.5
100
AcDbPolyline
 90
        3
 70
     0
 43
0.0
 10
-2.796688490000008
 20
5.5846335437
 10
-2.775184096399982
 20
5.379763578899996
 10
-2.753982530000001
 20
5.1805567261
  0
LWPOLYLINE
  5
50
330
2
100
AcDbEntity
  8
0
  6
HIDDEN
 48
0.5
100
AcDbPolyline
 90
       37
 70
     0
 43
0.0
 10
-2.318726769999983
 20
5.518414201299997
 10
-2.316359345999984
 20
5.4882771933
 10
-2.313930030800008
 20
5.4592380797
 10
-2.311453920399998
 20
5.431352807700001
 10
-2.308942398799985
 20
5.404643108499996
 10
-2.306412758800007
 20
5.379196036499998
 10
-2.303865742799985
 20
5.354935826899996
 10
-2.301306184400004
 20
5.331844332499997
 10
-2.298740323599986
 20
5.309924330899995
 10
-2.296166419599984
 20
5.289120158099997
 10
-2.293588739599982
 20
5.269437570899995
 10
-2.291001757200007
 20
5.250818767699996
 10
-2.288413171599984
 20
5.233313753299995
 10
-2.285823251599993
 20
5.216925306899995
 10
-2.283230747599986
 20
5.2016590781
 10
-2.280643952399998
 20
5.187585866900001
 10
-2.278059894800009
 20
5.1747225485
 10
-2.276808608399988
 20
5.168938388499995
 10
-2.275489846799985
 20
5.163169518099998
 10
-2.274259176399993
 20
5.158095570899995
 10
-2.272949238800009
 20
5.153040657299996
 10
-2.271742790800004
 20
5.148708586899999
 10
-2.27044269000001
 20
5.144406330899997
 10
-2.269274504399987
 20
5.140875081299995
 10
-2.267984381199994
 20
5.1373787773
 10
-2.266857509200008
 20
5.134678737299999
 10
-2.265586189200007
 20
5.132064690899994
 10
-2.264909917199986
 20
5.130864922899995
 10
-2.264151227599995
 20
5.129705009299996
 10
-2.263270531599999
 20
5.128591316499999
 10
-2.262788573199998
 20
5.128078351699997
 10
-2.262262507599984
 20
5.127622710099998
 10
-2.261686056400009
 20
5.127269407699998
 10
-2.261052938000005
 20
5.127063460499996
 10
-2.260319357199989
 20
5.127044714899994
 10
-2.259593058000007
 20
5.127225705299998
 10
-2.258953534799985
 20
5.127585471700001
  0
LWPOLYLINE
  5
51
330
2
100
AcDbEntity
  8
0
  6
HIDDEN
 48
0.5
100
AcDbPolyline
 90
       39
 70
     0
 43
0.0
 10
-2.189103528399982
 20
5.764773442900001
 10
-2.192222530000009
 20
5.805353647699995
 10
-2.195464101200002
 20
5.845182015699997
 10
-2.198811181199999
 20
5.8841425405
 10
-2.202252094800002
 20
5.922181034899999
 10
-2.205768157199997
 20
5.9591649149
 10
-2.20935185639999
 20
5.995080527699997
 10
-2.212986790799988
 20
6.029820562899999
 10
-2.216666731599985
 20
6.063375482899999
 10
-2.220380723599987
 20
6.095686426899995
 10
-2.224117803599995
 20
6.126694562899999
 10
-2.227875890000007
 20
6.156410601299995
 10
-2.231641808399984
 20
6.184752062099995
 10
-2.235415786000004
 20
6.211735735699996
 10
-2.239188665999989
 20
6.2373028445
 10
-2.24295441800001
 20
6.261414833300001
 10
-2.246712565199999
 20
6.284061761299994
 10
-2.250451645200001
 20
6.305161572499997
 10
-2.254173285199982
 20
6.324702702099997
 10
-2.257868105999989
 20
6.342605631699996
 10
-2.261531846799982
 20
6.3588124045
 10
-2.265160329999986
 20
6.373255706899996
 10
-2.266893371599991
 20
6.379559956499996
 10
-2.268741830799996
 20
6.3858317213
 10
-2.270439930000009
 20
6.391171193299996
 10
-2.272274285199983
 20
6.396464100499997
 10
-2.273920385999986
 20
6.400781028499999
 10
-2.275744248400002
 20
6.405030082899997
 10
-2.277342158799996
 20
6.4082852477
 10
-2.279145712400008
 20
6.411418831699997
 10
-2.28011726919999
 20
6.412867241299998
 10
-2.281205115599988
 20
6.414236308500001
 10
-2.282463851599999
 20
6.415490250899999
 10
-2.28344950280001
 20
6.4162486381
 10
-2.284528256399994
 20
6.416823383699998
 10
-2.285687064400008
 20
6.417101887699999
 10
-2.286785170000001
 20
6.417027164499998
 10
-2.287852134800004
 20
6.416672625299995
 10
-2.288801542800001
 20
6.416095700500001
  0
LWPOLYLINE
  5
52
330
2
100
AcDbEntity
  8
0
  6
HIDDEN
 48
0.5
100
AcDbPolyline
 90
        5
 70
     0
 43
0.0
 10
-2.318726769999983
 20
5.518414201299997
 10
-2.326486147600007
 20
5.619853775700001
 10
-2.334339094799986
 20
5.7212861613
 10
-2.342541737999994
 20
5.826004382099995
 10
-2.350837605199984
 20
5.9307152477
  0
LINE
  5
53
330
2
100
AcDbEntity
  8
0
  6
HIDDEN
 48
0.5
100
AcDbLine
 10
-2.178862818000007
 20
5.626980442899997
 30
0.0
 11
-2.189103528399991
 21
5.764773442899999
 31
0.0
  0
LWPOLYLINE
  5
54
330
2
100
AcDbEntity
  8
0
100
AcDbPolyline
 90
       35
 70
     0
 43
0.0
 10
23.13114356119999
 20
5.8819724493
 10
23.13221765720001
 20
5.880954777299997
 10
23.1331226764
 20
5.879766786899999
 10
23.13389740760001
 20
5.878477817299994
 10
23.13525400439999
 20
5.875601258899997
 10
23.13632491320001
 20
5.872625180499994
 10
23.1374824396
 20
5.868617950099995
 10
23.13843751640001
 20
5.864551521300001
 10
23.1394238188
 20
5.859477462099995
 10
23.14024708120001
 20
5.854376625299998
 10
23.14106959
 20
5.848310972499994
 10
23.14176170199999
 20
5.842228319699998
 10
23.14299281879999
 20
5.828195444499996
 10
23.1439478604
 20
5.8123817293
 10
23.14463515959999
 20
5.794854329300001
 10
23.1450601388
 20
5.775728129299999
 10
23.14522969399999
 20
5.755028911699994
 10
23.14514781880001
 20
5.732795158099996
 10
23.14481822359999
 20
5.7091279005
 10
23.14424341560001
 20
5.6840420029
 10
23.1434263564
 20
5.657616546900001
 10
23.14236798199999
 20
5.629871420499995
 10
23.1410686012
 20
5.600837818899996
 10
23.1395300284
 20
5.570588023699997
 10
23.13775022359999
 20
5.5391244925
 10
23.13573311319998
 20
5.5065618717
 10
23.13347394519999
 20
5.472874508499998
 10
23.13097314840001
 20
5.438130857299995
 10
23.12823365720001
 20
5.4024307213
 10
23.12525299
 20
5.365803196499996
 10
23.12203581880001
 20
5.328368820499996
 10
23.11857926359999
 20
5.290159537299999
 10
23.11489087000001
 20
5.251325580500001
 10
23.1109713212
 20
5.211940458899995
 10
23.1068270236
 20
5.172137026899996
  0
LWPOLYLINE
  5
55
330
2
100
AcDbEntity
  8
0
  6
HIDDEN
 48
0.5
100
AcDbPolyline
 90
       30
 70
     0
 43
0.0
 10
22.51251312280001
 20
6.362170388499997
 10
22.51318373399999
 20
6.361511108499996
 10
22.51372740920001
 20
6.360728772499996
 10
22.51418048440001
 20
6.3598789933
 10
22.51504055000001
 20
6.357798494099995
 10
22.51569992439999
 20
6.355667345299998
 10
22.51645009079999
 20
6.352601442899995
 10
22.5170582812
 20
6.349495889300001
 10
22.5177116012
 20
6.3454095469
 10
22.5182470492
 20
6.341309356499998
 10
22.5187987388
 20
6.336198052499995
 10
22.51925345719999
 20
6.331076020499999
 10
22.51970296920001
 20
6.324910689299997
 10
22.5200676156
 20
6.318740150099998
 10
22.52040973559999
 20
6.311515014099995
 10
22.52067658999999
 20
6.304286561299996
 10
22.52106915480001
 20
6.287687254099999
 10
22.52123366520001
 20
6.268976718099999
 10
22.52116054359999
 20
6.248167292499999
 10
22.52084144759999
 20
6.2253274957
 10
22.5202719964
 20
6.2006118237
 10
22.519452518
 20
6.174213362899998
 10
22.5183827116
 20
6.146232604499999
 10
22.5170678556
 20
6.116888494099995
 10
22.5155238476
 20
6.086552052499996
 10
22.5137736828
 20
6.055625609300001
 10
22.5118341772
 20
6.0243360957
 10
22.50972185079999
 20
5.992889746899997
 10
22.50746092919999
 20
5.961584714899998
 10
22.5050781596
 20
5.9307152525
  0
LWPOLYLINE
  5
56
330
2
100
AcDbEntity
  8
0
100
AcDbPolyline
 90
       52
 70
     0
 43
0.0
 10
13.70870139160001
 20
-7.363349245100003
 10
13.742818438
 20
-7.437700227500002
 10
13.77771417080001
 20
-7.511689961900003
 10
13.812763982
 20
-7.583919701100001
 10
13.84867760919999
 20
-7.655723395500004
 10
13.8866583388
 20
-7.729212765100001
 10
13.9256826028
 20
-7.802153744299999
 10
13.96654749399999
 20
-7.8758209155
 10
14.0086100396
 20
-7.9488107779
 10
14.05195222840001
 20
-8.021081965100002
 10
14.09663409559999
 20
-8.092532838700002
 10
14.1423413164
 20
-8.162490233900001
 10
14.1895326956
 20
-8.2314546323
 10
14.2382186108
 20
-8.299214605100004
 10
14.2885358908
 20
-8.365772854700004
 10
14.32326297240001
 20
-8.4097287843
 10
14.35877694679999
 20
-8.453051246699999
 10
14.39510258679999
 20
-8.495695457899998
 10
14.43247454839999
 20
-8.537851048299998
 10
14.4707046748
 20
-8.579230406699998
 10
14.50980523160001
 20
-8.619788520299998
 10
14.55035609559999
 20
-8.660033232300001
 10
14.59181594040001
 20
-8.699341289900004
 10
14.63418601239999
 20
-8.737666872300003
 10
14.67851964600001
 20
-8.775852201900001
 10
14.72379260599999
 20
-8.812919585900004
 10
14.76998825239999
 20
-8.848829573100005
 10
14.81911484759999
 20
-8.885004905900004
 10
14.8691743004
 20
-8.919880425900004
 10
14.92011442360001
 20
-8.953457525099999
 10
14.97034620120001
 20
-8.9848026083
 10
15.02132191480001
 20
-9.014920267500002
 10
15.0730051804
 20
-9.0438046979
 10
15.11847712920001
 20
-9.067905769900001
 10
15.16443398679999
 20
-9.091066776300003
 10
15.21085354519999
 20
-9.113283830699998
 10
15.27097536280001
 20
-9.140368957100001
 10
15.33177063799999
 20
-9.165903909100002
 10
15.3847257564
 20
-9.186693891499999
 10
15.4381149724
 20
-9.206340627500004
 10
15.48475874199999
 20
-9.222461134700004
 10
15.53169079959999
 20
-9.237720477100005
 10
15.57275007960001
 20
-9.250294246700001
 10
15.61400372119999
 20
-9.262214049900002
 10
15.6861753036
 20
-9.281395517100001
 10
15.74900958680001
 20
-9.2964166243
 10
15.80311238359999
 20
-9.308128734699998
 10
15.8488384252
 20
-9.317175049900001
 10
15.8865020876
 20
-9.3240319139
 10
15.91634905079999
 20
-9.329065563500002
 10
15.93816841879998
 20
-9.332554721900002
 10
15.95214698520001
 20
-9.334695011500002
  0
LWPOLYLINE
  5
57
330
2
100
AcDbEntity
  8
0
100
AcDbPolyline
 90
       10
 70
     0
 43
0.0
 10
13.59029358040001
 20
-7.091175737900002
 10
13.603541094
 20
-7.122753305900005
 10
13.6168879132
 20
-7.154289121899999
 10
13.630334766
 20
-7.185782454700003
 10
13.64338159479999
 20
-7.216071661100002
 10
13.6565297596
 20
-7.246316976300001
 10
13.66978713240001
 20
-7.276514587500003
 10
13.68264661239999
 20
-7.305508369900003
 10
13.69561594199999
 20
-7.334453173100001
 10
13.70869667959999
 20
-7.363347667500001
  0
LWPOLYLINE
  5
58
330
2
100
AcDbEntity
  8
0
100
AcDbPolyline
 90
       58
 70
     0
 43
0.0
 10
0.8404702443999951
 20
-7.975211035500002
 10
0.84937063160001
 20
-8.026934801900004
 10
0.8595458700000051
 20
-8.0784310947
 10
0.8709891228000117
 20
-8.129662744299999
 10
0.8837422299999957
 20
-8.180779913900003
 10
0.8977576988000066
 20
-8.231563299500002
 10
0.9130274524000014
 20
-8.281983139499999
 10
0.9295389627999952
 20
-8.331997803500001
 10
0.9472854123999923
 20
-8.381588323500004
 10
0.9662561179999897
 20
-8.430723677100004
 10
0.9864170732000161
 20
-8.479319603500002
 10
1.007776098800007
 20
-8.527400825900002
 10
1.030320377200013
 20
-8.574937758700002
 10
1.053962857199991
 20
-8.621759089900002
 10
1.0787557692
 20
-8.6679815763
 10
1.104684226800003
 20
-8.7135767651
 10
1.131749473200017
 20
-8.758543016300002
 10
1.159919721199997
 20
-8.802825406700002
 10
1.189177966000016
 20
-8.846396606700004
 10
1.219585799599997
 20
-8.8893380899
 10
1.251050926000004
 20
-8.9315110227
 10
1.283554156400015
 20
-8.972889161899999
 10
1.317068303599995
 20
-9.013437456300003
 10
1.351579790000016
 20
-9.053140347500004
 10
1.387067498800007
 20
-9.091973099500002
 10
1.423436734000006
 20
-9.129836840300001
 10
1.460734471600005
 20
-9.166786289900002
 10
1.498937900399994
 20
-9.202798483500004
 10
1.537947159600008
 20
-9.237783603499998
 10
1.577811521200004
 20
-9.271791153900004
 10
1.618506636400013
 20
-9.304800069100004
 10
1.660075247599991
 20
-9.336840179500001
 10
1.702426825200006
 20
-9.367838003500004
 10
1.74553533240001
 20
-9.397774246700002
 10
1.789446657200016
 20
-9.426676166699998
 10
1.834063686000007
 20
-9.454476313900002
 10
1.879358839600001
 20
-9.481157326699999
 10
1.925299897200005
 20
-9.506699803499998
 10
1.971862533999996
 20
-9.531090777900004
 10
2.019017913200002
 20
-9.554315025900002
 10
2.066600343600015
 20
-9.576296616299998
 10
2.114713826799999
 20
-9.597090110700001
 10
2.163328718000002
 20
-9.616682637099998
 10
2.212373161199991
 20
-9.635046549100003
 10
2.261858078000017
 20
-9.652188133100004
 10
2.311752985200001
 20
-9.6680968243
 10
2.362168729199993
 20
-9.682801809899999
 10
2.412934758000005
 20
-9.696248075500001
 10
2.464019719600003
 20
-9.708427328300004
 10
2.515437623600007
 20
-9.719340757099999
 10
2.567111143600016
 20
-9.728970734699998
 10
2.619007802800012
 20
-9.737311366699998
 10
2.671098798000002
 20
-9.744357593899998
 10
2.7233496172
 20
-9.750105029099998
 10
2.775729394800009
 20
-9.754550289900002
 10
2.82793148120001
 20
-9.757677384300002
 10
2.880192793199995
 20
-9.759511622700003
 10
2.932475482800015
 20
-9.7600520883
  0
LWPOLYLINE
  5
59
330
2
100
AcDbEntity
  8
0
  6
HIDDEN
 48
0.5
100
AcDbPolyline
 90
       30
 70
     0
 43
0.0
 10
-0.8364810916000067
 20
5.485211900499997
 10
-0.8371156083999835
 20
5.492928881299995
 10
-0.8379284099999892
 20
5.500631487699997
 10
-0.838913505999983
 20
5.5083161453
 10
-0.8400649028000088
 20
5.515979273299997
 10
-0.8413766099999975
 20
5.523617294099999
 10
-0.842842633999993
 20
5.5312266269
 10
-0.8445804579999958
 20
5.539355215699998
 10
-0.8464825780000069
 20
5.547445586899996
 10
-0.8485425508000048
 20
5.555496658899997
 10
-0.8507539347999966
 20
5.563507354899996
 10
-0.8531102883999892
 20
5.571476596499998
 10
-0.8556051683999896
 20
5.579403303699997
 10
-0.8584496531999832
 20
5.587919786899995
 10
-0.8614421332000006
 20
5.5963851837
 10
-0.8645763796000096
 20
5.6047993325
 10
-0.8678461620000064
 20
5.613162070099996
 10
-0.8712452515999871
 20
5.621473234900001
 10
-0.8747674148000044
 20
5.629732662099996
 10
-0.8787167731999829
 20
5.638625575699997
 10
-0.882797755599995
 20
5.647458354899995
 10
-0.8870047396000018
 20
5.656231820499996
 10
-0.8913321091999932
 20
5.664946796499997
 10
-0.8957742419999874
 20
5.6736041069
 10
-0.9003255188000025
 20
5.682204572499998
 10
-0.9063999715999955
 20
5.693307434899999
 10
-0.9126407587999949
 20
5.704317367699999
 10
-0.9190390723999826
 20
5.715236215699995
 10
-0.9255861011999968
 20
5.726065823699997
 10
-0.9322730403999912
 20
5.736808034900001
  0
LWPOLYLINE
  5
5A
330
2
100
AcDbEntity
  8
0
100
AcDbPolyline
 90
       17
 70
     0
 43
0.0
 10
12.32734339960001
 20
-3.381016862700001
 10
12.4072211836
 20
-3.666867030700004
 10
12.4899423292
 20
-3.951910504300002
 10
12.55451352279999
 20
-4.1671848947
 10
12.620742782
 20
-4.381954997100002
 10
12.68861155799999
 20
-4.596212627500001
 10
12.76571429079999
 20
-4.833085344300002
 10
12.8446988572
 20
-5.069337926700001
 10
12.9254557692
 20
-5.304989857900004
 10
13.00416152439999
 20
-5.529673715500003
 10
13.08411083480001
 20
-5.753917990700003
 10
13.1650284332
 20
-5.977813929900001
 10
13.2735528812
 20
-6.274119080300003
 10
13.38413574680001
 20
-6.5696718051
 10
13.4510269804
 20
-6.744235269100002
 10
13.51954366359999
 20
-6.9181599347
 10
13.59029390840001
 20
-7.091176563499999
  0
LWPOLYLINE
  5
5B
330
2
100
AcDbEntity
  8
0
100
AcDbPolyline
 90
       46
 70
     0
 43
0.0
 10
11.48893795
 20
-7.091176582700001
 10
11.44178372760001
 20
-6.850568694700001
 10
11.38728259800001
 20
-6.575344497900005
 10
11.32633006840001
 20
-6.262457969900005
 10
11.26189353239999
 20
-5.915510885100005
 10
11.19676934520001
 20
-5.538269619499999
 10
11.13042518840001
 20
-5.122007720300004
 10
11.0615129036
 20
-4.652975969900005
 10
10.9887084636
 20
-4.1141186515
 10
10.91224079799999
 20
-3.495613825900001
 10
10.87167837079999
 20
-3.143151481899998
 10
10.83312326680001
 20
-2.7904637699
 10
10.76137815640001
 20
-2.081193413100002
 10
10.7039629772
 20
-1.453244153900001
 10
10.65803140119999
 20
-0.9000385890999993
 10
10.62140756440001
 20
-0.4141355251000008
 10
10.59179709560001
 20
0.0134378684999987
 10
10.56709543639999
 20
0.3932716604999982
 10
10.54594441239999
 20
0.729981172499997
 10
10.52729516760001
 20
1.0272047869
 10
10.5101248892
 20
1.290952858899999
 10
10.49380995640001
 20
1.525632959699997
 10
10.47803157399999
 20
1.734271620499995
 10
10.46256551319999
 20
1.919771682899998
 10
10.4472560444
 20
2.084707814099999
 10
10.43199118999999
 20
2.231443903699997
 10
10.4166882332
 20
2.362166540499998
 10
10.40128317080001
 20
2.478789825299998
 10
10.3857240092
 20
2.582963729299997
 10
10.36996392599999
 20
2.676114482899997
 10
10.3539546108
 20
2.759470276499996
 10
10.33763800119999
 20
2.834072916499998
 10
10.32095026199999
 20
2.900817956499999
 10
10.30383392600001
 20
2.960429742099996
 10
10.28625354999999
 20
3.013426111699999
 10
10.2681922172
 20
3.060198908499998
 10
10.24964482359999
 20
3.101076111699995
 10
10.23062802039998
 20
3.136327194899998
 10
10.211198518
 20
3.166167166099995
 10
10.19148384120001
 20
3.190777319699996
 10
10.17171586200001
 20
3.210348569299995
 10
10.15225192119999
 20
3.225151402899996
 10
10.1333614156
 20
3.235705343699997
 10
10.11487849240001
 20
3.242742514900001
 10
10.09617487159999
 20
3.246852945299998
 10
10.07712027639999
 20
3.2482012237
  0
LWPOLYLINE
  5
5C
330
2
100
AcDbEntity
  8
0
100
AcDbPolyline
 90
       27
 70
     0
 43
0.0
 10
9.626945386800002
 20
1.0272047869
 10
9.64411566519999
 20
1.290952858899999
 10
9.660430598000004
 20
1.525632959699997
 10
9.676208980399991
 20
1.734271620499995
 10
9.691675041199999
 20
1.919771682899998
 10
9.706984510000012
 20
2.084707814099999
 10
9.722249364399999
 20
2.231443903699997
 10
9.737552319600013
 20
2.362166540499998
 10
9.752957383600005
 20
2.478789825299998
 10
9.768516545200014
 20
2.582963729299997
 10
9.784276628399993
 20
2.676114482899997
 10
9.800285943600016
 20
2.759470276499996
 10
9.816602551599999
 20
2.834072916499998
 10
9.833290292399993
 20
2.900817956499999
 10
9.850406628400008
 20
2.960429742099996
 10
9.867987004399992
 20
3.013426111699999
 10
9.886048335600008
 20
3.060198908499998
 10
9.904595730799996
 20
3.101076111699995
 10
9.923612534
 20
3.136327194899998
 10
9.943042036400015
 20
3.166167166099995
 10
9.962756713200008
 20
3.190777319699996
 10
9.982524692400005
 20
3.210348569299995
 10
10.0019886332
 20
3.225151402899996
 10
10.02087913720001
 20
3.235705343699997
 10
10.03936206200001
 20
3.242742514900001
 10
10.05806568279999
 20
3.246852945299998
 10
10.07712027639999
 20
3.2482012237
  0
LWPOLYLINE
  5
5D
330
2
100
AcDbEntity
  8
0
  6
HIDDEN
 48
0.5
100
AcDbPolyline
 90
       30
 70
     0
 43
0.0
 10
20.99072164759999
 20
5.485211905299998
 10
20.9913561628
 20
5.492928886099996
 10
20.99216896440001
 20
5.500631492499998
 10
20.9931540604
 20
5.5083161501
 10
20.9943054572
 20
5.515979278099997
 10
20.99561716440001
 20
5.523617298899999
 10
20.99708318840001
 20
5.5312266317
 10
20.99882101240001
 20
5.539355222099999
 10
21.00072313239999
 20
5.547445591699997
 10
21.00278310519999
 20
5.555496663699997
 10
21.00499448920001
 20
5.563507359699997
 10
21.0073508428
 20
5.571476601299998
 10
21.00984572280001
 20
5.579403308499998
 10
21.0126902076
 20
5.587919791699995
 10
21.01568268759999
 20
5.596385188500001
 10
21.018816934
 20
5.604799338900001
 10
21.02208671639999
 20
5.613162076499996
 10
21.025485806
 20
5.621473239699994
 10
21.02900797079999
 20
5.629732666899997
 10
21.0329573276
 20
5.638625582099997
 10
21.03703831000001
 20
5.647458359699996
 10
21.04124529399999
 20
5.656231825299997
 10
21.04557266360001
 20
5.664946801299997
 10
21.0500147964
 20
5.673604111700001
 10
21.05456607319999
 20
5.682204577299998
 10
21.06064052600001
 20
5.693307441299999
 10
21.06688131480001
 20
5.7043173741
 10
21.0732796268
 20
5.715236220499996
 10
21.07982665560001
 20
5.726065828499997
 10
21.0865135948
 20
5.736808039700001
  0
LWPOLYLINE
  5
5E
330
2
100
AcDbEntity
  8
0
100
AcDbPolyline
 90
       19
 70
     0
 43
0.0
 10
8.665302562800007
 20
-7.091176934700001
 10
8.712456826800007
 20
-6.850568694700001
 10
8.766957956400005
 20
-6.575344497900005
 10
8.827910486000007
 20
-6.262457969900005
 10
8.892347021999995
 20
-5.915510885100005
 10
8.957471209200008
 20
-5.538269619499999
 10
9.023815366000007
 20
-5.122007720300004
 10
9.092727650800014
 20
-4.652975969900005
 10
9.165532090800013
 20
-4.1141186515
 10
9.241999756399991
 20
-3.495613825900001
 10
9.282562183599992
 20
-3.143151481899998
 10
9.321117287600003
 20
-2.7904637699
 10
9.392862398000005
 20
-2.081193413100002
 10
9.450277575600011
 20
-1.453244153900001
 10
9.496209151599998
 20
-0.9000385890999993
 10
9.532832990000002
 20
-0.4141355251000008
 10
9.562443458800004
 20
0.0134378684999987
 10
9.587145117999995
 20
0.3932716604999982
 10
9.626945386800002
 20
1.0272047869
  0
LWPOLYLINE
  5
5F
330
2
100
AcDbEntity
  8
0
100
AcDbPolyline
 90
       19
 70
     0
 43
0.0
 10
6.56319305720001
 20
-7.0911758883
 10
6.631173692400011
 20
-6.926280017900005
 10
6.696971218800001
 20
-6.760489830700002
 10
6.761108481200011
 20
-6.594044181100002
 10
6.831851462000003
 20
-6.4062992403
 10
6.901495874799991
 20
-6.218151371499999
 10
6.970382252400014
 20
-6.029724750700005
 10
7.04778423159999
 20
-5.816106061100001
 10
7.124388885999991
 20
-5.602199949100004
 10
7.199934358000007
 20
-5.387917241899998
 10
7.282859249200015
 20
-5.147802265900004
 10
7.363999455600009
 20
-4.9070774387
 10
7.443221593200007
 20
-4.665715117099999
 10
7.515700414000008
 20
-4.438663529900004
 10
7.586343313199989
 20
-4.211033849900005
 10
7.655120191599991
 20
-3.982833481900001
 10
7.713770844400016
 20
-3.782637326700005
 10
7.770994550000011
 20
-3.5820294691
 10
7.826816954799994
 20
-3.381029731499999
  0
LWPOLYLINE
  5
60
330
2
100
AcDbEntity
  8
0
100
AcDbPolyline
 90
        9
 70
     0
 43
0.0
 10
6.445617961200014
 20
-7.363345024300002
 10
6.465097193199994
 20
-7.319711859500003
 10
6.484410314800015
 20
-7.276004763500004
 10
6.497633319599998
 20
-7.245836713900004
 10
6.510774988400015
 20
-7.215633205100004
 10
6.523824217200001
 20
-7.185389683499998
 10
6.537229313200015
 20
-7.154030077100003
 10
6.550530399600006
 20
-7.122626165100001
 10
6.563734466800013
 20
-7.091181414700002
  0
LWPOLYLINE
  5
61
330
2
100
AcDbEntity
  8
0
100
AcDbPolyline
 90
       52
 70
     0
 43
0.0
 10
6.445613025200003
 20
-7.363346601899998
 10
6.41246328919999
 20
-7.435508590700003
 10
6.378585877999995
 20
-7.507332689900003
 10
6.34453762199999
 20
-7.577568160300003
 10
6.309693116400012
 20
-7.647411774700003
 10
6.272963900400014
 20
-7.718804366699998
 10
6.235276620400014
 20
-7.789696057900002
 10
6.195912230000004
 20
-7.861216525100005
 10
6.155430574000007
 20
-7.932110581100005
 10
6.113732510000005
 20
-8.002369065900005
 10
6.070779614000002
 20
-8.0718674931
 10
6.026756980399994
 20
-8.140144729900001
 10
5.981355599599993
 20
-8.207512993900003
 10
5.934626678
 20
-8.273716445099999
 10
5.886388105200012
 20
-8.338828147500002
 10
5.836283233199992
 20
-8.403105038700005
 10
5.7845199116
 20
-8.466054037100001
 10
5.748832303600011
 20
-8.507480625900001
 10
5.712354591599989
 20
-8.548213427500002
 10
5.675071129200006
 20
-8.588210576299999
 10
5.636690836399992
 20
-8.627707125100002
 10
5.597465482800004
 20
-8.666364502699998
 10
5.557383221999998
 20
-8.704132243499998
 10
5.51566850040001
 20
-8.741638286700002
 10
5.473069762800008
 20
-8.778138397100001
 10
5.429604313200002
 20
-8.813601977899999
 10
5.383189565999998
 20
-8.849592481900003
 10
5.335883314800014
 20
-8.8844042467
 10
5.287725172400001
 20
-8.918028318700002
 10
5.238787428400001
 20
-8.950434566700003
 10
5.189074857200012
 20
-8.981638229099999
 10
5.138623812399998
 20
-9.011631758699998
 10
5.09267229560001
 20
-9.037554869099999
 10
5.04617927160001
 20
-9.0624919507
 10
4.999170582000004
 20
-9.086440917099999
 10
4.938001330800005
 20
-9.115783784299999
 10
4.876074294000005
 20
-9.1434884835
 10
4.822055401200003
 20
-9.1660833715
 10
4.767543479599993
 20
-9.187459568299999
 10
4.719727172400013
 20
-9.205072419499998
 10
4.671582231600012
 20
-9.2217646307
 10
4.629283604400001
 20
-9.2355900003
 10
4.586763103599992
 20
-9.248716341099999
 10
4.511911604400012
 20
-9.269994331500001
 10
4.446113714799992
 20
-9.286821800300003
 10
4.388710999599993
 20
-9.300115440300004
 10
4.339189583600017
 20
-9.310561131500001
 10
4.29724036120001
 20
-9.3186876675
 10
4.262638649199999
 20
-9.324894952299999
 10
4.235302985200007
 20
-9.329487561900002
 10
4.215162865199999
 20
-9.332695499500005
 10
4.202100257200015
 20
-9.334694913900001
  0
LWPOLYLINE
  5
62
330
2
100
AcDbEntity
  8
0
  6
HIDDEN
 48
0.5
100
AcDbPolyline
 90
       30
 70
     0
 43
0.0
 10
-2.358272568399996
 20
6.362170382099996
 10
-2.358943179600004
 20
6.361511102099996
 10
-2.359486854799996
 20
6.360728766099995
 10
-2.359939929999995
 20
6.3598789885
 10
-2.36079999559999
 20
6.357798487699994
 10
-2.361459370000005
 20
6.355667338899998
 10
-2.362209536400001
 20
6.352601436499995
 10
-2.362817726799988
 20
6.349495882900001
 10
-2.363471046799986
 20
6.3454095405
 10
-2.364006494800008
 20
6.341309350099997
 10
-2.36455818440001
 20
6.336198046100001
 10
-2.365012902800003
 20
6.331076014099998
 10
-2.365462414799992
 20
6.324910684499997
 10
-2.365827061200008
 20
6.318740143699997
 10
-2.366169181200007
 20
6.311515009299995
 10
-2.366436035600003
 20
6.304286556499995
 10
-2.366828600399998
 20
6.287687249299999
 10
-2.366993110799995
 20
6.268976711699998
 10
-2.366919989199999
 20
6.248167287699999
 10
-2.366600893200001
 20
6.225327490899999
 10
-2.366031442000007
 20
6.2006118189
 10
-2.365211963599989
 20
6.174213356499997
 10
-2.364142157200006
 20
6.146232598099999
 10
-2.362827301199985
 20
6.116888489299995
 10
-2.361283293199988
 20
6.086552047699996
 10
-2.359533128399988
 20
6.055625602900001
 10
-2.35759362280001
 20
6.0243360909
 10
-2.3554812964
 20
5.992889742099997
 10
-2.353220374800002
 20
5.961584708499998
 10
-2.350837605199984
 20
5.9307152477
  0
LWPOLYLINE
  5
63
330
2
100
AcDbEntity
  8
0
  6
HIDDEN
 48
0.5
100
AcDbPolyline
 90
       33
 70
     0
 43
0.0
 10
-2.739403440399996
 20
4.754647057299997
 10
-2.738659981199987
 20
4.7553669901
 10
-2.738047632399997
 20
4.756215969300001
 10
-2.737532450000003
 20
4.757138042899995
 10
-2.736609561999983
 20
4.7592649037
 10
-2.735896173199989
 20
4.761452804499995
 10
-2.73512260679999
 20
4.764444839699997
 10
-2.734493539600009
 20
4.767476913300001
 10
-2.733848517199987
 20
4.771283778899999
 10
-2.73331920679999
 20
4.775106129299999
 10
-2.732799201999995
 20
4.779652151699998
 10
-2.73237079719999
 20
4.784208495699999
 10
-2.731967157199989
 20
4.789445009299996
 10
-2.731640376400008
 20
4.794686639699996
 10
-2.731121838799992
 20
4.806425642899995
 10
-2.730807725200008
 20
4.819329727700001
 10
-2.730690749199993
 20
4.833336972499999
 10
-2.730764682
 20
4.848343906899998
 10
-2.731023982799996
 20
4.864326490899998
 10
-2.731464342799995
 20
4.881233519699996
 10
-2.732081702800002
 20
4.899008897299999
 10
-2.732876118799993
 20
4.917683772499998
 10
-2.733845905999999
 20
4.937211729299995
 10
-2.734992089999991
 20
4.957593687699997
 10
-2.736319424399994
 20
4.9788715293
 10
-2.737828278800009
 20
5.000999631699997
 10
-2.739526267599984
 20
5.0240301213
 10
-2.741418939600009
 20
5.047966314899994
 10
-2.743510283599988
 20
5.072783204499998
 10
-2.745810030799987
 20
5.098513663699996
 10
-2.748318009999991
 20
5.125070090899995
 10
-2.751041585999985
 20
5.152442906899999
 10
-2.753982530000001
 20
5.1805567261
  0
LWPOLYLINE
  5
64
330
2
100
AcDbEntity
  8
0
  6
HIDDEN
 48
0.5
100
AcDbPolyline
 90
       32
 70
     0
 43
0.0
 10
-2.179185238799988
 20
5.189503812499999
 10
-2.17830819880001
 20
5.190348260499995
 10
-2.177580665999983
 20
5.191340935699997
 10
-2.176963099599987
 20
5.192417954900001
 10
-2.176153634000002
 20
5.194131751699998
 10
-2.175474299599983
 20
5.195884722899997
 10
-2.1748881476
 20
5.197667502099996
 10
-2.173844549199998
 20
5.201467102099996
 10
-2.172984635599988
 20
5.205320486099999
 10
-2.172055982800003
 20
5.210340910100001
 10
-2.171280362000004
 20
5.215384170899994
 10
-2.170475349199989
 20
5.221599606099999
 10
-2.169796536399985
 20
5.227831186899997
 10
-2.169117470799989
 20
5.235226383699995
 10
-2.168548109200003
 20
5.242630489299997
 10
-2.168001816399993
 20
5.251144010899999
 10
-2.167551674000009
 20
5.2596632877
 10
-2.167142093199998
 20
5.269209209300001
 10
-2.16681807079999
 20
5.278758390099994
 10
-2.166351046800002
 20
5.299756412499995
 10
-2.16615064039999
 20
5.322554655699995
 10
-2.166215977999996
 20
5.346928548499995
 10
-2.166541011600003
 20
5.372621489299994
 10
-2.167115686800002
 20
5.399396513299997
 10
-2.167928451600005
 20
5.427060844499997
 10
-2.168962968399995
 20
5.455334510099994
 10
-2.170203408399999
 20
5.484024081299999
 10
-2.171630977999996
 20
5.512900009299997
 10
-2.173229574799989
 20
5.541813294099995
 10
-2.174978446799997
 20
5.570545708499999
 10
-2.176862294800002
 20
5.598986130899994
 10
-2.178862817999998
 20
5.626980442899998
  0
LWPOLYLINE
  5
65
330
2
100
AcDbEntity
  8
0
  6
HIDDEN
 48
0.5
100
AcDbPolyline
 90
       35
 70
     0
 43
0.0
 10
-2.9769030068
 20
5.8819724445
 10
-2.977977102799997
 20
5.880954770899997
 10
-2.978882121999987
 20
5.879766780499998
 10
-2.979656853199998
 20
5.878477812500001
 10
-2.981013450000006
 20
5.875601252499997
 10
-2.982084358799994
 20
5.872625174100001
 10
-2.983241885199987
 20
5.868617945299995
 10
-2.984196961999998
 20
5.8645515149
 10
-2.985183264400006
 20
5.859477455699995
 10
-2.986006526799997
 20
5.854376618899998
 10
-2.98682903560001
 20
5.848310966100001
 10
-2.987521147600006
 20
5.842228313299997
 10
-2.988752264400005
 20
5.828195439699996
 10
-2.989707305999985
 20
5.812381722899999
 10
-2.990394605200009
 20
5.794854324500001
 10
-2.990819584399986
 20
5.775728124499998
 10
-2.990989139600003
 20
5.755028905300001
 10
-2.990907264399993
 20
5.732795153299996
 10
-2.990577669200007
 20
5.709127894099999
 10
-2.990002861199997
 20
5.684041996499999
 10
-2.989185802000008
 20
5.657616540500001
 10
-2.988127426000005
 20
5.629871414099994
 10
-2.986828045199985
 20
5.600837812499996
 10
-2.985289473999984
 20
5.570588018899996
 10
-2.983509669200003
 20
5.5391244861
 10
-2.981492558799999
 20
5.5065618669
 10
-2.979233390800004
 20
5.472874503699998
 10
-2.976732593999997
 20
5.438130850899995
 10
-2.973993102799994
 20
5.402430714899999
 10
-2.971012435599988
 20
5.365803190099995
 10
-2.967795264399995
 20
5.328368815699995
 10
-2.964338707600006
 20
5.290159530899998
 10
-2.960650313999991
 20
5.2513255741
 10
-2.956730765200006
 20
5.211940452499995
 10
-2.952586467599985
 20
5.172137020499995
  0
LINE
  5
66
330
2
100
AcDbEntity
  8
0
  6
HIDDEN
 48
0.5
100
AcDbLine
 10
-2.28880154280001
 20
6.416095700499999
 30
0.0
 11
-2.358272568400005
 21
6.362170382099995
 31
0.0
  0
LINE
  5
67
330
2
100
AcDbEntity
  8
0
  6
HIDDEN
 48
0.5
100
AcDbLine
 10
-2.864908194000017
 20
5.968905894099995
 30
0.0
 11
-2.976903006800009
 21
5.881972444499998
 31
0.0
  0
LINE
  5
68
330
2
100
AcDbEntity
  8
0
  6
HIDDEN
 48
0.5
100
AcDbLine
 10
-2.179185238799997
 20
5.189503812499998
 30
0.0
 11
-2.258953534799994
 21
5.127585471699999
 31
0.0
  0
LINE
  5
69
330
2
100
AcDbEntity
  8
0
  6
HIDDEN
 48
0.5
100
AcDbLine
 10
-2.739403440400005
 20
4.754647057299996
 30
0.0
 11
-2.864745582800006
 21
4.657353042899996
 31
0.0
  0
LINE
  5
6A
330
2
100
AcDbEntity
  8
0
  6
HIDDEN
 48
0.5
100
AcDbLine
 10
22.33310337239998
 20
5.626980449299997
 30
0.0
 11
22.34334408279999
 21
5.764773447699999
 31
0.0
  0
LWPOLYLINE
  5
6B
330
2
100
AcDbEntity
  8
0
  6
HIDDEN
 48
0.5
100
AcDbPolyline
 90
        5
 70
     0
 43
0.0
 10
22.472967326
 20
5.518414207699997
 10
22.480726702
 20
5.619853782100001
 10
22.4885796492
 20
5.7212861677
 10
22.49678229240001
 20
5.826004386899995
 10
22.5050781596
 20
5.9307152525
  0
LWPOLYLINE
  5
6C
330
2
100
AcDbEntity
  8
0
  6
HIDDEN
 48
0.5
100
AcDbPolyline
 90
       39
 70
     0
 43
0.0
 10
22.3433440828
 20
5.764773447700001
 10
22.34646308439999
 20
5.805353652499995
 10
22.34970465559999
 20
5.845182022099997
 10
22.35305173559999
 20
5.884142546900001
 10
22.35649264919999
 20
5.9221810413
 10
22.36000871160001
 20
5.9591649197
 10
22.36359241080001
 20
5.995080532499997
 10
22.3672273452
 20
6.029820567699999
 10
22.370907286
 20
6.0633754893
 10
22.374621278
 20
6.095686431699995
 10
22.37835835800001
 20
6.126694569299999
 10
22.38211644439999
 20
6.156410607699996
 10
22.3858823628
 20
6.184752066899996
 10
22.38965634039999
 20
6.211735740499996
 10
22.3934292188
 20
6.2373028509
 10
22.3971949724
 20
6.261414838099994
 10
22.40095311959998
 20
6.284061766099995
 10
22.40469219959999
 20
6.305161577299998
 10
22.4084138396
 20
6.324702708499998
 10
22.4121086604
 20
6.342605638099996
 10
22.4157724012
 20
6.3588124109
 10
22.4194008844
 20
6.373255711699997
 10
22.42113392600001
 20
6.379559962899996
 10
22.42298238520001
 20
6.385831727700001
 10
22.4246804844
 20
6.391171198099996
 10
22.4265148396
 20
6.396464106899998
 10
22.4281609404
 20
6.400781034899999
 10
22.42998480279999
 20
6.405030089299998
 10
22.43158271320001
 20
6.4082852541
 10
22.43338626679999
 20
6.411418838099997
 10
22.43435782360001
 20
6.412867246099999
 10
22.43544567
 20
6.414236313300001
 10
22.43670440599998
 20
6.4154902573
 10
22.4376900572
 20
6.416248642900001
 10
22.43876881080001
 20
6.416823388499999
 10
22.43992761879999
 20
6.417101892499999
 10
22.44102572439999
 20
6.417027170899999
 10
22.44209268919999
 20
6.416672630099995
 10
22.44304209719999
 20
6.416095706899994
  0
LWPOLYLINE
  5
6D
330
2
100
AcDbEntity
  8
0
  6
HIDDEN
 48
0.5
100
AcDbPolyline
 90
       37
 70
     0
 43
0.0
 10
22.472967326
 20
5.518414207699997
 10
22.4705999004
 20
5.4882771981
 10
22.4681705852
 20
5.4592380861
 10
22.46569447480001
 20
5.431352812499994
 10
22.4631829532
 20
5.404643114899997
 10
22.4606533132
 20
5.379196041299998
 10
22.4581062972
 20
5.354935833299997
 10
22.45554673879999
 20
5.331844337299997
 10
22.452980878
 20
5.309924337299996
 10
22.450406974
 20
5.289120162899997
 10
22.447829294
 20
5.269437575699996
 10
22.44524231319999
 20
5.250818774099997
 10
22.442653726
 20
5.233313759699996
 10
22.44006380760001
 20
5.216925313299995
 10
22.437471302
 20
5.201659084500001
 10
22.43488450680001
 20
5.187585871700001
 10
22.4323004492
 20
5.1747225549
 10
22.4310491644
 20
5.168938393299995
 10
22.4297304028
 20
5.163169522899998
 10
22.42849973080001
 20
5.158095575699995
 10
22.4271897932
 20
5.153040662099996
 10
22.42598334679999
 20
5.1487085917
 10
22.4246832444
 20
5.144406337299997
 10
22.4235150588
 20
5.140875087699996
 10
22.42222493560001
 20
5.1373787821
 10
22.42109806359999
 20
5.1346787421
 10
22.41982674519999
 20
5.132064697299995
 10
22.4191504732
 20
5.130864927699995
 10
22.41839178200001
 20
5.129705015699997
 10
22.41751108759999
 20
5.1285913229
 10
22.41702912760001
 20
5.128078356499997
 10
22.416503062
 20
5.127622716499999
 10
22.41592661079999
 20
5.127269414099998
 10
22.41529349239999
 20
5.127063466899997
 10
22.4145599132
 20
5.127044719699995
 10
22.4138336124
 20
5.127225710099999
 10
22.4131940892
 20
5.127585476499994
  0
LWPOLYLINE
  5
6E
330
2
100
AcDbEntity
  8
0
  6
HIDDEN
 48
0.5
100
AcDbPolyline
 90
        3
 70
     0
 43
0.0
 10
22.9509290444
 20
5.584633550100001
 10
22.9294246508
 20
5.379763585299997
 10
22.90822308439999
 20
5.180556732500001
  0
LINE
  5
6F
330
2
100
AcDbEntity
  8
0
  6
HIDDEN
 48
0.5
100
AcDbLine
 10
23.09246084279998
 20
5.037546234899997
 30
0.0
 11
23.10682702359999
 21
5.172137026899994
 31
0.0
  0
LWPOLYLINE
  5
70
330
2
100
AcDbEntity
  8
0
  6
HIDDEN
 48
0.5
100
AcDbPolyline
 90
       36
 70
     0
 43
0.0
 10
22.9509290444
 20
5.584633550100001
 10
22.95407781080001
 20
5.614103762900001
 10
22.9574137676
 20
5.643858855699996
 10
22.9609220284
 20
5.673697578899997
 10
22.96457469879999
 20
5.703323063699997
 10
22.96833323000001
 20
5.732380914899998
 10
22.97217322520001
 20
5.760652121299997
 10
22.97605760920001
 20
5.787841078100001
 10
22.97994788279999
 20
5.8136693613
 10
22.98381356600001
 20
5.837935433299996
 10
22.98762891640001
 20
5.860481836499999
 10
22.99134990039999
 20
5.8810649021
 10
22.99311403480001
 20
5.890313329299999
 10
22.99494564119999
 20
5.899548585299996
 10
22.99663200439999
 20
5.907708879699995
 10
22.9983918716
 20
5.915853756499998
 10
22.99999130360001
 20
5.922912921299996
 10
23.00167173560001
 20
5.9299528397
 10
23.00317433239999
 20
5.935904247700001
 10
23.0047687004
 20
5.941832876500001
 10
23.00617025720001
 20
5.946698026899994
 10
23.00767585720001
 20
5.951528639700001
 10
23.00896407319999
 20
5.955316108499999
 10
23.0103815484
 20
5.959066270099995
 10
23.01155983000001
 20
5.961833782100001
 10
23.01288490679999
 20
5.964510822099995
 10
23.01355807000001
 20
5.965686294099995
 10
23.01431029560001
 20
5.9668237821
 10
23.01517999
 20
5.967918033299994
 10
23.01563416600001
 20
5.968401977299997
 10
23.01612897399999
 20
5.9688324237
 10
23.01667156440001
 20
5.969166287699998
 10
23.0172690844
 20
5.969360486100001
 10
23.01792644439998
 20
5.969380124499998
 10
23.01857671159999
 20
5.969224257299998
 10
23.0191487484
 20
5.968905898899997
  0
LWPOLYLINE
  5
71
330
2
100
AcDbEntity
  8
0
  6
HIDDEN
 48
0.5
100
AcDbPolyline
 90
       37
 70
     0
 43
0.0
 10
23.09246084279999
 20
5.037546234899998
 10
23.0894301708
 20
5.009930162899998
 10
23.086226686
 20
4.9821401421
 10
23.08286207
 20
4.954343890899998
 10
23.07934348119999
 20
4.926667105299998
 10
23.07569083960001
 20
4.899330873299994
 10
23.071916342
 20
4.872488218899995
 10
23.06804372440001
 20
4.846367391699999
 10
23.06409218039999
 20
4.821153337299996
 10
23.06009467160001
 20
4.797104978899994
 10
23.056072126
 20
4.7743907117
 10
23.0540996908
 20
4.763804215699998
 10
23.0520568492
 20
4.7532310749
 10
23.05011051159999
 20
4.743533345300001
 10
23.04808691319999
 20
4.7338514797
 10
23.04618561879999
 20
4.725135510099995
 10
23.04419880119999
 20
4.716438551700001
 10
23.0423512076
 20
4.708739332499995
 10
23.0404073532
 20
4.701064162899996
 10
23.0386299756
 20
4.694442169299996
 10
23.03674095799999
 20
4.687850250899998
 10
23.03505188919999
 20
4.682361916499999
 10
23.0332348684
 20
4.6769173709
 10
23.0316585244
 20
4.672600030099999
 10
23.02992060279998
 20
4.668337286099998
 10
23.02845904919999
 20
4.665172185300001
 10
23.02681642519999
 20
4.662118020499995
 10
23.025975606
 20
4.660768548499994
 10
23.0250361324
 20
4.659475959699996
 10
23.02394953399999
 20
4.658258449299999
 10
23.02336893079999
 20
4.657719790099996
 10
23.02274168919999
 20
4.6572492365
 10
23.0220652076
 20
4.656893894100001
 10
23.0213368828
 20
4.656700868499996
 10
23.02051129240001
 20
4.656713442899999
 10
23.01970164440001
 20
4.656939503699994
 10
23.01898613880001
 20
4.657353049299999
  0
LWPOLYLINE
  5
72
330
2
100
AcDbEntity
  8
0
100
AcDbPolyline
 90
       58
 70
     0
 43
0.0
 10
19.31377030839999
 20
-7.975211035500002
 10
19.3048699212
 20
-8.026934801900004
 10
19.29469468440001
 20
-8.0784310947
 10
19.2832514316
 20
-8.129662744299999
 10
19.27049832439999
 20
-8.180779913900003
 10
19.25648285560001
 20
-8.231563299500002
 10
19.24121310200001
 20
-8.281983139499999
 10
19.22470158999999
 20
-8.331997803500001
 10
19.20695514039999
 20
-8.381588323500004
 10
19.1879844348
 20
-8.430723677100004
 10
19.1678234812
 20
-8.479319603500002
 10
19.14646445560001
 20
-8.527400825900002
 10
19.1239201772
 20
-8.574937758700002
 10
19.1002776972
 20
-8.621759089900002
 10
19.07548478519998
 20
-8.6679815763
 10
19.04955632760001
 20
-8.7135767651
 10
19.0224910812
 20
-8.758543016300002
 10
18.99432083319999
 20
-8.802825406700002
 10
18.9650625884
 20
-8.846396606700004
 10
18.93465475479999
 20
-8.8893380899
 10
18.90318962840001
 20
-8.9315110227
 10
18.8706863964
 20
-8.972889161899999
 10
18.83717224919999
 20
-9.013437456300003
 10
18.8026607644
 20
-9.053140347500004
 10
18.76717305560001
 20
-9.091973099500002
 10
18.73080382040001
 20
-9.129836840300001
 10
18.69350608280001
 20
-9.166786289900002
 10
18.65530265239999
 20
-9.202798483500004
 10
18.61629339480001
 20
-9.237783603499998
 10
18.57642903320001
 20
-9.271791153900004
 10
18.535733918
 20
-9.304800069100004
 10
18.4941653068
 20
-9.336840179500001
 10
18.45181372920001
 20
-9.367838003500004
 10
18.40870522200001
 20
-9.397774246700002
 10
18.3647938972
 20
-9.426676166699998
 10
18.32017686840001
 20
-9.454476313900002
 10
18.27488171480001
 20
-9.481157326699999
 10
18.22894065720001
 20
-9.506699803499998
 10
18.18237802039999
 20
-9.531090777900004
 10
18.13522264120001
 20
-9.554315025900002
 10
18.0876402108
 20
-9.576296616299998
 10
18.03952672759999
 20
-9.597090110700001
 10
17.99091183640001
 20
-9.616682637099998
 10
17.94186739319999
 20
-9.635046549100003
 10
17.8923824748
 20
-9.652188133100004
 10
17.84248756920001
 20
-9.6680968243
 10
17.79207182519999
 20
-9.682801809899999
 10
17.74130579640001
 20
-9.696248075500001
 10
17.69022083480001
 20
-9.708427328300004
 10
17.63880293080001
 20
-9.719340757099999
 10
17.5871294108
 20
-9.728970734699998
 10
17.5352327516
 20
-9.737311366699998
 10
17.48314175480001
 20
-9.744357593899998
 10
17.43089093719999
 20
-9.750105029099998
 10
17.3785111596
 20
-9.754550289900002
 10
17.3263090732
 20
-9.757677384300002
 10
17.27404776119999
 20
-9.759511622700003
 10
17.2217650716
 20
-9.7600520883
  0
LWPOLYLINE
  5
73
330
2
100
AcDbEntity
  8
0
  6
HIDDEN
 48
0.5
100
AcDbPolyline
 90
       84
 70
     0
 43
0.0
 10
22.43855839959999
 20
6.416734047699996
 10
22.29382251000001
 20
6.360154020499997
 10
22.1492529484
 20
6.302951738899999
 10
22.00498157399999
 20
6.244886865299996
 10
21.86114024919999
 20
6.185719065299998
 10
21.71786083
 20
6.125208001299995
 10
21.60069467159999
 20
6.074334908499999
 10
21.48406957080001
 20
6.022260396499994
 10
21.3680585836
 20
5.968851310099999
 10
21.252734766
 20
5.913974489299995
 10
21.1381711756
 20
5.857496778899999
 10
21.06984585239999
 20
5.822742329299998
 10
21.00198876120001
 20
5.787094959699999
 10
20.93476808119999
 20
5.750286146899995
 10
20.86835199
 20
5.712047374099995
 10
20.830838518
 20
5.689430071699995
 10
20.79377101560001
 20
5.666093652499995
 10
20.75727774840001
 20
5.6418737101
 10
20.72148698680001
 20
5.616605836499999
 10
20.6865270012
 20
5.590125626899997
 10
20.65252605879999
 20
5.562268673299996
 10
20.61961242999998
 20
5.532870570899994
 10
20.59563652439999
 20
5.509618279699999
 10
20.5725469436
 20
5.485400615700001
 10
20.55054013240001
 20
5.4602201613
 10
20.5298125372
 20
5.434079495699997
 10
20.51056060280001
 20
5.406981201299998
 10
20.49298077400001
 20
5.378927862099999
 10
20.47726949560001
 20
5.349922057299998
 10
20.46362321399999
 20
5.319966370899997
 10
20.45307677560001
 20
5.292172353299996
 10
20.44352287960001
 20
5.263951290899996
 10
20.4341117404
 20
5.235647874899996
 10
20.42090393239999
 20
5.198654894099995
 10
20.4069704428
 20
5.161939868499999
 10
20.39281274359999
 20
5.125325423699997
 10
20.37893231480001
 20
5.088634185299994
 10
20.3658306316
 20
5.0516887773
 10
20.3540091692
 20
5.014311825299998
 10
20.3432998556
 20
4.973872340500001
 10
20.3346981164
 20
4.932868113299996
 10
20.32828908920001
 20
4.891425598099999
 10
20.32415791479999
 20
4.849671247700001
 10
20.32238973400001
 20
4.807731511699998
 10
20.3229611964
 20
4.768014994899999
 10
20.32574961880001
 20
4.728399223699994
 10
20.3307818636
 20
4.689037658899998
 10
20.33808479640001
 20
4.650083767699996
 10
20.3476852828
 20
4.611691010899996
 10
20.357765454
 20
4.578867700499998
 10
20.3687649068
 20
4.546344177299999
 10
20.37826099
 20
4.519096033299994
 10
20.38819877720001
 20
4.492013695699995
 10
20.39895943959999
 20
4.465220078099996
 10
20.4109241548
 20
4.438838095699999
 10
20.42382707000001
 20
4.414036519699997
 10
20.43815531640001
 20
4.389892364499999
 10
20.4538749804
 20
4.366570986900001
 10
20.47095214840001
 20
4.344237738899998
 10
20.4893529116
 20
4.323057975699995
 10
20.50904335480001
 20
4.303197052499996
 10
20.52998956600001
 20
4.284820322899996
 10
20.55215763480001
 20
4.268093142099999
 10
20.57647914520001
 20
4.252559998099997
 10
20.6019275596
 20
4.2388892397
 10
20.6283420684
 20
4.226975937299997
 10
20.65556186360001
 20
4.2167151533
 10
20.6834261388
 20
4.208001954899998
 10
20.71177408439999
 20
4.200731409299997
 10
20.740444894
 20
4.194798580499998
 10
20.76927775960001
 20
4.190098534099995
 10
20.80514756440001
 20
4.185828172499995
 10
20.84101256759999
 20
4.183164991699996
 10
20.8768660348
 20
4.181973918099998
 10
20.91270123800001
 20
4.182119879699996
 10
20.94851144439999
 20
4.183467801299997
 10
20.9842899228
 20
4.185882610899994
 10
21.03651097880001
 20
4.191050785299999
 10
21.0886288668
 20
4.197787730899996
 10
21.14062256759999
 20
4.205671742100001
 10
21.19247107
 20
4.214281105299995
 10
21.2441533548
 20
4.223194116499996
 10
21.2956484076
 20
4.231989065299998
 10
21.34693521400001
 20
4.240244242899997
  0
LWPOLYLINE
  5
74
330
2
100
AcDbEntity
  8
0
  6
HIDDEN
 48
0.5
100
AcDbPolyline
 90
       31
 70
     0
 43
0.0
 10
22.4131940892
 20
5.127585476499994
 10
22.33562336759999
 20
5.097404842899997
 10
22.26026935480001
 20
5.067689633299998
 10
22.18735954519999
 20
5.038527961299998
 10
22.11710762839999
 20
5.010004634899999
 10
22.04970137719999
 20
4.982196118099999
 10
21.9852640636
 20
4.955153748499995
 10
21.9239052076
 20
4.928923546899994
 10
21.86575617400001
 20
4.903561444499999
 10
21.8109496156
 20
4.8791252157
 10
21.75960187160001
 20
4.855666815699997
 10
21.71181799640001
 20
4.833234311699996
 10
21.6676960828
 20
4.811873748499998
 10
21.62732746520001
 20
4.7916292365
 10
21.60902017399999
 20
4.782170374099997
 10
21.59080001879999
 20
4.772544754899996
 10
21.5744478972
 20
4.763695553299996
 10
21.55819610040001
 20
4.754663548499998
 10
21.5438292988
 20
4.746443785299994
 10
21.52958025719999
 20
4.738021420499997
 10
21.51721955799999
 20
4.730447449300001
 10
21.50500131960001
 20
4.722646402899997
 10
21.49466886519999
 20
4.715738039699999
 10
21.4845132508
 20
4.708570810899999
 10
21.4762268876
 20
4.702350217300001
 10
21.46817416120001
 20
4.695834174099999
 10
21.461941462
 20
4.690325601299996
 10
21.45602309560001
 20
4.684470596499998
 10
21.45316793559999
 20
4.681309353300001
 10
21.4504955628
 20
4.6779985549
 10
21.44807722039999
 20
4.674507106899994
  0
LWPOLYLINE
  5
75
330
2
100
AcDbEntity
  8
0
  6
HIDDEN
 48
0.5
100
AcDbPolyline
 90
       40
 70
     0
 43
0.0
 10
23.0191487484
 20
5.968905898899997
 10
22.90896436599999
 20
5.933799742099999
 10
22.79996208439999
 20
5.899476060499999
 10
22.6924274396
 20
5.866025737299999
 10
22.5866330412
 20
5.833533740499994
 10
22.48279544760001
 20
5.802066254099997
 10
22.3810791788
 20
5.771672911700001
 10
22.28165944599999
 20
5.742406164499996
 10
22.1847377036
 20
5.7143254717
 10
22.09051037399999
 20
5.687487737299996
 10
21.99915482360001
 20
5.6619434045
 10
21.91083996599999
 20
5.637739682899997
 10
21.82573351799999
 20
5.614922566099998
 10
21.7439997804
 20
5.593536118099997
 10
21.66579526200001
 20
5.573621284499999
 10
21.59126853559999
 20
5.555215890900001
 10
21.52056121079999
 20
5.538354908499997
 10
21.45380823639999
 20
5.523070521299999
 10
21.39113704920001
 20
5.509391910099999
 10
21.33266710040001
 20
5.497345145299995
 10
21.27850984119999
 20
5.486953186899995
 10
21.228768462
 20
5.478235836499997
 10
21.183537854
 20
5.471209724499999
 10
21.14290421719999
 20
5.465888239699999
 10
21.10694503799999
 20
5.4622815325
 10
21.09134781880001
 20
5.461159038099999
 10
21.0757288556
 20
5.460396473300001
 10
21.06252309399999
 20
5.4601037133
 10
21.04931518360001
 20
5.460236657300001
 10
21.038516326
 20
5.460756897300001
 10
21.02775438520001
 20
5.461802390099997
 10
21.01935537720001
 20
5.463123862099998
 10
21.01108755480001
 20
5.465090684499998
 10
21.00504613079999
 20
5.467169196499995
 10
20.9993464748
 20
5.470095271699996
 10
20.9967220636
 20
5.471982420499998
 10
20.99440248600001
 20
5.4742071565
 10
20.99255352119999
 20
5.476806612499999
 10
20.99103563959999
 20
5.4808822333
 10
20.99072164759999
 20
5.485211905299998
  0
LWPOLYLINE
  5
76
330
2
100
AcDbEntity
  8
0
  6
HIDDEN
 48
0.5
100
AcDbPolyline
 90
       18
 70
     0
 43
0.0
 10
23.01898613880001
 20
4.657353049299999
 10
22.89669928599999
 20
4.621872193299999
 10
22.7758392124
 20
4.587323463699995
 10
22.6565919004
 20
4.5537716173
 10
22.5391541356
 20
4.5212843053
 10
22.4237345292
 20
4.489932196499999
 10
22.31055168279999
 20
4.4597882925
 10
22.19983374200001
 20
4.4309276285
 10
22.09181693080001
 20
4.403426686099997
 10
21.98674584279999
 20
4.377363262099997
 10
21.884870686
 20
4.352815530899995
 10
21.78644724119999
 20
4.329861801299998
 10
21.69173374679999
 20
4.308579494100001
 10
21.6009905244
 20
4.2890447885
 10
21.51447665879999
 20
4.271331583699996
 10
21.4324489292
 20
4.255510958099996
 10
21.35515880279999
 20
4.2416502381
 10
21.34693521400001
 20
4.240244242899997
  0
LWPOLYLINE
  5
77
330
2
100
AcDbEntity
  8
0
  6
HIDDEN
 48
0.5
100
AcDbPolyline
 90
       30
 70
     0
 43
0.0
 10
21.44807722039999
 20
4.674507106899994
 10
21.4413902828
 20
4.663764895699998
 10
21.43484325240001
 20
4.652935289299996
 10
21.42844494039999
 20
4.6420164413
 10
21.4222041532
 20
4.6310065085
 10
21.4161296988
 20
4.619903646099999
 10
21.41157842199999
 20
4.611303178899994
 10
21.40713628919999
 20
4.602645870099998
 10
21.4028089212
 20
4.593930894099997
 10
21.3986019356
 20
4.585157428499996
 10
21.39452095320001
 20
4.576324649299998
 10
21.3905715964
 20
4.567431734099997
 10
21.38704943159999
 20
4.559172306899995
 10
21.3836503436
 20
4.550861143699997
 10
21.38038056120001
 20
4.542498406100001
 10
21.3772463148
 20
4.534084257300001
 10
21.37425383320001
 20
4.525618858899996
 10
21.37140934999999
 20
4.517102375699998
 10
21.36891446839999
 20
4.509175668499999
 10
21.3665581148
 20
4.501206428499997
 10
21.36434673080001
 20
4.493195732499998
 10
21.36228675800001
 20
4.485144658899997
 10
21.36038463959999
 20
4.477054289299999
 10
21.35864681559999
 20
4.468925700500001
 10
21.35718079
 20
4.4613163661
 10
21.35586908440001
 20
4.453678345299998
 10
21.35471768600001
 20
4.446015217300001
 10
21.35373258999999
 20
4.438330561299999
 10
21.35291978840001
 20
4.430627953299996
 10
21.35228527320001
 20
4.422910974099998
  0
LWPOLYLINE
  5
78
330
2
100
AcDbEntity
  8
0
100
AcDbPolyline
 90
       43
 70
     0
 43
0.0
 10
18.217670862
 20
-9.507110585900001
 10
18.22406329079998
 20
-9.5045100675
 10
18.23021074519999
 20
-9.501517611499998
 10
18.23596582519999
 20
-9.497935606700004
 10
18.24118112920001
 20
-9.4935664435
 10
18.24570925719999
 20
-9.488212510700002
 10
18.24791326039999
 20
-9.484662819500002
 10
18.24969573879999
 20
-9.480877571500002
 10
18.25090818359998
 20
-9.477008005100003
 10
18.25140208760001
 20
-9.473205357099999
 10
18.2510289404
 20
-9.469620869100005
 10
18.2495432636
 20
-9.466122531500005
 10
18.24708260119999
 20
-9.4630101539
 10
18.24386158199999
 20
-9.460236989100003
 10
18.2400948348
 20
-9.457756291500004
 10
18.23599698679998
 20
-9.4555213139
 10
18.2317826652
 20
-9.453485310700003
 10
18.22161673560001
 20
-9.449074917099999
 10
18.21184138360001
 20
-9.445411573100003
 10
18.20224183959999
 20
-9.442303493099998
 10
18.19260332760001
 20
-9.439558894699999
 10
18.17480224920001
 20
-9.435113721900002
 10
18.15649292279999
 20
-9.431151521899998
 10
18.13798277559999
 20
-9.427603328300001
 10
18.10496362040001
 20
-9.422080166699998
 10
18.07201849719999
 20
-9.417353528300004
 10
18.03439175159999
 20
-9.412610128300002
 10
17.9966399676
 20
-9.408385182700001
 10
17.9537345452
 20
-9.4040844035
 10
17.91080940599999
 20
-9.400203387499999
 10
17.86289770039999
 20
-9.3962545603
 10
17.81495359480001
 20
-9.392635771500003
 10
17.7104243004
 20
-9.385647205099999
 10
17.59812303800001
 20
-9.379185670700003
 10
17.478866646
 20
-9.373211246700002
 10
17.3534507212
 20
-9.367693725100004
 10
17.224590694
 20
-9.3626814275
 10
17.09679516919999
 20
-9.358271405099998
 10
16.97111735800001
 20
-9.354419856300005
 10
16.8470371292
 20
-9.351042209900001
 10
16.7241785068
 20
-9.348074713900004
 10
16.60198933239999
 20
-9.3454617955
 10
16.47982452280001
 20
-9.343156993900002
  0
LWPOLYLINE
  5
79
330
2
100
AcDbEntity
  8
0
100
AcDbPolyline
 90
       21
 70
     0
 43
0.0
 10
17.2217650716
 20
-9.7600520883
 10
17.26458235320001
 20
-9.746255328300001
 10
17.30767028599998
 20
-9.733307800300003
 10
17.35097738359999
 20
-9.7210878339
 10
17.3944521596
 20
-9.709473761899999
 10
17.45501259159999
 20
-9.694144257899999
 10
17.51574456919999
 20
-9.679541315500003
 10
17.57659563320001
 20
-9.665457952300002
 10
17.66379873720001
 20
-9.645860601900004
 10
17.7511096236
 20
-9.626682630700003
 10
17.82983089239999
 20
-9.609539526700004
 10
17.90845756120001
 20
-9.592166793899998
 10
17.97500028600001
 20
-9.5769904339
 10
18.04155305559999
 20
-9.561303627500002
 10
18.06728440759999
 20
-9.555060501100001
 10
18.09292659639999
 20
-9.548530174700005
 10
18.118360254
 20
-9.541511182699998
 10
18.14346601240001
 20
-9.533802061100004
 10
18.16596429879999
 20
-9.526097585900004
 10
18.1884252588
 20
-9.517916105899999
 10
18.217670862
 20
-9.507110585900001
  0
LINE
  5
7C
330
2
100
AcDbEntity
  8
0
100
AcDbLine
 10
-7.872607989646022
 20
7.484735073299999
 30
0.0
 11
-7.781306756423445
 21
8.528312944660571
 31
0.0
  0
LWPOLYLINE
  5
85
330
2
100
AcDbEntity
  8
0
100
AcDbPolyline
 90
        3
 70
     0
 43
0.0
 10
-3.833928342799993
 20
8.390695532499997
 10
-3.486024936399985
 20
4.6112387597
 10
-3.129177441999985
 20
0.653871919699995
  0
LWPOLYLINE
  5
86
330
2
100
AcDbEntity
  8
0
  6
HIDDEN
 48
0.5
100
AcDbPolyline
 90
       18
 70
     0
 43
0.0
 10
-2.839021277200004
 20
5.561679551699995
 10
-2.839607421199985
 20
5.549798274899998
 10
-2.839805272399985
 20
5.534871458899999
 10
-2.839603528400004
 20
5.517119588500001
 10
-2.839007624399982
 20
5.497082404499998
 10
-2.838035928399989
 20
5.475190380499995
 10
-2.836695537999986
 20
5.451597884499996
 10
-2.835004616399999
 20
5.426710031699997
 10
-2.833016009999994
 20
5.401304081299997
 10
-2.830778544400004
 20
5.3759301117
 10
-2.828309224399987
 20
5.350756471699995
 10
-2.825646057999989
 20
5.326203098899995
 10
-2.822868873999993
 20
5.303003090899998
 10
-2.820040306000009
 20
5.281626926099995
 10
-2.817177368399995
 20
5.262182766099996
 10
-2.814320448399996
 20
5.2449795725
 10
-2.811552517199999
 20
5.230531204499996
 10
-2.808934595599993
 20
5.219120321299996
  0
LWPOLYLINE
  5
87
330
2
100
AcDbEntity
  8
0
  6
HIDDEN
 48
0.5
100
AcDbPolyline
 90
        4
 70
     0
 43
0.0
 10
-2.808215557199986
 20
5.219409369299995
 10
-2.809185195600008
 20
5.210658575699994
 10
-2.810527329999985
 20
5.205242823699997
 10
-2.812202312399989
 20
5.203330698899996
  0
LWPOLYLINE
  5
88
330
2
100
AcDbEntity
  8
0
  6
HIDDEN
 48
0.5
100
AcDbPolyline
 90
        3
 70
     0
 43
0.0
 10
-2.847987355599997
 20
5.569566625299998
 10
-2.846644819599987
 20
5.574984454099997
 10
-2.844969939599991
 20
5.576896332499998
  0
LINE
  5
8A
330
2
100
AcDbEntity
  8
0
100
AcDbLine
 10
15.38706881719999
 20
-12.0152649267
 30
0.0
 11
15.4825360844
 21
-11.9985667059
 31
0.0
  0
LINE
  5
8B
330
2
100
AcDbEntity
  8
0
100
AcDbLine
 10
4.671701134000008
 20
-11.9985663779
 30
0.0
 11
4.767170929199997
 21
-12.0152649267
 31
0.0
  0
LWPOLYLINE
  5
8C
330
2
100
AcDbEntity
  8
0
100
AcDbPolyline
 90
       16
 70
     0
 43
0.0
 10
2.559859497199994
 20
-10.7426404387
 10
2.6003175564
 20
-10.75779765949999
 10
2.622475185200016
 20
-10.7659810819
 10
2.658362385200007
 20
-10.7786568947
 10
2.709246474800011
 20
-10.7953013459
 10
2.772756220399998
 20
-10.8138738179
 10
2.8433554028
 20
-10.8317460099
 10
2.917837009200013
 20
-10.8476139075
 10
2.993556911599995
 20
-10.86086658749999
 10
3.070236210800004
 20
-10.8716772419
 10
3.150487354799992
 20
-10.8806314755
 10
3.237114687600012
 20
-10.8881847171
 10
3.333224863600008
 20
-10.8948128851
 10
3.443945906799996
 20
-10.9010738019
 10
3.573400071599991
 20
-10.9073011027
 10
3.715721335599994
 20
-10.9133253635
  0
LINE
  5
8D
330
2
100
AcDbEntity
  8
0
100
AcDbLine
 10
4.628631122800006
 20
-11.9739362755
 30
0.0
 11
4.671701134000008
 21
-11.9985663779
 31
0.0
  0
LINE
  5
8E
330
2
100
AcDbEntity
  8
0
100
AcDbLine
 10
0.7421825739999886
 20
-8.881158077100005
 30
0.0
 11
0.9841822332000074
 21
-9.021240350700006
 31
0.0
  0
LWPOLYLINE
  5
8F
330
2
100
AcDbEntity
  8
0
100
AcDbPolyline
 90
        6
 70
     0
 43
0.0
 10
2.003206758000004
 20
-10.4139402835
 10
2.33913223479999
 20
-10.6363140755
 10
2.548874762800011
 20
-10.7278173651
 10
2.684062554799993
 20
-10.7767353843
 10
3.120781373999989
 20
-10.8675089059
 10
3.718504714799991
 20
-10.9034264243
  0
LINE
  5
90
330
2
100
AcDbEntity
  8
0
100
AcDbLine
 10
3.702934053999987
 20
-11.1344819619
 30
0.0
 11
3.759024748399999
 21
-11.1773545379
 31
0.0
  0
LINE
  5
91
330
2
100
AcDbEntity
  8
0
100
AcDbLine
 10
0.458129430000005
 20
-8.656442704300006
 30
0.0
 11
0.7422321115999946
 21
-8.881191024300003
 31
0.0
  0
LWPOLYLINE
  5
92
330
2
100
AcDbEntity
  8
0
  6
HIDDEN
 48
0.5
100
AcDbPolyline
 90
       19
 70
     0
 43
0.0
 10
-2.29230309959999
 20
5.987723335699996
 10
-2.292923113999989
 20
5.977295676499998
 10
-2.293209118800007
 20
5.964363452499995
 10
-2.293161862799991
 20
5.949117114899998
 10
-2.292782512400009
 20
5.9317431869
 10
-2.292072043600001
 20
5.912421774099996
 10
-2.291033670800004
 20
5.891383068499997
 10
-2.28967081639999
 20
5.868842943699995
 10
-2.287995926799993
 20
5.845143271699996
 10
-2.286029184400007
 20
5.820678337299995
 10
-2.283805421199986
 20
5.795956170899998
 10
-2.281346365199993
 20
5.771290530899996
 10
-2.278702854800002
 20
5.747258369299999
 10
-2.275951638799995
 20
5.724564521299996
 10
-2.273151509200005
 20
5.703654316499999
 10
-2.270314928399983
 20
5.684616703700001
 10
-2.267494259599999
 20
5.667840850899999
 10
-2.264771374800005
 20
5.653814484499996
 10
-2.262205750800006
 20
5.642791690899997
  0
LWPOLYLINE
  5
93
330
2
100
AcDbEntity
  8
0
  6
HIDDEN
 48
0.5
100
AcDbPolyline
 90
        4
 70
     0
 43
0.0
 10
-2.261780520400009
 20
5.641940804499995
 10
-2.262733803599985
 20
5.634197607699995
 10
-2.264018153999984
 20
5.6293542557
 10
-2.265627481999985
 20
5.627597095699996
  0
LWPOLYLINE
  5
94
330
2
100
AcDbEntity
  8
0
  6
HIDDEN
 48
0.5
100
AcDbPolyline
 90
        4
 70
     0
 43
0.0
 10
-2.3022397796
 20
5.986845588499996
 10
-2.301285841999998
 20
5.994578849299998
 10
-2.300002230800004
 20
5.999410642899995
 10
-2.298395109199987
 20
6.001162729299998
  0
LWPOLYLINE
  5
95
330
2
100
AcDbEntity
  8
0
100
AcDbPolyline
 90
        7
 70
     0
 43
0.0
 10
17.91007858680001
 20
-9.386308310700002
 10
17.9359149244
 20
-9.3794554531
 10
17.97571930680001
 20
-9.369559928299999
 10
18.0252237308
 20
-9.357853432300004
 10
18.08182340920001
 20
-9.344950325100001
 10
18.1436356572
 20
-9.331202790700004
 10
18.2093525292
 20
-9.316792560300001
  0
LINE
  5
96
330
2
100
AcDbEntity
  8
0
100
AcDbLine
 10
14.0408941244
 20
-11.1152378803
 30
0.0
 11
14.18522999
 21
-11.0810385747
 31
0.0
  0
LWPOLYLINE
  5
97
330
2
100
AcDbEntity
  8
0
100
AcDbPolyline
 90
        7
 70
     0
 43
0.0
 10
18.209357694
 20
-9.3167914323
 10
18.27833227159999
 20
-9.301726190700001
 10
18.3500050604
 20
-9.285975142700003
 10
18.4269658716
 20
-9.268731237099999
 10
18.51107996600001
 20
-9.249127993900003
 10
18.60404446679999
 20
-9.2260607539
 10
18.7076758508
 20
-9.1979224739
  0
LWPOLYLINE
  5
98
330
2
100
AcDbEntity
  8
0
100
AcDbPolyline
 90
        3
 70
     0
 43
0.0
 10
16.71496732919999
 20
-11.0752494547
 10
16.6933033244
 20
-11.0781599123
 10
16.595243686
 20
-11.0837050995
  0
LINE
  5
99
330
2
100
AcDbEntity
  8
0
100
AcDbLine
 10
12.02355947
 20
-10.9859351011
 30
0.0
 11
12.03320496439999
 21
-10.9849705267
 31
0.0
  0
LWPOLYLINE
  5
9A
330
2
100
AcDbEntity
  8
0
100
AcDbPolyline
 90
       16
 70
     0
 43
0.0
 10
16.6993782156
 20
-11.0776238915
 10
16.7015556988
 20
-11.0774300035
 10
16.70357488600001
 20
-11.07723979229999
 10
16.70543496600001
 20
-11.0770532835
 10
16.70713512439999
 20
-11.0768705075
 10
16.70867455160001
 20
-11.0766914899
 10
16.71005243479999
 20
-11.0765162579
 10
16.7112679612
 20
-11.0763448387
 10
16.71232032119999
 20
-11.07617725949999
 10
16.7132086988
 20
-11.0760135491
 10
16.71393228600001
 20
-11.0758537331
 10
16.71449026679999
 20
-11.0756978403
 10
16.71483296600001
 20
-11.0755688579
 10
16.7150567148
 20
-11.0754427155
 10
16.71516200600001
 20
-11.0753194211
 10
16.71514933080001
 20
-11.0751989795
  0
LINE
  5
9B
330
2
100
AcDbEntity
  8
0
100
AcDbLine
 10
16.69455160759999
 20
-11.0780225891
 30
0.0
 11
16.6993782156
 21
-11.0776238915
 31
0.0
  0
LWPOLYLINE
  5
9C
330
2
100
AcDbEntity
  8
0
100
AcDbPolyline
 90
        3
 70
     0
 43
0.0
 10
16.642278014
 20
-11.0500710115
 10
16.71185332760001
 20
-11.0448289555
 10
16.713787166
 20
-11.0440225651
  0
LINE
  5
9D
330
2
100
AcDbEntity
  8
0
100
AcDbLine
 10
16.68750908439999
 20
-11.0785507011
 30
0.0
 11
16.69455160759999
 21
-11.0780225891
 31
0.0
  0
LINE
  5
9E
330
2
100
AcDbEntity
  8
0
100
AcDbLine
 10
12.0328825324
 20
-10.9849941059
 30
0.0
 11
12.03424306839999
 21
-10.9849004931
 31
0.0
  0
LINE
  5
9F
330
2
100
AcDbEntity
  8
0
100
AcDbLine
 10
16.68008060919998
 20
-11.0790613315
 30
0.0
 11
16.68750908439999
 21
-11.0785507011
 31
0.0
  0
LINE
  5
A0
330
2
100
AcDbEntity
  8
0
100
AcDbLine
 10
16.66735215959999
 20
-11.0798633731
 30
0.0
 11
16.68008060919998
 21
-11.0790613315
 31
0.0
  0
LWPOLYLINE
  5
A1
330
2
100
AcDbEntity
  8
0
100
AcDbPolyline
 90
        3
 70
     0
 43
0.0
 10
16.4357630172
 20
-10.9034253907
 10
17.03429418679999
 20
-10.8674184467
 10
17.47091201719999
 20
-10.7764938595
  0
LINE
  5
A2
330
2
100
AcDbEntity
  8
0
100
AcDbLine
 10
5.880498367600003
 20
-11.0792163651
 30
0.0
 11
5.889024620399984
 21
-11.0787395795
 31
0.0
  0
LINE
  5
A3
330
2
100
AcDbEntity
  8
0
100
AcDbLine
 10
16.64747704759999
 20
-11.0809982579
 30
0.0
 11
16.66735215959999
 21
-11.0798633731
 31
0.0
  0
LINE
  5
A4
330
2
100
AcDbEntity
  8
0
100
AcDbLine
 10
16.61808668599999
 20
-11.0825180739
 30
0.0
 11
16.64747704759999
 21
-11.0809982579
 31
0.0
  0
LINE
  5
A5
330
2
100
AcDbEntity
  8
0
100
AcDbLine
 10
16.49111329879999
 20
-11.0569148883
 30
0.0
 11
16.64227801399999
 21
-11.0500710115
 31
0.0
  0
LINE
  5
A6
330
2
100
AcDbEntity
  8
0
100
AcDbLine
 10
16.5663639468
 20
-11.0849309795
 30
0.0
 11
16.61808668599999
 21
-11.0825180739
 31
0.0
  0
LWPOLYLINE
  5
A7
330
2
100
AcDbEntity
  8
0
100
AcDbPolyline
 90
       12
 70
     0
 43
0.0
 10
16.43850545719999
 20
-10.9133259155
 10
16.61584461079999
 20
-10.9057026819
 10
16.77014623479999
 20
-10.8978293715
 10
16.89824154519999
 20
-10.8896064851
 10
17.00954590200001
 20
-10.8800552051
 10
17.110807166
 20
-10.86817155709999
 10
17.2076109436
 20
-10.8529787315
 10
17.30199735479999
 20
-10.83379643549999
 10
17.3898907532
 20
-10.8115537795
 10
17.4642478012
 20
-10.78918899869999
 10
17.5176740876
 20
-10.7710482947
 10
17.55069503160001
 20
-10.75900422269999
  0
LINE
  5
A8
330
2
100
AcDbEntity
  8
0
100
AcDbLine
 10
16.59524368599999
 20
-11.0837050995
 30
0.0
 11
16.4269930988
 21
-11.0906873139
 31
0.0
  0
LINE
  5
A9
330
2
100
AcDbEntity
  8
0
100
AcDbLine
 10
12.03424306839999
 20
-10.9849004931
 30
0.0
 11
12.03050511639999
 21
-10.9850556499
 31
0.0
  0
LINE
  5
AA
330
2
100
AcDbEntity
  8
0
100
AcDbLine
 10
16.47649956919999
 20
-11.0886953155
 30
0.0
 11
16.5663639468
 21
-11.0849309795
 31
0.0
  0
LINE
  5
AB
330
2
100
AcDbEntity
  8
0
100
AcDbLine
 10
16.42236841399999
 20
-10.9138648691
 30
0.0
 11
16.4239001532
 21
-10.9138042291
 31
0.0
  0
LINE
  5
AC
330
2
100
AcDbEntity
  8
0
100
AcDbLine
 10
16.4581455484
 20
-11.0894212083
 30
0.0
 11
16.47649956919999
 21
-11.0886953155
 31
0.0
  0
LINE
  5
AD
330
2
100
AcDbEntity
  8
0
100
AcDbLine
 10
16.29262975639999
 20
-10.9188662323
 30
0.0
 11
16.43847874679999
 21
-10.9133269347
 31
0.0
  0
LINE
  5
AE
330
2
100
AcDbEntity
  8
0
100
AcDbLine
 10
16.3611133756
 20
-11.0930956243
 30
0.0
 11
16.448743774
 21
-11.0897886787
 31
0.0
  0
LINE
  5
AF
330
2
100
AcDbEntity
  8
0
100
AcDbLine
 10
16.4269930988
 20
-11.0906873139
 30
0.0
 11
16.19802641399999
 21
-11.0987937411
 31
0.0
  0
LINE
  5
B0
330
2
100
AcDbEntity
  8
0
100
AcDbLine
 10
16.26717350839998
 20
-11.0964572371
 30
0.0
 11
16.3611133756
 21
-11.0930956243
 31
0.0
  0
LINE
  5
B1
330
2
100
AcDbEntity
  8
0
100
AcDbLine
 10
16.16057333239998
 20
-11.1001021331
 30
0.0
 11
16.26717350839998
 21
-11.0964572371
 31
0.0
  0
LINE
  5
B2
330
2
100
AcDbEntity
  8
0
100
AcDbLine
 10
16.131866166
 20
-10.9242240307
 30
0.0
 11
16.29262975639999
 21
-10.9188662323
 31
0.0
  0
LINE
  5
B3
330
2
100
AcDbEntity
  8
0
100
AcDbLine
 10
12.031024246
 20
-10.9850363603
 30
0.0
 11
12.02350977719998
 21
-10.9852837859
 31
0.0
  0
LINE
  5
B4
330
2
100
AcDbEntity
  8
0
100
AcDbLine
 10
16.04573322839998
 20
-11.1038660259
 30
0.0
 11
16.16057333239998
 21
-11.1001021331
 31
0.0
  0
LWPOLYLINE
  5
B5
330
2
100
AcDbEntity
  8
0
100
AcDbPolyline
 90
        6
 70
     0
 43
0.0
 10
16.19802641399999
 20
-11.0987937411
 10
15.9207583372
 20
-11.1076644979
 10
15.61158850679999
 20
-11.1167758803
 10
15.28721978199999
 20
-11.1254786003
 10
14.96585416600001
 20
-11.1330542819
 10
14.66810323160001
 20
-11.1389219763
  0
LINE
  5
B6
330
2
100
AcDbEntity
  8
0
100
AcDbLine
 10
15.92391061079998
 20
-11.1077004515
 30
0.0
 11
16.04573322839998
 21
-11.1038660259
 31
0.0
  0
LWPOLYLINE
  5
B7
330
2
100
AcDbEntity
  8
0
100
AcDbPolyline
 90
        4
 70
     0
 43
0.0
 10
16.04270101560001
 20
-10.9169234403
 10
16.18203886200001
 20
-10.9126219411
 10
16.31383388919999
 20
-10.9080949843
 10
16.43793938679999
 20
-10.9033405107
  0
LINE
  5
B8
330
2
100
AcDbEntity
  8
0
100
AcDbLine
 10
15.79636289079998
 20
-11.1115569459
 30
0.0
 11
15.92391061079998
 21
-11.1077004515
 31
0.0
  0
LINE
  5
B9
330
2
100
AcDbEntity
  8
0
100
AcDbLine
 10
16.01257713559999
 20
-10.9277997091
 30
0.0
 11
16.131866166
 21
-10.9242240307
 31
0.0
  0
LINE
  5
BA
330
2
100
AcDbEntity
  8
0
100
AcDbLine
 10
15.86289496119999
 20
-10.9321420467
 30
0.0
 11
16.01257713559999
 21
-10.9277997091
 31
0.0
  0
LINE
  5
BB
330
2
100
AcDbEntity
  8
0
100
AcDbLine
 10
15.70989390199999
 20
-10.9264784627
 30
0.0
 11
16.04323620440001
 21
-10.9169074835
 31
0.0
  0
LINE
  5
BC
330
2
100
AcDbEntity
  8
0
100
AcDbLine
 10
15.66434748599998
 20
-11.1153870435
 30
0.0
 11
15.79636289079998
 21
-11.1115569459
 31
0.0
  0
LINE
  5
BD
330
2
100
AcDbEntity
  8
0
100
AcDbLine
 10
15.82678646039999
 20
-10.9331733587
 30
0.0
 11
15.86289496119999
 21
-10.9321420467
 31
0.0
  0
LINE
  5
BE
330
2
100
AcDbEntity
  8
0
100
AcDbLine
 10
15.7909892588
 20
-10.9341894563
 30
0.0
 11
15.82678646039999
 21
-10.9331733587
 31
0.0
  0
LINE
  5
BF
330
2
100
AcDbEntity
  8
0
100
AcDbLine
 10
15.75550639319998
 20
-10.9351903651
 30
0.0
 11
15.7909892588
 21
-10.9341894563
 31
0.0
  0
LINE
  5
C0
330
2
100
AcDbEntity
  8
0
100
AcDbLine
 10
15.72033972439998
 20
-10.9361761507
 30
0.0
 11
15.75550639319998
 21
-10.9351903651
 31
0.0
  0
LINE
  5
C1
330
2
100
AcDbEntity
  8
0
100
AcDbLine
 10
15.68548989719999
 20
-10.9371469123
 30
0.0
 11
15.72033972439998
 21
-10.9361761507
 31
0.0
  0
LINE
  5
C2
330
2
100
AcDbEntity
  8
0
100
AcDbLine
 10
15.65095624759998
 20
-10.9381027939
 30
0.0
 11
15.68548989719999
 21
-10.9371469123
 31
0.0
  0
LINE
  5
C3
330
2
100
AcDbEntity
  8
0
100
AcDbLine
 10
15.61673673559999
 20
-10.9390439731
 30
0.0
 11
15.65095624759998
 21
-10.9381027939
 31
0.0
  0
LINE
  5
C4
330
2
100
AcDbEntity
  8
0
100
AcDbLine
 10
15.52912181079999
 20
-11.1191422835
 30
0.0
 11
15.66434748599998
 21
-11.1153870435
 31
0.0
  0
LINE
  5
C5
330
2
100
AcDbEntity
  8
0
100
AcDbLine
 10
15.5828278156
 20
-10.9399706739
 30
0.0
 11
15.61673673559999
 21
-10.9390439731
 31
0.0
  0
LINE
  5
C6
330
2
100
AcDbEntity
  8
0
100
AcDbLine
 10
15.54922430679999
 20
-10.9408831603
 30
0.0
 11
15.5828278156
 21
-10.9399706739
 31
0.0
  0
LINE
  5
C7
330
2
100
AcDbEntity
  8
0
100
AcDbLine
 10
15.40058188759998
 20
-10.9348597619
 30
0.0
 11
15.71013145719998
 21
-10.9264718371
 31
0.0
  0
LINE
  5
C8
330
2
100
AcDbEntity
  8
0
100
AcDbLine
 10
15.5159192156
 20
-10.9417817491
 30
0.0
 11
15.54922430679999
 21
-10.9408831603
 31
0.0
  0
LINE
  5
C9
330
2
100
AcDbEntity
  8
0
100
AcDbLine
 10
15.48290352759999
 20
-10.9426668051
 30
0.0
 11
15.5159192156
 21
-10.9417817491
 31
0.0
  0
LINE
  5
CA
330
2
100
AcDbEntity
  8
0
100
AcDbLine
 10
15.4501659452
 20
-10.9435387491
 30
0.0
 11
15.48290352759999
 21
-10.9426668051
 31
0.0
  0
LINE
  5
CB
330
2
100
AcDbEntity
  8
0
100
AcDbLine
 10
15.41769256599999
 20
-10.9443980707
 30
0.0
 11
15.4501659452
 21
-10.9435387491
 31
0.0
  0
LINE
  5
CC
330
2
100
AcDbEntity
  8
0
100
AcDbLine
 10
15.38560401719998
 20
-10.9452417219
 30
0.0
 11
15.41769256599999
 21
-10.9443980707
 31
0.0
  0
LINE
  5
CD
330
2
100
AcDbEntity
  8
0
100
AcDbLine
 10
15.35408415959999
 20
-10.9460650995
 30
0.0
 11
15.38560401719998
 21
-10.9452417219
 31
0.0
  0
LINE
  5
CE
330
2
100
AcDbEntity
  8
0
100
AcDbLine
 10
15.32303665079998
 20
-10.9468709699
 30
0.0
 11
15.35408415959999
 21
-10.9460650995
 31
0.0
  0
LINE
  5
CF
330
2
100
AcDbEntity
  8
0
100
AcDbLine
 10
15.29236070839998
 20
-10.9476621539
 30
0.0
 11
15.32303665079998
 21
-10.9468709699
 31
0.0
  0
LINE
  5
D0
330
2
100
AcDbEntity
  8
0
100
AcDbLine
 10
15.261956198
 20
-10.9484413971
 30
0.0
 11
15.29236070839998
 21
-10.9476621539
 31
0.0
  0
LINE
  5
D1
330
2
100
AcDbEntity
  8
0
100
AcDbLine
 10
15.1017278156
 20
-10.9424788547
 30
0.0
 11
15.4007469932
 21
-10.9348554227
 31
0.0
  0
LINE
  5
D2
330
2
100
AcDbEntity
  8
0
100
AcDbLine
 10
15.34299117079998
 20
-11.1240254403
 30
0.0
 11
15.52912181079999
 21
-11.1191422835
 31
0.0
  0
LWPOLYLINE
  5
D3
330
2
100
AcDbEntity
  8
0
100
AcDbPolyline
 90
        3
 70
     0
 43
0.0
 10
15.21662291480001
 20
-10.9495941459
 10
15.23171581560001
 20
-10.9492115667
 10
15.261956198
 20
-10.9484413971
  0
LINE
  5
D4
330
2
100
AcDbEntity
  8
0
100
AcDbLine
 10
15.18642905559999
 20
-10.9503559107
 30
0.0
 11
15.2166229148
 21
-10.9495941459
 31
0.0
  0
LINE
  5
D5
330
2
100
AcDbEntity
  8
0
100
AcDbLine
 10
15.15647851319999
 20
-10.9511068163
 30
0.0
 11
15.18642905559999
 21
-10.9503559107
 31
0.0
  0
LINE
  5
D6
330
2
100
AcDbEntity
  8
0
100
AcDbLine
 10
15.12694098359999
 20
-10.9518427491
 30
0.0
 11
15.15647851319999
 21
-10.9511068163
 31
0.0
  0
LINE
  5
D7
330
2
100
AcDbEntity
  8
0
100
AcDbLine
 10
15.2235414588
 20
-11.1269803987
 30
0.0
 11
15.34299117079998
 21
-11.1240254403
 31
0.0
  0
LINE
  5
D8
330
2
100
AcDbEntity
  8
0
100
AcDbLine
 10
15.09776709719999
 20
-10.9525650931
 30
0.0
 11
15.12694098359999
 21
-10.9518427491
 31
0.0
  0
LWPOLYLINE
  5
D9
330
2
100
AcDbEntity
  8
0
100
AcDbPolyline
 90
        3
 70
     0
 43
0.0
 10
15.0545861132
 20
-10.9536259475
 10
15.068909942
 20
-10.9532751475
 10
15.0977670972
 20
-10.95256509309999
  0
LINE
  5
DA
330
2
100
AcDbEntity
  8
0
100
AcDbLine
 10
15.02612113239998
 20
-10.9543198067
 30
0.0
 11
15.05458611319999
 21
-10.9536259475
 31
0.0
  0
LINE
  5
DB
330
2
100
AcDbEntity
  8
0
100
AcDbLine
 10
12.02445066999998
 20
-10.9852556019
 30
0.0
 11
12.00308689239999
 21
-10.9858079955
 31
0.0
  0
LINE
  5
DC
330
2
100
AcDbEntity
  8
0
100
AcDbLine
 10
14.99786723479998
 20
-10.9550042067
 30
0.0
 11
15.02612113239998
 21
-10.9543198067
 31
0.0
  0
LWPOLYLINE
  5
DD
330
2
100
AcDbEntity
  8
0
100
AcDbPolyline
 90
        3
 70
     0
 43
0.0
 10
14.95587233879999
 20
-10.9560134675
 10
14.9698167692
 20
-10.9556794051
 10
14.99786723479999
 20
-10.9550042067
  0
LINE
  5
DE
330
2
100
AcDbEntity
  8
0
100
AcDbLine
 10
14.8188726124
 20
-10.9492505747
 30
0.0
 11
15.10183166359998
 21
-10.9424762899
 31
0.0
  0
LINE
  5
DF
330
2
100
AcDbEntity
  8
0
100
AcDbLine
 10
14.92815402679999
 20
-10.95667435069999
 30
0.0
 11
14.95587233879998
 21
-10.9560134675
 31
0.0
  0
LINE
  5
E0
330
2
100
AcDbEntity
  8
0
100
AcDbLine
 10
14.90067502199999
 20
-10.9573253683
 30
0.0
 11
14.92815402679999
 21
-10.95667435069999
 31
0.0
  0
LWPOLYLINE
  5
E1
330
2
100
AcDbEntity
  8
0
100
AcDbPolyline
 90
        3
 70
     0
 43
0.0
 10
14.8599364108
 20
-10.9582828515
 10
14.8734495884
 20
-10.9579662691
 10
14.900675022
 20
-10.9573253683
  0
LINE
  5
E2
330
2
100
AcDbEntity
  8
0
100
AcDbLine
 10
14.83311800919999
 20
-10.9589081315
 30
0.0
 11
14.85993641079999
 21
-10.9582828515
 31
0.0
  0
LINE
  5
E3
330
2
100
AcDbEntity
  8
0
100
AcDbLine
 10
14.80658870679999
 20
-10.9595227155
 30
0.0
 11
14.83311800919999
 21
-10.9589081315
 31
0.0
  0
LWPOLYLINE
  5
E4
330
2
100
AcDbEntity
  8
0
100
AcDbPolyline
 90
        3
 70
     0
 43
0.0
 10
14.7673677804
 20
-10.9604240595
 10
14.78036266200001
 20
-10.9601263843
 10
14.8065887068
 20
-10.9595227155
  0
LINE
  5
E5
330
2
100
AcDbEntity
  8
0
100
AcDbLine
 10
14.74162311959999
 20
-10.9610109683
 30
0.0
 11
14.7673677804
 21
-10.9604240595
 31
0.0
  0
LWPOLYLINE
  5
E6
330
2
100
AcDbEntity
  8
0
100
AcDbPolyline
 90
        3
 70
     0
 43
0.0
 10
14.6787734108
 20
-10.9624278643
 10
14.69116352439999
 20
-10.96215033469999
 10
14.7416231196
 20
-10.9610109683
  0
LINE
  5
E7
330
2
100
AcDbEntity
  8
0
100
AcDbLine
 10
14.65427521559998
 20
-10.9629739955
 30
0.0
 11
14.67877341079999
 21
-10.9624278643
 31
0.0
  0
LWPOLYLINE
  5
E8
330
2
100
AcDbEntity
  8
0
100
AcDbPolyline
 90
        3
 70
     0
 43
0.0
 10
14.61825929400001
 20
-10.96377056029999
 10
14.63016475
 20
-10.9635080835
 10
14.65427521559999
 20
-10.9629739955
  0
LINE
  5
E9
330
2
100
AcDbEntity
  8
0
100
AcDbLine
 10
14.5947494796
 20
-10.9642864403
 30
0.0
 11
14.618259294
 21
-10.9637705603
 31
0.0
  0
LINE
  5
EA
330
2
100
AcDbEntity
  8
0
100
AcDbLine
 10
12.01366912439998
 20
-10.9855521731
 30
0.0
 11
11.98597158359998
 21
-10.9861835619
 31
0.0
  0
LWPOLYLINE
  5
EB
330
2
100
AcDbEntity
  8
0
100
AcDbPolyline
 90
        3
 70
     0
 43
0.0
 10
14.56014947479999
 20
-10.9650397603
 10
14.5716033516
 20
-10.9647911651
 10
14.59474947960001
 20
-10.9642864403
  0
LWPOLYLINE
  5
EC
330
2
100
AcDbEntity
  8
0
100
AcDbPolyline
 90
        3
 70
     0
 43
0.0
 10
14.5261810268
 20
-10.9657724387
 10
14.53744552439999
 20
-10.9655302307
 10
14.56014947479999
 20
-10.9650397603
  0
LINE
  5
ED
330
2
100
AcDbEntity
  8
0
100
AcDbLine
 10
14.50379074359999
 20
-10.9662516243
 30
0.0
 11
14.52618102679999
 21
-10.9657724387
 31
0.0
  0
LWPOLYLINE
  5
EE
330
2
100
AcDbEntity
  8
0
100
AcDbPolyline
 90
        9
 70
     0
 43
0.0
 10
15.17485200920001
 20
-10.9485556211
 10
15.25757634999999
 20
-10.9467853571
 10
15.3521089372
 20
-10.9446952499
 10
15.45889819800001
 20
-10.9422424467
 10
15.56886547959999
 20
-10.9396067843
 10
15.67285116120001
 20
-10.9370099715
 10
15.77031727159999
 20
-10.9344846291
 10
15.8624773052
 20
-10.9320161875
 10
15.9502506604
 20
-10.9295887747
  0
LWPOLYLINE
  5
EF
330
2
100
AcDbEntity
  8
0
100
AcDbPolyline
 90
        3
 70
     0
 43
0.0
 10
14.4705462924
 20
-10.9669575619
 10
14.48158224760001
 20
-10.9667239523
 10
14.5037907436
 20
-10.9662516243
  0
LWPOLYLINE
  5
F0
330
2
100
AcDbEntity
  8
0
100
AcDbPolyline
 90
        3
 70
     0
 43
0.0
 10
14.43771156759999
 20
-10.9676482547
 10
14.44861098519999
 20
-10.96741970429999
 10
14.4705462924
 20
-10.9669575619
  0
LINE
  5
F1
330
2
100
AcDbEntity
  8
0
100
AcDbLine
 10
14.87513064119999
 20
-11.1348024115
 30
0.0
 11
15.05611729399998
 21
-11.1308903987
 31
0.0
  0
LINE
  5
F2
330
2
100
AcDbEntity
  8
0
100
AcDbLine
 10
14.41604885719998
 20
-10.9681003571
 30
0.0
 11
14.43771156759998
 21
-10.9676482547
 31
0.0
  0
LWPOLYLINE
  5
F3
330
2
100
AcDbEntity
  8
0
100
AcDbPolyline
 90
        3
 70
     0
 43
0.0
 10
14.28330131960001
 20
-10.9608204115
 10
14.54570564440001
 20
-10.9553644371
 10
14.81891692920001
 20
-10.9492495475
  0
LWPOLYLINE
  5
F4
330
2
100
AcDbEntity
  8
0
100
AcDbPolyline
 90
        3
 70
     0
 43
0.0
 10
14.3838934284
 20
-10.9687661603
 10
14.39456693880001
 20
-10.9685458579
 10
14.41604885719999
 20
-10.96810035709999
  0
LWPOLYLINE
  5
F5
330
2
100
AcDbEntity
  8
0
100
AcDbPolyline
 90
        3
 70
     0
 43
0.0
 10
14.3521405692
 20
-10.9694173939
 10
14.36268044440001
 20
-10.9692019155
 10
14.3838934284
 20
-10.9687661603
  0
LINE
  5
F6
330
2
100
AcDbEntity
  8
0
100
AcDbLine
 10
14.33119291959999
 20
-10.9698436083
 30
0.0
 11
14.35214056919999
 21
-10.9694173939
 31
0.0
  0
LINE
  5
F7
330
2
100
AcDbEntity
  8
0
100
AcDbLine
 10
15.02990035799998
 20
-10.9515347475
 30
0.0
 11
15.1748520092
 21
-10.9485556211
 31
0.0
  0
LWPOLYLINE
  5
F8
330
2
100
AcDbEntity
  8
0
100
AcDbPolyline
 90
        3
 70
     0
 43
0.0
 10
14.30009780759999
 20
-10.9704712611
 10
14.31041970039999
 20
-10.97026358269999
 10
14.33119291959999
 20
-10.9698436083
  0
LWPOLYLINE
  5
F9
330
2
100
AcDbEntity
  8
0
100
AcDbPolyline
 90
        3
 70
     0
 43
0.0
 10
14.26938731000001
 20
-10.9710852195
 10
14.27958193559999
 20
-10.9708820659
 10
14.30009780759999
 20
-10.9704712611
  0
LINE
  5
FA
330
2
100
AcDbEntity
  8
0
100
AcDbLine
 10
14.2491229692
 20
-10.9714870915
 30
0.0
 11
14.26938731
 21
-10.9710852195
 31
0.0
  0
LINE
  5
FB
330
2
100
AcDbEntity
  8
0
100
AcDbLine
 10
14.76681660439998
 20
-11.1369716915
 30
0.0
 11
14.87513064119999
 21
-11.1348024115
 31
0.0
  0
LWPOLYLINE
  5
FC
330
2
100
AcDbEntity
  8
0
100
AcDbPolyline
 90
        3
 70
     0
 43
0.0
 10
14.21903326360001
 20
-10.9720790291
 10
14.22902276280001
 20
-10.9718831475
 10
14.24912296920001
 20
-10.9714870915
  0
LINE
  5
FD
330
2
100
AcDbEntity
  8
0
100
AcDbLine
 10
14.8828235388
 20
-10.9544423699
 30
0.0
 11
15.02990035799998
 21
-10.9515347475
 31
0.0
  0
LWPOLYLINE
  5
FE
330
2
100
AcDbEntity
  8
0
100
AcDbPolyline
 90
        3
 70
     0
 43
0.0
 10
14.18928754200001
 20
-10.9726585443
 10
14.19917185400001
 20
-10.9724666003
 10
14.21903326360001
 20
-10.9720790291
  0
LWPOLYLINE
  5
FF
330
2
100
AcDbEntity
  8
0
100
AcDbPolyline
 90
        3
 70
     0
 43
0.0
 10
14.1597854652
 20
-10.9732277331
 10
14.16959468600001
 20
-10.97303909949999
 10
14.18928754200001
 20
-10.9726585443
  0
LINE
  5
100
330
2
100
AcDbEntity
  8
0
100
AcDbLine
 10
14.03447755159998
 20
-10.9655960115
 30
0.0
 11
14.28335923959999
 21
-10.9608192531
 31
0.0
  0
LWPOLYLINE
  5
101
330
2
100
AcDbEntity
  8
0
100
AcDbPolyline
 90
        3
 70
     0
 43
0.0
 10
14.13050235
 20
-10.9737871891
 10
14.1402396684
 20
-10.9736017667
 10
14.1597854652
 20
-10.9732277331
  0
LINE
  5
102
330
2
100
AcDbEntity
  8
0
100
AcDbLine
 10
14.11109695159998
 20
-10.9741549011
 30
0.0
 11
14.13050234999999
 21
-10.9737871891
 31
0.0
  0
LWPOLYLINE
  5
103
330
2
100
AcDbEntity
  8
0
100
AcDbPolyline
 90
        3
 70
     0
 43
0.0
 10
14.08215591160001
 20
-10.9746988067
 10
14.0917812012
 20
-10.9745185123
 10
14.11109695159999
 20
-10.9741549011
  0
LWPOLYLINE
  5
104
330
2
100
AcDbEntity
  8
0
100
AcDbPolyline
 90
        3
 70
     0
 43
0.0
 10
14.05340524280001
 20
-10.9752337923
 10
14.0629683692
 20
-10.9750564355
 10
14.08215591160001
 20
-10.9746988067
  0
LINE
  5
105
330
2
100
AcDbEntity
  8
0
100
AcDbLine
 10
14.6063606316
 20
-10.9597402547
 30
0.0
 11
14.8828235388
 21
-10.9544423699
 31
0.0
  0
LWPOLYLINE
  5
106
330
2
100
AcDbEntity
  8
0
100
AcDbPolyline
 90
        3
 70
     0
 43
0.0
 10
14.02483305079999
 20
-10.97576017149999
 10
14.03433803960001
 20
-10.9755856483
 10
14.05340524280001
 20
-10.9752337923
  0
LWPOLYLINE
  5
107
330
2
100
AcDbEntity
  8
0
100
AcDbPolyline
 90
        3
 70
     0
 43
0.0
 10
13.99642694039999
 20
-10.97627825469999
 10
14.00587797400001
 20
-10.9761064627
 10
14.02483305079999
 20
-10.97576017149999
  0
LINE
  5
108
330
2
100
AcDbEntity
  8
0
100
AcDbLine
 10
11.98854835639999
 20
-10.9861294387
 30
0.0
 11
11.95176779639998
 21
-10.9868310099
 31
0.0
  0
LWPOLYLINE
  5
109
330
2
100
AcDbEntity
  8
0
100
AcDbPolyline
 90
        3
 70
     0
 43
0.0
 10
13.9681740876
 20
-10.97678835549999
 10
13.9775754828
 20
-10.97661919069999
 10
13.99642694039999
 20
-10.97627825469999
  0
LINE
  5
10A
330
2
100
AcDbEntity
  8
0
100
AcDbLine
 10
13.94941750520001
 20
-10.9771241411
 30
0.0
 11
13.96817408759999
 21
-10.9767883555
 31
0.0
  0
LWPOLYLINE
  5
10B
330
2
100
AcDbEntity
  8
0
100
AcDbPolyline
 90
        3
 70
     0
 43
0.0
 10
16.31801859640001
 20
-11.0451173427
 10
15.6578096092
 20
-11.0567924419
 10
15.00412337880001
 20
-11.0679148819
  0
LWPOLYLINE
  5
10C
330
2
100
AcDbEntity
  8
0
100
AcDbPolyline
 90
        3
 70
     0
 43
0.0
 10
13.9213905084
 20
-10.9776216243
 10
13.93071921239999
 20
-10.9774566067
 10
13.94941750520001
 20
-10.97712414109999
  0
LINE
  5
10D
330
2
100
AcDbEntity
  8
0
100
AcDbLine
 10
14.43093325559998
 20
-10.9629024707
 30
0.0
 11
14.61410474199998
 21
-10.9595826019
 31
0.0
  0
LINE
  5
10E
330
2
100
AcDbEntity
  8
0
100
AcDbLine
 10
13.79904421719998
 20
-10.9697464835
 30
0.0
 11
14.0345790956
 21
-10.9655941427
 31
0.0
  0
LWPOLYLINE
  5
10F
330
2
100
AcDbEntity
  8
0
100
AcDbPolyline
 90
        3
 70
     0
 43
0.0
 10
13.89347498200001
 20
-10.9781120451
 10
13.90276830839999
 20
-10.9779493443
 10
13.9213905084
 20
-10.9776216243
  0
LWPOLYLINE
  5
110
330
2
100
AcDbEntity
  8
0
100
AcDbPolyline
 90
        3
 70
     0
 43
0.0
 10
13.86566926200001
 20
-10.9785954835
 10
13.8749251948
 20
-10.97843511709999
 10
13.89347498200001
 20
-10.9781120451
  0
LWPOLYLINE
  5
111
330
2
100
AcDbEntity
  8
0
100
AcDbPolyline
 90
        3
 70
     0
 43
0.0
 10
13.83798046519999
 20
-10.9790718723
 10
13.84719663480001
 20
-10.9789138627
 10
13.86566926200001
 20
-10.9785954835
  0
LWPOLYLINE
  5
112
330
2
100
AcDbEntity
  8
0
100
AcDbPolyline
 90
        3
 70
     0
 43
0.0
 10
13.81041568119999
 20
-10.9795411459
 10
13.819589726
 20
-10.97938551549999
 10
13.83798046519999
 20
-10.9790718723
  0
LINE
  5
113
330
2
100
AcDbEntity
  8
0
100
AcDbLine
 10
14.28874515
 20
-10.9653376419
 30
0.0
 11
14.44929089879999
 21
-10.9625647747
 31
0.0
  0
LWPOLYLINE
  5
114
330
2
100
AcDbEntity
  8
0
100
AcDbPolyline
 90
        3
 70
     0
 43
0.0
 10
13.78298197719999
 20
-10.9800032483
 10
13.79211154520001
 20
-10.97985001309999
 10
13.81041568119999
 20
-10.9795411459
  0
LWPOLYLINE
  5
115
330
2
100
AcDbEntity
  8
0
100
AcDbPolyline
 90
        3
 70
     0
 43
0.0
 10
13.75568640759999
 20
-10.9804581267
 10
13.7647691484
 20
-10.98030730589999
 10
13.78298197719999
 20
-10.9800032483
  0
LWPOLYLINE
  5
116
330
2
100
AcDbEntity
  8
0
100
AcDbPolyline
 90
        3
 70
     0
 43
0.0
 10
13.72853601720001
 20
-10.9809057363
 10
13.73756958199999
 20
-10.9807573427
 10
13.75568640759999
 20
-10.9804581267
  0
LINE
  5
117
330
2
100
AcDbEntity
  8
0
100
AcDbLine
 10
15.0041233788
 20
-11.0679148819
 30
0.0
 11
14.3351111004
 21
-11.0787909155
 31
0.0
  0
LWPOLYLINE
  5
118
330
2
100
AcDbEntity
  8
0
100
AcDbPolyline
 90
        3
 70
     0
 43
0.0
 10
13.7015378444
 20
-10.9813460355
 10
13.71051988760001
 20
-10.9812000835
 10
13.72853601720001
 20
-10.9809057363
  0
LINE
  5
119
330
2
100
AcDbEntity
  8
0
100
AcDbLine
 10
14.13638928919998
 20
-10.9678728915
 30
0.0
 11
14.31959334039998
 21
-10.9648286355
 31
0.0
  0
LINE
  5
11A
330
2
100
AcDbEntity
  8
0
100
AcDbLine
 10
11.9681944556
 20
-10.9865356371
 30
0.0
 11
11.92924213559998
 21
-10.9871962003
 31
0.0
  0
LWPOLYLINE
  5
11B
330
2
100
AcDbEntity
  8
0
100
AcDbPolyline
 90
        3
 70
     0
 43
0.0
 10
13.67469893079999
 20
-10.9817789891
 10
13.6836271052
 20
-10.9816354883
 10
13.7015378444
 20
-10.9813460355
  0
LINE
  5
11C
330
2
100
AcDbEntity
  8
0
100
AcDbLine
 10
13.57723921559999
 20
-10.9733247331
 30
0.0
 11
13.799184606
 21
-10.9697441155
 31
0.0
  0
LWPOLYLINE
  5
11D
330
2
100
AcDbEntity
  8
0
100
AcDbPolyline
 90
        8
 70
     0
 43
0.0
 10
14.4141809324
 20
-11.1115598979
 10
14.7385864828
 20
-11.1063928371
 10
15.0866117388
 20
-11.0990868835
 10
15.42966349880001
 20
-11.0905126803
 10
15.7472463052
 20
-11.0816079411
 10
16.03198506999999
 20
-11.0729306755
 10
16.28257941079999
 20
-11.0646428851
 10
16.4911132988
 20
-11.0569148883
  0
LWPOLYLINE
  5
11E
330
2
100
AcDbEntity
  8
0
100
AcDbPolyline
 90
        3
 70
     0
 43
0.0
 10
13.6480263212
 20
-10.98220456509999
 10
13.6568982764
 20
-10.9820635283
 10
13.67469893079999
 20
-10.9817789891
  0
LINE
  5
11F
330
2
100
AcDbEntity
  8
0
100
AcDbLine
 10
14.5328509404
 20
-11.1411093635
 30
0.0
 11
14.72480163959999
 21
-11.1377743603
 31
0.0
  0
LWPOLYLINE
  5
120
330
2
100
AcDbEntity
  8
0
100
AcDbPolyline
 90
        3
 70
     0
 43
0.0
 10
13.62152707480001
 20
-10.9826227395
 10
13.63034045719999
 20
-10.9824841715
 10
13.6480263212
 20
-10.98220456509999
  0
LINE
  5
121
330
2
100
AcDbEntity
  8
0
100
AcDbLine
 10
14.00790102039999
 20
-10.9699224051
 30
0.0
 11
14.17052946199998
 21
-10.9673026707
 31
0.0
  0
LWPOLYLINE
  5
122
330
2
100
AcDbEntity
  8
0
100
AcDbPolyline
 90
        3
 70
     0
 43
0.0
 10
13.5952082668
 20
-10.9830334899
 10
13.60396071639999
 20
-10.9828973987
 10
13.62152707480001
 20
-10.9826227395
  0
LINE
  5
123
330
2
100
AcDbEntity
  8
0
100
AcDbLine
 10
13.93674128439999
 20
-10.9710280099
 30
0.0
 11
14.051052582
 21
-10.9692276019
 31
0.0
  0
LINE
  5
124
330
2
100
AcDbEntity
  8
0
100
AcDbLine
 10
14.6681032316
 20
-11.1389219763
 30
0.0
 11
14.41480206679999
 21
-11.1428027971
 31
0.0
  0
LWPOLYLINE
  5
125
330
2
100
AcDbEntity
  8
0
100
AcDbPolyline
 90
        3
 70
     0
 43
0.0
 10
13.56907699480001
 20
-10.9834368003
 10
13.5777661436
 20
-10.9833031907
 10
13.5952082668
 20
-10.9830334899
  0
LWPOLYLINE
  5
126
330
2
100
AcDbEntity
  8
0
100
AcDbPolyline
 90
        3
 70
     0
 43
0.0
 10
13.54314038199999
 20
-10.9838326579
 10
13.5517638508
 20
-10.9837015347
 10
13.56907699480001
 20
-10.9834368003
  0
LWPOLYLINE
  5
127
330
2
100
AcDbEntity
  8
0
100
AcDbPolyline
 90
        3
 70
     0
 43
0.0
 10
13.51740558200001
 20
-10.9842210547
 10
13.52596098200001
 20
-10.9840924179
 10
13.54314038199999
 20
-10.9838326579
  0
LWPOLYLINE
  5
128
330
2
100
AcDbEntity
  8
0
100
AcDbPolyline
 90
        3
 70
     0
 43
0.0
 10
13.49187977720001
 20
-10.98460198749999
 10
13.50036471160001
 20
-10.9844758403
 10
13.51740558200001
 20
-10.9842210547
  0
LWPOLYLINE
  5
129
330
2
100
AcDbEntity
  8
0
100
AcDbPolyline
 90
        3
 70
     0
 43
0.0
 10
13.4665701932
 20
-10.98497545469999
 10
13.47498225079999
 20
-10.98485179549999
 10
13.49187977720001
 20
-10.98460198749999
  0
LINE
  5
12A
330
2
100
AcDbEntity
  8
0
100
AcDbLine
 10
13.36781042679998
 20
-10.9764060339
 30
0.0
 11
13.57741261239998
 21
-10.9733220627
 31
0.0
  0
LWPOLYLINE
  5
12B
330
2
100
AcDbEntity
  8
0
100
AcDbPolyline
 90
        3
 70
     0
 43
0.0
 10
13.4414840876
 20
-10.98534146109999
 10
13.44982084279999
 20
-10.98522028829999
 10
13.4665701932
 20
-10.98497545469999
  0
LINE
  5
12C
330
2
100
AcDbEntity
  8
0
100
AcDbLine
 10
13.73050146839999
 20
-10.9740978835
 30
0.0
 11
13.99105444279998
 21
-10.9701720851
 31
0.0
  0
LINE
  5
12D
330
2
100
AcDbEntity
  8
0
100
AcDbLine
 10
11.94763963479998
 20
-10.9869011699
 30
0.0
 11
11.90379161879999
 21
-10.9875647747
 31
0.0
  0
LWPOLYLINE
  5
12E
330
2
100
AcDbEntity
  8
0
100
AcDbPolyline
 90
        3
 70
     0
 43
0.0
 10
13.416628758
 20
-10.9857000131
 10
13.42488777400001
 20
-10.98558132349999
 10
13.4414840876
 20
-10.98534146109999
  0
LINE
  5
12F
330
2
100
AcDbEntity
  8
0
100
AcDbLine
 10
16.5466845372
 20
-11.0418890579
 30
0.0
 11
16.3180185964
 21
-11.0451173427
 31
0.0
  0
LWPOLYLINE
  5
130
330
2
100
AcDbEntity
  8
0
100
AcDbPolyline
 90
        4
 70
     0
 43
0.0
 10
13.38385998839999
 20
-10.9861665059
 10
13.3920115404
 20
-10.9860511219
 10
13.4001903676
 20
-10.9859349123
 10
13.416628758
 20
-10.9857000131
  0
LWPOLYLINE
  5
131
330
2
100
AcDbEntity
  8
0
100
AcDbPolyline
 90
        3
 70
     0
 43
0.0
 10
13.35957183639999
 20
-10.9865077123
 10
13.3676398076
 20
-10.9863948019
 10
13.38385998839999
 20
-10.9861665059
  0
LWPOLYLINE
  5
132
330
2
100
AcDbEntity
  8
0
100
AcDbPolyline
 90
        3
 70
     0
 43
0.0
 10
13.33554543319999
 20
-10.9868414227
 10
13.34352428439999
 20
-10.9867310227
 10
13.35957183639999
 20
-10.9865077123
  0
LWPOLYLINE
  5
133
330
2
100
AcDbEntity
  8
0
100
AcDbPolyline
 90
        4
 70
     0
 43
0.0
 10
13.303933774
 20
-10.98727470749999
 10
13.31179160440001
 20
-10.98716761789999
 10
13.31967895479999
 20
-10.9870597171
 10
13.33554543319999
 20
-10.9868414227
  0
LWPOLYLINE
  5
134
330
2
100
AcDbEntity
  8
0
100
AcDbPolyline
 90
        3
 70
     0
 43
0.0
 10
13.28053370520001
 20
-10.9875912099
 10
13.28830513400001
 20
-10.9874864947
 10
13.303933774
 20
-10.98727470749999
  0
LINE
  5
135
330
2
100
AcDbEntity
  8
0
100
AcDbLine
 10
13.57985864599998
 20
-10.9761834627
 30
0.0
 11
13.7376261356
 21
-10.9739815571
 31
0.0
  0
LINE
  5
136
330
2
100
AcDbEntity
  8
0
100
AcDbLine
 10
14.4259337756
 20
-11.1426586435
 30
0.0
 11
14.5328509404
 21
-11.1411093635
 31
0.0
  0
LWPOLYLINE
  5
137
330
2
100
AcDbEntity
  8
0
100
AcDbPolyline
 90
        4
 70
     0
 43
0.0
 10
13.24972677880001
 20
-10.9880024083
 10
13.25738730360001
 20
-10.98790074109999
 10
13.26507509719999
 20
-10.9877983251
 10
13.28053370520001
 20
-10.9875912099
  0
LINE
  5
138
330
2
100
AcDbEntity
  8
0
100
AcDbLine
 10
13.16877528759999
 20
-10.9790670067
 30
0.0
 11
13.3680143964
 21
-10.9764031731
 31
0.0
  0
LWPOLYLINE
  5
139
330
2
100
AcDbEntity
  8
0
100
AcDbPolyline
 90
        3
 70
     0
 43
0.0
 10
13.22690577880001
 20
-10.9883029955
 10
13.23448631959999
 20
-10.9882035267
 10
13.24972677880001
 20
-10.9880024083
  0
LWPOLYLINE
  5
13A
330
2
100
AcDbEntity
  8
0
100
AcDbPolyline
 90
        4
 70
     0
 43
0.0
 10
13.19684121080001
 20
-10.9886937683
 10
13.20431931320001
 20
-10.9885971235
 10
13.21182257719999
 20
-10.9884997859
 10
13.22690577880001
 20
-10.9883029955
  0
LINE
  5
13B
330
2
100
AcDbEntity
  8
0
100
AcDbLine
 10
11.9241599052
 20
-10.9872731587
 30
0.0
 11
11.87535350999998
 21
-10.9879337283
 31
0.0
  0
LWPOLYLINE
  5
13C
330
2
100
AcDbEntity
  8
0
100
AcDbPolyline
 90
        3
 70
     0
 43
0.0
 10
13.17455489080001
 20
-10.9889796131
 10
13.18195929559999
 20
-10.9888850051
 10
13.19684121080001
 20
-10.9886937683
  0
LWPOLYLINE
  5
13D
330
2
100
AcDbEntity
  8
0
100
AcDbPolyline
 90
        4
 70
     0
 43
0.0
 10
13.14517405399999
 20
-10.9893514707
 10
13.152484334
 20
-10.98925947709999
 10
13.15981770359999
 20
-10.9891668419
 10
13.17455489080001
 20
-10.9889796131
  0
LWPOLYLINE
  5
13E
330
2
100
AcDbEntity
  8
0
100
AcDbPolyline
 90
        4
 70
     0
 43
0.0
 10
13.1161579868
 20
-10.98971315229999
 10
13.12337883
 20
-10.9896236611
 10
13.1306215932
 20
-10.9895335555
 10
13.14517405399999
 20
-10.9893514707
  0
LINE
  5
13F
330
2
100
AcDbEntity
  8
0
100
AcDbLine
 10
13.466196254
 20
-10.9776291315
 30
0.0
 11
13.58083735799998
 21
-10.9761567043
 31
0.0
  0
LWPOLYLINE
  5
140
330
2
100
AcDbEntity
  8
0
100
AcDbPolyline
 90
        3
 70
     0
 43
0.0
 10
13.09462408600001
 20
-10.9899780019
 10
13.1017809068
 20
-10.98989031709999
 10
13.1161579868
 20
-10.98971315229999
  0
LINE
  5
141
330
2
100
AcDbEntity
  8
0
100
AcDbLine
 10
13.30131413719998
 20
-10.9796463651
 30
0.0
 11
13.30677763479999
 21
-10.9795791907
 31
0.0
  0
LWPOLYLINE
  5
142
330
2
100
AcDbEntity
  8
0
100
AcDbPolyline
 90
        4
 70
     0
 43
0.0
 10
13.06620296919999
 20
-10.9903229043
 10
13.0732776268
 20
-10.9902375459
 10
13.08037260119999
 20
-10.9901516115
 10
13.09462408600001
 20
-10.9899780019
  0
LINE
  5
143
330
2
100
AcDbEntity
  8
0
100
AcDbLine
 10
13.4123161932
 20
-10.9783034243
 30
0.0
 11
13.46937180759999
 21
-10.9776032915
 31
0.0
  0
LINE
  5
144
330
2
100
AcDbEntity
  8
0
100
AcDbLine
 10
13.28298949879998
 20
-10.9798697555
 30
0.0
 11
13.29558166679998
 21
-10.9797164467
 31
0.0
  0
LINE
  5
145
330
2
100
AcDbEntity
  8
0
100
AcDbLine
 10
13.40710714839999
 20
-10.9783529315
 30
0.0
 11
13.41701281559999
 21
-10.9782328627
 31
0.0
  0
LINE
  5
146
330
2
100
AcDbEntity
  8
0
100
AcDbLine
 10
12.97892848439999
 20
-10.9813628915
 30
0.0
 11
13.16900708279998
 21
-10.9790640595
 31
0.0
  0
LWPOLYLINE
  5
147
330
2
100
AcDbEntity
  8
0
100
AcDbPolyline
 90
        3
 70
     0
 43
0.0
 10
14.33511110040001
 20
-11.0787909155
 10
14.29772917080001
 20
-11.0792337939
 10
14.2737421868
 20
-11.0792163651
  0
LWPOLYLINE
  5
148
330
2
100
AcDbEntity
  8
0
100
AcDbPolyline
 90
        4
 70
     0
 43
0.0
 10
13.03810466039999
 20
-10.9906586867
 10
13.04509947319999
 20
-10.9905755795
 10
13.05211403480001
 20
-10.9904919171
 10
13.06620296919999
 20
-10.9903229043
  0
LWPOLYLINE
  5
149
330
2
100
AcDbEntity
  8
0
100
AcDbPolyline
 90
        4
 70
     0
 43
0.0
 10
13.01032219320001
 20
-10.9909856099
 10
13.01723831960001
 20
-10.99090469789999
 10
13.02417403320001
 20
-10.9908232435
 10
13.03810466039999
 20
-10.9906586867
  0
LINE
  5
14A
330
2
100
AcDbEntity
  8
0
100
AcDbLine
 10
13.21674128599999
 20
-10.9806745699
 30
0.0
 11
13.4123161932
 21
-10.9783034243
 31
0.0
  0
LINE
  5
14B
330
2
100
AcDbEntity
  8
0
100
AcDbLine
 10
13.21787486999999
 20
-10.9806476451
 30
0.0
 11
13.229679574
 21
-10.9805085571
 31
0.0
  0
LWPOLYLINE
  5
14C
330
2
100
AcDbEntity
  8
0
100
AcDbPolyline
 90
        3
 70
     0
 43
0.0
 10
13.3335813292
 20
-10.97923085789999
 10
13.3379379772
 20
-10.97917968189999
 10
13.3423977308
 20
-10.97912770909999
  0
LWPOLYLINE
  5
14D
330
2
100
AcDbEntity
  8
0
100
AcDbPolyline
 90
        4
 70
     0
 43
0.0
 10
14.4148020668
 20
-11.1428027971
 10
13.9144791356
 20
-11.1485640691
 10
13.41405332760001
 20
-11.1535828659
 10
12.91355146360001
 20
-11.1581746947
  0
LWPOLYLINE
  5
14E
330
2
100
AcDbEntity
  8
0
100
AcDbPolyline
 90
        4
 70
     0
 43
0.0
 10
12.98285078200001
 20
-10.9913039043
 10
12.98968994200001
 20
-10.9912251235
 10
12.99654814039999
 20
-10.9911458179
 10
13.01032219320001
 20
-10.9909856099
  0
LINE
  5
14F
330
2
100
AcDbEntity
  8
0
100
AcDbLine
 10
11.89764008759998
 20
-10.9876480723
 30
0.0
 11
11.84388602039998
 21
-10.9882997363
 31
0.0
  0
LWPOLYLINE
  5
150
330
2
100
AcDbEntity
  8
0
100
AcDbPolyline
 90
        3
 70
     0
 43
0.0
 10
12.96244619
 20
-10.9915371251
 10
12.9692290396
 20
-10.9914598995
 10
12.98285078200001
 20
-10.9913039043
  0
LINE
  5
151
330
2
100
AcDbEntity
  8
0
100
AcDbLine
 10
13.78292710679999
 20
-11.1186838195
 30
0.0
 11
14.41418093239999
 21
-11.1115598979
 31
0.0
  0
LWPOLYLINE
  5
152
330
2
100
AcDbEntity
  8
0
100
AcDbPolyline
 90
        4
 70
     0
 43
0.0
 10
12.9354985596
 20
-10.9918409619
 10
12.9422081628
 20
-10.9917657539
 10
12.94893588280001
 20
-10.9916900483
 10
12.96244619
 20
-10.9915371251
  0
LWPOLYLINE
  5
153
330
2
100
AcDbEntity
  8
0
100
AcDbPolyline
 90
        4
 70
     0
 43
0.0
 10
12.9088387708
 20
-10.9921368851
 10
12.91547717720001
 20
-10.9920636339
 10
12.92213319480001
 20
-10.9919898979
 10
12.9354985596
 20
-10.9918409619
  0
LINE
  5
154
330
2
100
AcDbEntity
  8
0
100
AcDbLine
 10
13.09922968439999
 20
-10.9819998115
 30
0.0
 11
13.21787486999999
 21
-10.9806476451
 31
0.0
  0
LWPOLYLINE
  5
155
330
2
100
AcDbEntity
  8
0
100
AcDbPolyline
 90
        5
 70
     0
 43
0.0
 10
12.87590653239999
 20
-10.9924960307
 10
12.88245875160001
 20
-10.99242513949999
 10
12.88902796120001
 20
-10.9923537827
 10
12.89561428600001
 20
-10.9922819571
 10
12.9088387708
 20
-10.9921368851
  0
LINE
  5
156
330
2
100
AcDbEntity
  8
0
100
AcDbLine
 10
12.79744806199999
 20
-10.9833372547
 30
0.0
 11
12.9791858844
 21
-10.9813599379
 31
0.0
  0
LINE
  5
157
330
2
100
AcDbEntity
  8
0
100
AcDbLine
 10
10.01152230679999
 20
-10.9863592163
 30
0.0
 11
9.915033929199998
 21
-10.9874961459
 31
0.0
  0
LINE
  5
158
330
2
100
AcDbEntity
  8
0
100
AcDbLine
 10
11.86802424759999
 20
-10.9880226243
 30
0.0
 11
11.8093620204
 21
-10.9886590723
 31
0.0
  0
LINE
  5
159
330
2
100
AcDbEntity
  8
0
100
AcDbLine
 10
9.930030081200007
 20
-10.9873057635
 30
0.0
 11
9.88311194679999
 21
-10.9878240963
 31
0.0
  0
LINE
  5
15A
330
2
100
AcDbEntity
  8
0
100
AcDbLine
 10
12.91641136439999
 20
-10.9839316531
 30
0.0
 11
13.1183798556
 21
-10.9818006147
 31
0.0
  0
LINE
  5
15B
330
2
100
AcDbEntity
  8
0
100
AcDbLine
 10
12.79624197719998
 20
-10.9851253315
 30
0.0
 11
12.9840369308
 21
-10.9832508099
 31
0.0
  0
LINE
  5
15C
330
2
100
AcDbEntity
  8
0
100
AcDbLine
 10
12.623864614
 20
-10.9850250627
 30
0.0
 11
12.7977285548
 21
-10.9833343683
 31
0.0
  0
LINE
  5
15D
330
2
100
AcDbEntity
  8
0
100
AcDbLine
 10
12.7183091884
 20
-10.9858573331
 30
0.0
 11
12.82853578839998
 21
-10.9848011075
 31
0.0
  0
LINE
  5
15E
330
2
100
AcDbEntity
  8
0
100
AcDbLine
 10
11.83527347959999
 20
-10.9883932275
 30
0.0
 11
11.7717578204
 21
-10.9890078979
 31
0.0
  0
LWPOLYLINE
  5
15F
330
2
100
AcDbEntity
  8
0
100
AcDbPolyline
 90
        4
 70
     0
 43
0.0
 10
12.9350107148
 20
-11.1579876499
 10
13.428359478
 20
-11.1535673635
 10
13.9216319452
 20
-11.1485987363
 10
14.26960248279999
 20
-11.1444747859
  0
LINE
  5
160
330
2
100
AcDbEntity
  8
0
100
AcDbLine
 10
12.5606569484
 20
-10.9872678579
 30
0.0
 11
12.71880960279999
 21
-10.9858392899
 31
0.0
  0
LINE
  5
161
330
2
100
AcDbEntity
  8
0
100
AcDbLine
 10
12.45761196919999
 20
-10.9864580323
 30
0.0
 11
12.6241658604
 21
-10.9850223027
 31
0.0
  0
LINE
  5
162
330
2
100
AcDbEntity
  8
0
100
AcDbLine
 10
12.6700412924
 20
-11.1602002099
 30
0.0
 11
12.92708229239999
 21
-11.1580557363
 31
0.0
  0
LINE
  5
163
330
2
100
AcDbEntity
  8
0
100
AcDbLine
 10
9.980848677999992
 20
-10.9833070083
 30
0.0
 11
9.879485458799981
 21
-10.9841576643
 31
0.0
  0
LWPOLYLINE
  5
164
330
2
100
AcDbEntity
  8
0
100
AcDbPolyline
 90
        3
 70
     0
 43
0.0
 10
12.41264390200001
 20
-11.1308817331
 10
13.11537730200001
 20
-11.12512539549999
 10
13.7829271068
 20
-11.11868381949999
  0
LINE
  5
165
330
2
100
AcDbEntity
  8
0
100
AcDbLine
 10
12.4032143676
 20
-10.9885910675
 30
0.0
 11
12.5849699244
 21
-10.9870425283
 31
0.0
  0
LINE
  5
166
330
2
100
AcDbEntity
  8
0
100
AcDbLine
 10
11.79936330360001
 20
-10.9887558803
 30
0.0
 11
11.73103200759998
 21
-10.9893425571
 31
0.0
  0
LINE
  5
167
330
2
100
AcDbEntity
  8
0
100
AcDbLine
 10
9.890673253999997
 20
-10.9877347251
 30
0.0
 11
9.818911346799998
 21
-10.9883756339
 31
0.0
  0
LINE
  5
168
330
2
100
AcDbEntity
  8
0
100
AcDbLine
 10
12.9135514636
 20
-11.1581746947
 30
0.0
 11
12.41297144119999
 21
-11.1621296915
 31
0.0
  0
LINE
  5
169
330
2
100
AcDbEntity
  8
0
100
AcDbLine
 10
9.782550289199994
 20
-10.9886594691
 30
0.0
 11
9.532196562800001
 21
-10.9906643331
 31
0.0
  0
LINE
  5
16A
330
2
100
AcDbEntity
  8
0
100
AcDbLine
 10
9.850974135600003
 20
-10.9880963987
 30
0.0
 11
9.771496349999997
 21
-10.9887291427
 31
0.0
  0
LINE
  5
16B
330
2
100
AcDbEntity
  8
0
100
AcDbLine
 10
12.2566174572
 20
-10.9897162851
 30
0.0
 11
12.431545198
 21
-10.9883462547
 31
0.0
  0
LINE
  5
16C
330
2
100
AcDbEntity
  8
0
100
AcDbLine
 10
12.30169723639999
 20
-10.9876382387
 30
0.0
 11
12.45793373879998
 21
-10.9864554323
 31
0.0
  0
LINE
  5
16D
330
2
100
AcDbEntity
  8
0
100
AcDbLine
 10
9.882487410799987
 20
-10.9841318627
 30
0.0
 11
9.783490457199993
 21
-10.9848850931
 31
0.0
  0
LINE
  5
16E
330
2
100
AcDbEntity
  8
0
100
AcDbLine
 10
12.165602846
 20
-10.9903637171
 30
0.0
 11
12.32403251639998
 21
-10.9892192979
 31
0.0
  0
LINE
  5
16F
330
2
100
AcDbEntity
  8
0
100
AcDbLine
 10
11.76026021879999
 20
-10.9891066595
 30
0.0
 11
11.6871474268
 21
-10.9896592691
 31
0.0
  0
LINE
  5
170
330
2
100
AcDbEntity
  8
0
100
AcDbLine
 10
10.04398316759999
 20
-10.9861280483
 30
0.0
 11
10.00619144119999
 21
-10.9863936563
 31
0.0
  0
LINE
  5
171
330
2
100
AcDbEntity
  8
0
100
AcDbLine
 10
9.865316729199994
 20
-10.9942698931
 30
0.0
 11
9.777230199600003
 21
-10.9949201363
 31
0.0
  0
LINE
  5
172
330
2
100
AcDbEntity
  8
0
100
AcDbLine
 10
12.16684996599999
 20
-10.9885276771
 30
0.0
 11
12.3020182396
 21
-10.9876359731
 31
0.0
  0
LINE
  5
173
330
2
100
AcDbEntity
  8
0
100
AcDbLine
 10
9.835305956399983
 20
-10.9945226515
 30
0.0
 11
9.357158618800005
 21
-10.9978242403
 31
0.0
  0
LINE
  5
174
330
2
100
AcDbEntity
  8
0
100
AcDbLine
 10
9.697972572399995
 20
-10.9954655747
 30
0.0
 11
9.640175335599982
 21
-10.9958522611
 31
0.0
  0
LINE
  5
175
330
2
100
AcDbEntity
  8
0
100
AcDbLine
 10
9.785976813999999
 20
-10.9848679283
 30
0.0
 11
9.416434711599995
 21
-10.9874183987
 31
0.0
  0
LINE
  5
176
330
2
100
AcDbEntity
  8
0
100
AcDbLine
 10
12.35144935479998
 20
-11.1625383475
 30
0.0
 11
12.6700412924
 21
-11.1602002099
 31
0.0
  0
LINE
  5
177
330
2
100
AcDbEntity
  8
0
100
AcDbLine
 10
12.2074149196
 20
-10.9982588883
 30
0.0
 11
12.87590653239998
 21
-10.9924960307
 31
0.0
  0
LINE
  5
178
330
2
100
AcDbEntity
  8
0
100
AcDbLine
 10
9.553247033199985
 20
-10.9904895731
 30
0.0
 11
9.418736271600002
 21
-10.9914407203
 31
0.0
  0
LINE
  5
179
330
2
100
AcDbEntity
  8
0
100
AcDbLine
 10
11.717918582
 20
-10.9894417155
 30
0.0
 11
11.64007646039998
 21
-10.9899540707
 31
0.0
  0
LWPOLYLINE
  5
17A
330
2
100
AcDbEntity
  8
0
100
AcDbPolyline
 90
        3
 70
     0
 43
0.0
 10
10.00004043480001
 20
-10.9931834339
 10
9.980967250800006
 20
-10.99330244829999
 10
9.835305956399992
 20
-10.99452265149999
  0
LINE
  5
17B
330
2
100
AcDbEntity
  8
0
100
AcDbLine
 10
9.416700482799987
 20
-10.9874165619
 30
0.0
 11
9.245936709999986
 21
-10.9885279683
 31
0.0
  0
LINE
  5
17C
330
2
100
AcDbEntity
  8
0
100
AcDbLine
 10
9.411130841199982
 20
-10.9974417987
 30
0.0
 11
9.249827993199991
 21
-10.9985070803
 31
0.0
  0
LINE
  5
17D
330
2
100
AcDbEntity
  8
0
100
AcDbLine
 10
12.01285701239998
 20
-10.9913389587
 30
0.0
 11
12.16611339159998
 21
-10.9903736915
 31
0.0
  0
LINE
  5
17E
330
2
100
AcDbEntity
  8
0
100
AcDbLine
 10
9.433580566000008
 20
-10.9913297427
 30
0.0
 11
9.355106519600004
 21
-10.9918187923
 31
0.0
  0
LINE
  5
17F
330
2
100
AcDbEntity
  8
0
100
AcDbLine
 10
12.05963858839998
 20
-10.9891430883
 30
0.0
 11
12.16712958359999
 21
-10.9885259635
 31
0.0
  0
LINE
  5
180
330
2
100
AcDbEntity
  8
0
100
AcDbLine
 10
9.246668175599998
 20
-10.9885235523
 30
0.0
 11
9.164604644400005
 21
-10.9889968531
 31
0.0
  0
LWPOLYLINE
  5
181
330
2
100
AcDbEntity
  8
0
100
AcDbPolyline
 90
        4
 70
     0
 43
0.0
 10
12.4129714412
 20
-11.1621296915
 10
12.12514595479999
 20
-11.16372037469999
 10
11.89205572279999
 20
-11.16421845949999
 10
11.78639466519999
 20
-11.1638826739
  0
LINE
  5
182
330
2
100
AcDbEntity
  8
0
100
AcDbLine
 10
11.93991809719999
 20
-10.9917370275
 30
0.0
 11
12.07554592759998
 21
-10.9909509667
 31
0.0
  0
LINE
  5
183
330
2
100
AcDbEntity
  8
0
100
AcDbLine
 10
9.301557141999998
 20
-10.9981684003
 30
0.0
 11
9.147186001199989
 21
-10.9990930387
 31
0.0
  0
LINE
  5
184
330
2
100
AcDbEntity
  8
0
100
AcDbLine
 10
11.67230201079998
 20
-10.9897570243
 30
0.0
 11
11.58980563479999
 21
-10.9902222147
 31
0.0
  0
LINE
  5
185
330
2
100
AcDbEntity
  8
0
100
AcDbLine
 10
9.364888975599987
 20
-10.9917467091
 30
0.0
 11
9.282812462
 21
-10.9921962547
 31
0.0
  0
LINE
  5
186
330
2
100
AcDbEntity
  8
0
100
AcDbLine
 10
12.2062676476
 20
-11.1633616355
 30
0.0
 11
12.35144935479998
 21
-11.1625383475
 31
0.0
  0
LINE
  5
187
330
2
100
AcDbEntity
  8
0
100
AcDbLine
 10
12.0213600172
 20
-10.9993275555
 30
0.0
 11
12.2074149196
 21
-10.9982588883
 31
0.0
  0
LINE
  5
188
330
2
100
AcDbEntity
  8
0
100
AcDbLine
 10
9.195212399599986
 20
-10.9988103379
 30
0.0
 11
9.093869685999996
 21
-10.9993669811
 31
0.0
  0
LINE
  5
189
330
2
100
AcDbEntity
  8
0
100
AcDbLine
 10
9.165768204399986
 20
-10.9889904723
 30
0.0
 11
9.086144066800008
 21
-10.9894033603
 31
0.0
  0
LINE
  5
18A
330
2
100
AcDbEntity
  8
0
100
AcDbLine
 10
11.86971262679999
 20
-10.9920800883
 30
0.0
 11
11.98530466359999
 21
-10.9914806947
 31
0.0
  0
LINE
  5
18B
330
2
100
AcDbEntity
  8
0
100
AcDbLine
 10
11.97147708279998
 20
-10.9895848387
 30
0.0
 11
12.05988492119998
 21
-10.9891417715
 31
0.0
  0
LINE
  5
18C
330
2
100
AcDbEntity
  8
0
100
AcDbLine
 10
10.01915494039999
 20
-10.9930881955
 30
0.0
 11
9.917881234799997
 21
-10.9938308323
 31
0.0
  0
LINE
  5
18D
330
2
100
AcDbEntity
  8
0
100
AcDbLine
 10
11.88426748279999
 20
-10.9999510147
 30
0.0
 11
12.0213600172
 21
-10.9993275555
 31
0.0
  0
LINE
  5
18E
330
2
100
AcDbEntity
  8
0
100
AcDbLine
 10
9.087683708399984
 20
-10.9893958531
 30
0.0
 11
9.010639845999994
 21
-10.9897467523
 31
0.0
  0
LINE
  5
18F
330
2
100
AcDbEntity
  8
0
100
AcDbLine
 10
11.8967746412
 20
-10.9899145043
 30
0.0
 11
11.97169758519998
 21
-10.9895838067
 31
0.0
  0
LWPOLYLINE
  5
190
330
2
100
AcDbEntity
  8
0
100
AcDbPolyline
 90
        3
 70
     0
 43
0.0
 10
11.623385366
 20
-10.9900482851
 10
11.536323398
 20
-10.9904568691
 10
11.48044002840001
 20
-10.9906104227
  0
LINE
  5
191
330
2
100
AcDbEntity
  8
0
100
AcDbLine
 10
9.290466388399996
 20
-10.9921422195
 30
0.0
 11
9.19984254839999
 21
-10.9925606467
 31
0.0
  0
LWPOLYLINE
  5
192
330
2
100
AcDbEntity
  8
0
100
AcDbPolyline
 90
        3
 70
     0
 43
0.0
 10
11.57115998040001
 20
-10.9903099555
 10
11.5156097084
 20
-10.9905341587
 10
11.457560446
 20
-10.9905901587
  0
LINE
  5
193
330
2
100
AcDbEntity
  8
0
100
AcDbLine
 10
9.100107277999986
 20
-10.9993185059
 30
0.0
 11
8.968179629999999
 21
-10.9999183827
 31
0.0
  0
LINE
  5
194
330
2
100
AcDbEntity
  8
0
100
AcDbLine
 10
9.0124938108
 20
-10.9897389187
 30
0.0
 11
8.938101525999988
 21
-10.9900285187
 31
0.0
  0
LINE
  5
195
330
2
100
AcDbEntity
  8
0
100
AcDbLine
 10
11.73606062839998
 20
-10.9926203475
 30
0.0
 11
11.89271659319998
 21
-10.9919585475
 31
0.0
  0
LINE
  5
196
330
2
100
AcDbEntity
  8
0
100
AcDbLine
 10
12.074170142
 20
-11.1639072099
 30
0.0
 11
12.2062676476
 21
-11.1633616355
 31
0.0
  0
LINE
  5
197
330
2
100
AcDbEntity
  8
0
100
AcDbLine
 10
9.017060772400006
 20
-10.9997029523
 30
0.0
 11
8.901009734000004
 21
-11.0001539507
 31
0.0
  0
LWPOLYLINE
  5
198
330
2
100
AcDbEntity
  8
0
100
AcDbPolyline
 90
        4
 70
     0
 43
0.0
 10
9.209721436400002
 20
-10.9925043683
 10
9.1068115196
 20
-10.99288078589999
 10
9.008082858800008
 20
-10.9931198019
 10
8.910205593200004
 20
-10.9932592275
  0
LINE
  5
199
330
2
100
AcDbEntity
  8
0
100
AcDbLine
 10
10.0811096108
 20
-10.98296663069999
 30
0.0
 11
9.977328519599998
 21
-10.9833314403
 31
0.0
  0
LINE
  5
19A
330
2
100
AcDbEntity
  8
0
100
AcDbLine
 10
11.67121131159998
 20
-10.9928277363
 30
0.0
 11
11.7952229996
 21
-10.9923861347
 31
0.0
  0
LINE
  5
19B
330
2
100
AcDbEntity
  8
0
100
AcDbLine
 10
8.940230119600007
 20
-10.9900209491
 30
0.0
 11
8.868587484399986
 21
-10.9902516531
 31
0.0
  0
LINE
  5
19C
330
2
100
AcDbEntity
  8
0
100
AcDbLine
 10
11.77009245719999
 20
-10.9903501139
 30
0.0
 11
11.89698161879998
 21
-10.9899136467
 31
0.0
  0
LINE
  5
19D
330
2
100
AcDbEntity
  8
0
100
AcDbLine
 10
10.07715673559999
 20
-10.9929806835
 30
0.0
 11
10.0011595964
 21
-10.9931942835
 31
0.0
  0
LINE
  5
19E
330
2
100
AcDbEntity
  8
0
100
AcDbLine
 10
8.919501074799986
 20
-11.0000758467
 30
0.0
 11
8.832005407599998
 21
-11.0003325123
 31
0.0
  0
LWPOLYLINE
  5
19F
330
2
100
AcDbEntity
  8
0
100
AcDbPolyline
 90
        3
 70
     0
 43
0.0
 10
9.121063924400004
 20
-10.9928212355
 10
9.022759014000001
 20
-10.9930739971
 10
8.913631991599999
 20
-10.9932393027
  0
LINE
  5
1A0
330
2
100
AcDbEntity
  8
0
100
AcDbLine
 10
8.870955621999987
 20
-10.9902448339
 30
0.0
 11
8.802150716399998
 21
-10.9904196611
 31
0.0
  0
LINE
  5
1A1
330
2
100
AcDbEntity
  8
0
100
AcDbLine
 10
10.0771747804
 20
-10.9860477811
 30
0.0
 11
10.0423891068
 21
-10.9861198627
 31
0.0
  0
LINE
  5
1A2
330
2
100
AcDbEntity
  8
0
100
AcDbLine
 10
11.70618373239999
 20
-10.9904940323
 30
0.0
 11
11.83058635799999
 21
-10.9901668243
 31
0.0
  0
LINE
  5
1A3
330
2
100
AcDbEntity
  8
0
100
AcDbLine
 10
11.54111769719999
 20
-10.9931329443
 30
0.0
 11
11.69129275319999
 21
-10.9927537539
 31
0.0
  0
LINE
  5
1A4
330
2
100
AcDbEntity
  8
0
100
AcDbLine
 10
10.0579508124
 20
-10.9929768211
 30
0.0
 11
10.01915494039999
 21
-10.9930881955
 31
0.0
  0
LWPOLYLINE
  5
1A5
330
2
100
AcDbEntity
  8
0
100
AcDbPolyline
 90
        3
 70
     0
 43
0.0
 10
11.6158340988
 20
-11.0005980371
 10
11.80632776440001
 20
-11.0002314963
 10
11.88457130200001
 20
-10.9999505779
  0
LINE
  5
1A6
330
2
100
AcDbEntity
  8
0
100
AcDbLine
 10
8.804723681200007
 20
-10.9904140051
 30
0.0
 11
8.738831878000004
 21
-10.9905366755
 31
0.0
  0
LINE
  5
1A7
330
2
100
AcDbEntity
  8
0
100
AcDbLine
 10
8.839904023600004
 20
-11.0003300323
 30
0.0
 11
8.740906762799985
 21
-11.0005160883
 31
0.0
  0
LINE
  5
1A8
330
2
100
AcDbEntity
  8
0
100
AcDbLine
 10
8.761203801199988
 20
-11.0004828387
 30
0.0
 11
8.750594535600006
 21
-11.0005007763
 31
0.0
  0
LINE
  5
1A9
330
2
100
AcDbEntity
  8
0
100
AcDbLine
 10
11.95611296599999
 20
-11.1641821251
 30
0.0
 11
12.074170142
 21
-11.1639072099
 31
0.0
  0
LINE
  5
1AA
330
2
100
AcDbEntity
  8
0
100
AcDbLine
 10
11.64118295159999
 20
-10.9905892467
 30
0.0
 11
11.76988395319999
 21
-10.9903506659
 31
0.0
  0
LWPOLYLINE
  5
1AB
330
2
100
AcDbEntity
  8
0
100
AcDbPolyline
 90
        5
 70
     0
 43
0.0
 10
8.336811945199997
 20
-11.1328487299
 10
8.237054098800001
 20
-11.1329656083
 10
8.093856684400009
 20
-11.1326989459
 10
7.928168537200008
 20
-11.1320103779
 10
7.741596650800005
 20
-11.1308817331
  0
LINE
  5
1AC
330
2
100
AcDbEntity
  8
0
100
AcDbLine
 10
8.741573927599992
 20
-10.9905325027
 30
0.0
 11
8.678661959599983
 21
-10.9906067859
 31
0.0
  0
LINE
  5
1AD
330
2
100
AcDbEntity
  8
0
100
AcDbLine
 10
11.4083580316
 20
-10.9932890003
 30
0.0
 11
11.58237399479999
 21
-10.9930386835
 31
0.0
  0
LINE
  5
1AE
330
2
100
AcDbEntity
  8
0
100
AcDbLine
 10
11.5701851196
 20
-10.9906354627
 30
0.0
 11
11.7059588284
 21
-10.9904944499
 31
0.0
  0
LINE
  5
1AF
330
2
100
AcDbEntity
  8
0
100
AcDbLine
 10
11.33247307319998
 20
-10.9933063747
 30
0.0
 11
11.4703966604
 21
-10.9932221363
 31
0.0
  0
LINE
  5
1B0
330
2
100
AcDbEntity
  8
0
100
AcDbLine
 10
11.53935774199998
 20
-10.9906369619
 30
0.0
 11
11.6409309756
 21
-10.9905895171
 31
0.0
  0
LINE
  5
1B1
330
2
100
AcDbEntity
  8
0
100
AcDbLine
 10
4.767179692399983
 20
-12.0152649267
 30
0.0
 11
15.38706324759998
 21
-12.0152649267
 31
0.0
  0
LINE
  5
1B2
330
2
100
AcDbEntity
  8
0
100
AcDbLine
 10
4.706574948399994
 20
-11.9840149267
 30
0.0
 11
7.317068100399998
 21
-11.9840149267
 31
0.0
  0
LINE
  5
1B3
330
2
100
AcDbEntity
  8
0
100
AcDbLine
 10
12.837172454
 20
-11.9840149267
 30
0.0
 11
15.447665606
 21
-11.9840149267
 31
0.0
  0
LINE
  5
1B4
330
2
100
AcDbEntity
  8
0
100
AcDbLine
 10
8.806819287599997
 20
-11.4940149267
 30
0.0
 11
11.348566886
 21
-11.4940149267
 31
0.0
  0
LINE
  5
1B5
330
2
100
AcDbEntity
  8
0
100
AcDbLine
 10
8.805673668399995
 20
-11.4840149267
 30
0.0
 11
11.348566886
 21
-11.4840149267
 31
0.0
  0
LINE
  5
1B6
330
2
100
AcDbEntity
  8
0
100
AcDbLine
 10
11.89241576919999
 20
-11.1642200947
 30
0.0
 11
11.95611296599999
 21
-11.1641821251
 31
0.0
  0
LINE
  5
1B7
330
2
100
AcDbEntity
  8
0
100
AcDbLine
 10
8.91363199159999
 20
-10.9932393027
 30
0.0
 11
8.746117980400006
 21
-10.9932890771
 31
0.0
  0
LINE
  5
1B8
330
2
100
AcDbEntity
  8
0
100
AcDbLine
 10
11.24067145559998
 20
-10.9932422579
 30
0.0
 11
11.35588462519998
 21
-10.9932928323
 31
0.0
  0
LINE
  5
1B9
330
2
100
AcDbEntity
  8
0
100
AcDbLine
 10
8.548052517999982
 20
-10.99061948669999
 30
0.0
 11
8.668851006000002
 21
-10.9906142771
 31
0.0
  0
LINE
  5
1BA
330
2
100
AcDbEntity
  8
0
100
AcDbLine
 10
11.4861185628
 20
-10.9906147731
 30
0.0
 11
11.5701851196
 21
-10.9906354627
 31
0.0
  0
LINE
  5
1BB
330
2
100
AcDbEntity
  8
0
100
AcDbLine
 10
11.48499104919999
 20
-11.0006137539
 30
0.0
 11
11.4901090236
 21
-11.0006180259
 31
0.0
  0
LINE
  5
1BC
330
2
100
AcDbEntity
  8
0
100
AcDbLine
 10
11.4656521324
 20
-11.0005980339
 30
0.0
 11
11.61583409879999
 21
-11.0005980371
 31
0.0
  0
LWPOLYLINE
  5
1BD
330
2
100
AcDbEntity
  8
0
100
AcDbPolyline
 90
        5
 70
     0
 43
0.0
 10
11.81742860919999
 20
-11.1328487299
 10
11.91718645560001
 20
-11.1329656083
 10
12.06038387000001
 20
-11.1326989459
 10
12.22607201720001
 20
-11.1320103779
 10
12.41264390200001
 20
-11.1308817331
  0
LINE
  5
1BE
330
2
100
AcDbEntity
  8
0
100
AcDbLine
 10
11.4804400284
 20
-10.9906104227
 30
0.0
 11
11.39378845879999
 21
-10.9905015619
 31
0.0
  0
LINE
  5
1BF
330
2
100
AcDbEntity
  8
0
100
AcDbLine
 10
8.798419397999984
 20
-10.9932899443
 30
0.0
 11
8.66921807479999
 21
-10.9932159059
 31
0.0
  0
LINE
  5
1C0
330
2
100
AcDbEntity
  8
0
100
AcDbLine
 10
8.452939828399982
 20
-10.9905029651
 30
0.0
 11
8.548499764399982
 21
-10.9906197779
 31
0.0
  0
LINE
  5
1C1
330
2
100
AcDbEntity
  8
0
100
AcDbLine
 10
11.13153964439998
 20
-10.9930770099
 30
0.0
 11
11.24435724599998
 21
-10.9932595907
 31
0.0
  0
LINE
  5
1C2
330
2
100
AcDbEntity
  8
0
100
AcDbLine
 10
8.66921807479999
 20
-10.9932159059
 30
0.0
 11
8.54828219
 21
-10.9929994371
 31
0.0
  0
LWPOLYLINE
  5
1C3
330
2
100
AcDbEntity
  8
0
100
AcDbPolyline
 90
        3
 70
     0
 43
0.0
 10
10.0579508124
 20
-10.9929768211
 10
10.1306006748
 20
-10.99308680669999
 10
10.18463721079999
 20
-10.9934005363
  0
LINE
  5
1C4
330
2
100
AcDbEntity
  8
0
100
AcDbLine
 10
11.42028640759999
 20
-10.9905438915
 30
0.0
 11
11.3265084044
 21
-10.9903603491
 31
0.0
  0
LINE
  5
1C5
330
2
100
AcDbEntity
  8
0
100
AcDbLine
 10
8.670142618800005
 20
-11.0006129827
 30
0.0
 11
8.657742941999989
 21
-11.0005823203
 31
0.0
  0
LINE
  5
1C6
330
2
100
AcDbEntity
  8
0
100
AcDbLine
 10
11.3202706876
 20
-11.0003451267
 30
0.0
 11
11.4656521324
 21
-11.0005980339
 31
0.0
  0
LINE
  5
1C7
330
2
100
AcDbEntity
  8
0
100
AcDbLine
 10
8.366915761199996
 20
-10.9903026579
 30
0.0
 11
8.453235894000007
 21
-10.9905034979
 31
0.0
  0
LINE
  5
1C8
330
2
100
AcDbEntity
  8
0
100
AcDbLine
 10
8.681568393199986
 20
-10.9906042435
 30
0.0
 11
8.623774657200007
 21
-10.9904794611
 31
0.0
  0
LINE
  5
1C9
330
2
100
AcDbEntity
  8
0
100
AcDbLine
 10
11.03322934199999
 20
-10.9928242931
 30
0.0
 11
11.14650340119998
 21
-10.9931205203
 31
0.0
  0
LINE
  5
1CA
330
2
100
AcDbEntity
  8
0
100
AcDbLine
 10
10.0771747804
 20
-10.9860477811
 30
0.0
 11
10.11185962839998
 21
-10.9861227987
 31
0.0
  0
LINE
  5
1CB
330
2
100
AcDbEntity
  8
0
100
AcDbLine
 10
11.35688888919999
 20
-10.9904300259
 30
0.0
 11
11.25582924759998
 21
-10.9901617059
 31
0.0
  0
LINE
  5
1CC
330
2
100
AcDbEntity
  8
0
100
AcDbLine
 10
8.571926034800005
 20
-10.9930359171
 30
0.0
 11
8.418378645999998
 21
-10.9926209795
 31
0.0
  0
LINE
  5
1CD
330
2
100
AcDbEntity
  8
0
100
AcDbLine
 10
11.29031818039998
 20
-10.9902649203
 30
0.0
 11
11.18180878679998
 21
-10.9899012307
 31
0.0
  0
LINE
  5
1CE
330
2
100
AcDbEntity
  8
0
100
AcDbLine
 10
11.7860685452
 20
-11.1640327891
 30
0.0
 11
11.89205572279998
 21
-11.1642184595
 31
0.0
  0
LINE
  5
1CF
330
2
100
AcDbEntity
  8
0
100
AcDbLine
 10
11.18842382999999
 20
-10.9999273955
 30
0.0
 11
11.3202706876
 21
-11.0003451267
 31
0.0
  0
LINE
  5
1D0
330
2
100
AcDbEntity
  8
0
100
AcDbLine
 10
10.94456734999999
 20
-10.9925074579
 30
0.0
 11
11.0477690316
 21
-10.9928818419
 31
0.0
  0
LINE
  5
1D1
330
2
100
AcDbEntity
  8
0
100
AcDbLine
 10
8.463004596399988
 20
-10.9927510355
 30
0.0
 11
8.352515020399996
 21
-10.9923736051
 31
0.0
  0
LINE
  5
1D2
330
2
100
AcDbEntity
  8
0
100
AcDbLine
 10
10.18092704279998
 20
-10.9833601139
 30
0.0
 11
10.0771562396
 21
-10.9829660595
 31
0.0
  0
LINE
  5
1D3
330
2
100
AcDbEntity
  8
0
100
AcDbLine
 10
11.220619254
 20
-10.9900443107
 30
0.0
 11
11.10452741879998
 21
-10.9895752003
 31
0.0
  0
LINE
  5
1D4
330
2
100
AcDbEntity
  8
0
100
AcDbLine
 10
8.242461412399981
 20
-10.9998319379
 30
0.0
 11
8.742411380399991
 21
-11.0005312771
 31
0.0
  0
LINE
  5
1D5
330
2
100
AcDbEntity
  8
0
100
AcDbLine
 10
8.626240425199986
 20
-10.9904887987
 30
0.0
 11
8.571120905199981
 21
-10.9902544035
 31
0.0
  0
LINE
  5
1D6
330
2
100
AcDbEntity
  8
0
100
AcDbLine
 10
11.0899067324
 20
-10.9995088931
 30
0.0
 11
11.18842382999999
 21
-10.9999273955
 31
0.0
  0
LINE
  5
1D7
330
2
100
AcDbEntity
  8
0
100
AcDbLine
 10
10.8638187868
 20
-10.9921453331
 30
0.0
 11
10.95471435959998
 21
-10.9925619523
 31
0.0
  0
LINE
  5
1D8
330
2
100
AcDbEntity
  8
0
100
AcDbLine
 10
8.359070562800004
 20
-10.9923834515
 30
0.0
 11
8.214529513199996
 21
-10.9917380403
 31
0.0
  0
LINE
  5
1D9
330
2
100
AcDbEntity
  8
0
100
AcDbLine
 10
11.1478553132
 20
-10.9897646099
 30
0.0
 11
11.02405379
 21
-10.98918106429999
 31
0.0
  0
LINE
  5
1DA
330
2
100
AcDbEntity
  8
0
100
AcDbLine
 10
8.105011594799995
 20
-10.9891982771
 30
0.0
 11
8.270810113200004
 21
-10.9899688755
 31
0.0
  0
LINE
  5
1DB
330
2
100
AcDbEntity
  8
0
100
AcDbLine
 10
8.573156541999983
 20
-10.9902640435
 30
0.0
 11
8.521461977199995
 21
-10.9899959107
 31
0.0
  0
LINE
  5
1DC
330
2
100
AcDbEntity
  8
0
100
AcDbLine
 10
8.261573238000002
 20
-10.9919558883
 30
0.0
 11
8.141594977200005
 21
-10.9913401123
 31
0.0
  0
LINE
  5
1DD
330
2
100
AcDbEntity
  8
0
100
AcDbLine
 10
10.97894586679998
 20
-10.9989399027
 30
0.0
 11
11.0899067324
 21
-10.9995088931
 31
0.0
  0
LWPOLYLINE
  5
1DE
330
2
100
AcDbEntity
  8
0
100
AcDbPolyline
 90
        4
 70
     0
 43
0.0
 10
7.74126911159999
 20
-11.1621296915
 10
8.0290945996
 20
-11.16372037469999
 10
8.262184831599995
 20
-11.16421845949999
 10
8.367845889199998
 20
-11.1638826739
  0
LINE
  5
1DF
330
2
100
AcDbEntity
  8
0
100
AcDbLine
 10
11.07210314199999
 20
-10.98942280509999
 30
0.0
 11
10.94045960439998
 21
-10.9887187155
 31
0.0
  0
LINE
  5
1E0
330
2
100
AcDbEntity
  8
0
100
AcDbLine
 10
8.000847914799996
 20
-10.9985922211
 30
0.0
 11
8.248784978800008
 21
-10.9998608179
 31
0.0
  0
LINE
  5
1E1
330
2
100
AcDbEntity
  8
0
100
AcDbLine
 10
8.168982709999985
 20
-10.9914780595
 30
0.0
 11
8.065987834800003
 21
-10.9908849763
 31
0.0
  0
LINE
  5
1E2
330
2
100
AcDbEntity
  8
0
100
AcDbLine
 10
8.523119722799995
 20
-10.9900052739
 30
0.0
 11
8.474815153200003
 21
-10.9897106835
 31
0.0
  0
LINE
  5
1E3
330
2
100
AcDbEntity
  8
0
100
AcDbLine
 10
10.72069866679998
 20
-10.9913328851
 30
0.0
 11
10.8717081228
 21
-10.9921976691
 31
0.0
  0
LINE
  5
1E4
330
2
100
AcDbEntity
  8
0
100
AcDbLine
 10
10.99343734999998
 20
-10.9890176339
 30
0.0
 11
10.8538795276
 21
-10.9881904851
 31
0.0
  0
LINE
  5
1E5
330
2
100
AcDbEntity
  8
0
100
AcDbLine
 10
7.938647353199987
 20
-10.9882206035
 30
0.0
 11
8.105011594799995
 21
-10.9891982771
 31
0.0
  0
LINE
  5
1E6
330
2
100
AcDbEntity
  8
0
100
AcDbLine
 10
10.91195361399998
 20
-10.9885499555
 30
0.0
 11
10.7410429996
 21
-10.9874407363
 31
0.0
  0
LINE
  5
1E7
330
2
100
AcDbEntity
  8
0
100
AcDbLine
 10
7.856253094000001
 20
-10.9976471219
 30
0.0
 11
8.000847914799996
 21
-10.9985922211
 31
0.0
  0
LINE
  5
1E8
330
2
100
AcDbEntity
  8
0
100
AcDbLine
 10
10.6816778396
 20
-10.99703100349999
 30
0.0
 11
10.97894586679998
 21
-10.9989399027
 31
0.0
  0
LINE
  5
1E9
330
2
100
AcDbEntity
  8
0
100
AcDbLine
 10
8.078740396399998
 20
-10.9909483571
 30
0.0
 11
7.909602498800003
 21
-10.9898177443
 31
0.0
  0
LINE
  5
1EA
330
2
100
AcDbEntity
  8
0
100
AcDbLine
 10
8.476124263600004
 20
-10.9897192787
 30
0.0
 11
8.431171540400006
 21
-10.9894032451
 31
0.0
  0
LINE
  5
1EB
330
2
100
AcDbEntity
  8
0
100
AcDbLine
 10
10.53956160759999
 20
-10.9960275939
 30
0.0
 11
10.6816778396
 21
-10.99703100349999
 31
0.0
  0
LINE
  5
1EC
330
2
100
AcDbEntity
  8
0
100
AcDbLine
 10
7.788976463599984
 20
-10.9871763123
 30
0.0
 11
7.938647353199987
 21
-10.9882206035
 31
0.0
  0
LINE
  5
1ED
330
2
100
AcDbEntity
  8
0
100
AcDbLine
 10
7.757507074799994
 20
-10.9969205939
 30
0.0
 11
7.856253094000001
 21
-10.9976471219
 31
0.0
  0
LINE
  5
1EE
330
2
100
AcDbEntity
  8
0
100
AcDbLine
 10
7.988683261999986
 20
-10.9903611347
 30
0.0
 11
7.830416812400008
 21
-10.9892208563
 31
0.0
  0
LINE
  5
1EF
330
2
100
AcDbEntity
  8
0
100
AcDbLine
 10
10.11039468759999
 20
-10.9861288067
 30
0.0
 11
10.1480642252
 21
-10.9863966995
 31
0.0
  0
LINE
  5
1F0
330
2
100
AcDbEntity
  8
0
100
AcDbLine
 10
10.7644779356
 20
-10.9876012467
 30
0.0
 11
10.27555880599998
 21
-10.9841645363
 31
0.0
  0
LINE
  5
1F1
330
2
100
AcDbEntity
  8
0
100
AcDbLine
 10
10.55028056599998
 20
-10.9900954051
 30
0.0
 11
10.73572852919999
 21
-10.9914421875
 31
0.0
  0
LINE
  5
1F2
330
2
100
AcDbEntity
  8
0
100
AcDbLine
 10
7.240689089199994
 20
-11.1581746947
 30
0.0
 11
7.741269111599981
 21
-11.1621296915
 31
0.0
  0
LINE
  5
1F3
330
2
100
AcDbEntity
  8
0
100
AcDbLine
 10
7.897668495600006
 20
-10.9897137267
 30
0.0
 11
7.722735282800007
 21
-10.9883436883
 31
0.0
  0
LWPOLYLINE
  5
1F4
330
2
100
AcDbEntity
  8
0
100
AcDbPolyline
 90
        3
 70
     0
 43
0.0
 10
7.741596650800005
 20
-11.1308817331
 10
7.038863252400005
 20
-11.12512539549999
 10
6.371313447600016
 20
-11.11868381949999
  0
LINE
  5
1F5
330
2
100
AcDbEntity
  8
0
100
AcDbLine
 10
7.628354900400003
 20
-10.9858913027
 30
0.0
 11
7.788976463599984
 21
-10.9871763123
 31
0.0
  0
LINE
  5
1F6
330
2
100
AcDbEntity
  8
0
100
AcDbLine
 10
7.830416812400008
 20
-10.9892208563
 30
0.0
 11
7.593777839599985
 21
-10.9872694867
 31
0.0
  0
LINE
  5
1F7
330
2
100
AcDbEntity
  8
0
100
AcDbLine
 10
10.2826620364
 20
-10.9842245667
 30
0.0
 11
10.17733989559999
 21
-10.9833344547
 31
0.0
  0
LWPOLYLINE
  5
1F8
330
2
100
AcDbEntity
  8
0
100
AcDbPolyline
 90
        4
 70
     0
 43
0.0
 10
10.18463721079999
 20
-10.9934005363
 10
10.29013058040001
 20
-10.9942969427
 10
10.339758262
 20
-10.9946765251
 10
10.5395616076
 20
-10.9960275939
  0
LINE
  5
1F9
330
2
100
AcDbEntity
  8
0
100
AcDbLine
 10
7.643463705199982
 20
-10.9876801923
 30
0.0
 11
7.436119250799995
 21
-10.9858590131
 31
0.0
  0
LINE
  5
1FA
330
2
100
AcDbEntity
  8
0
100
AcDbLine
 10
8.39051172279999
 20
-10.9890772323
 30
0.0
 11
8.352809148400003
 21
-10.9887361075
 31
0.0
  0
LINE
  5
1FB
330
2
100
AcDbEntity
  8
0
100
AcDbLine
 10
8.432163061999991
 20
-10.9894106979
 30
0.0
 11
8.353259914799982
 21
-10.9887404275
 31
0.0
  0
LINE
  5
1FC
330
2
100
AcDbEntity
  8
0
100
AcDbLine
 10
10.26359300119999
 20
-10.9877378723
 30
0.0
 11
10.56723487319998
 21
-10.9902442547
 31
0.0
  0
LINE
  5
1FD
330
2
100
AcDbEntity
  8
0
100
AcDbLine
 10
7.499783194800007
 20
-10.9864229843
 30
0.0
 11
7.358174033200006
 21
-10.9851269539
 31
0.0
  0
LINE
  5
1FE
330
2
100
AcDbEntity
  8
0
100
AcDbLine
 10
7.458726169199982
 20
-10.9843521235
 30
0.0
 11
7.628396511600007
 21
-10.9858916579
 31
0.0
  0
LINE
  5
1FF
330
2
100
AcDbEntity
  8
0
100
AcDbLine
 10
7.377329050799991
 20
-10.9852928979
 30
0.0
 11
7.224896666799983
 21
-10.9838140499
 31
0.0
  0
LINE
  5
200
330
2
100
AcDbEntity
  8
0
100
AcDbLine
 10
7.325830290800004
 20
-10.9830156035
 30
0.0
 11
7.458777959600004
 21
-10.9843526227
 31
0.0
  0
LINE
  5
201
330
2
100
AcDbEntity
  8
0
100
AcDbLine
 10
7.237846796399983
 20
-10.9839289363
 30
0.0
 11
7.076063154800001
 21
-10.9822448387
 31
0.0
  0
LINE
  5
202
330
2
100
AcDbEntity
  8
0
100
AcDbLine
 10
6.371313447600007
 20
-11.1186838195
 30
0.0
 11
5.74005962199998
 21
-11.1115598979
 31
0.0
  0
LINE
  5
203
330
2
100
AcDbEntity
  8
0
100
AcDbLine
 10
7.133552210799981
 20
-10.9828483715
 30
0.0
 11
6.999775797999992
 21
-10.9813940227
 31
0.0
  0
LINE
  5
204
330
2
100
AcDbEntity
  8
0
100
AcDbLine
 10
7.188177660400006
 20
-10.9815099395
 30
0.0
 11
7.325890172399985
 21
-10.9830162307
 31
0.0
  0
LINE
  5
205
330
2
100
AcDbEntity
  8
0
100
AcDbLine
 10
8.353259914799982
 20
-10.9887404275
 30
0.0
 11
8.286152626799994
 21
-10.9880218627
 31
0.0
  0
LWPOLYLINE
  5
206
330
2
100
AcDbEntity
  8
0
100
AcDbPolyline
 90
        4
 70
     0
 43
0.0
 10
5.739438487600011
 20
-11.1428027971
 10
6.239761418800014
 20
-11.1485640691
 10
6.740187226800003
 20
-11.1535828659
 10
7.240689089200003
 20
-11.1581746947
  0
LINE
  5
207
330
2
100
AcDbEntity
  8
0
100
AcDbLine
 10
10.14286336119999
 20
-10.9863606307
 30
0.0
 11
10.1856188684
 21
-10.9868248995
 31
0.0
  0
LWPOLYLINE
  5
208
330
2
100
AcDbEntity
  8
0
100
AcDbPolyline
 90
        3
 70
     0
 43
0.0
 10
5.819129454000005
 20
-11.0787909155
 10
5.856511382000007
 20
-11.0792337939
 10
5.880498367600011
 20
-11.0792163651
  0
LINE
  5
209
330
2
100
AcDbEntity
  8
0
100
AcDbLine
 10
7.013364447599988
 20
-10.9815315715
 30
0.0
 11
6.886662853999999
 21
-10.9800698435
 31
0.0
  0
LINE
  5
20A
330
2
100
AcDbEntity
  8
0
100
AcDbLine
 10
6.913708221999987
 20
-10.9803770387
 30
0.0
 11
6.903711071600005
 21
-10.9802579139
 31
0.0
  0
LINE
  5
20B
330
2
100
AcDbEntity
  8
0
100
AcDbLine
 10
10.20707887479999
 20
-10.9871103203
 30
0.0
 11
10.2712628316
 21
-10.9878254515
 31
0.0
  0
LINE
  5
20C
330
2
100
AcDbEntity
  8
0
100
AcDbLine
 10
7.045778649199993
 20
-10.9798220035
 30
0.0
 11
7.18824605079998
 21
-10.9815107171
 31
0.0
  0
LINE
  5
20D
330
2
100
AcDbEntity
  8
0
100
AcDbLine
 10
10.174954758
 20
-10.9867074739
 30
0.0
 11
10.22423453559999
 21
-10.9873089491
 31
0.0
  0
LINE
  5
20E
330
2
100
AcDbEntity
  8
0
100
AcDbLine
 10
8.286191228400005
 20
-10.9880223235
 30
0.0
 11
8.257043655599991
 21
-10.9876539939
 31
0.0
  0
LINE
  5
20F
330
2
100
AcDbEntity
  8
0
100
AcDbLine
 10
6.898592454
 20
-10.9779375811
 30
0.0
 11
7.045855973999996
 21
-10.9798229555
 31
0.0
  0
LINE
  5
210
330
2
100
AcDbEntity
  8
0
100
AcDbLine
 10
6.894512708400005
 20
-10.9801477619
 30
0.0
 11
6.651760188399995
 21
-10.9771874067
 31
0.0
  0
LINE
  5
211
330
2
100
AcDbEntity
  8
0
100
AcDbLine
 10
6.656346628399992
 20
-10.9772289523
 30
0.0
 11
6.529338193199995
 21
-10.9755775571
 31
0.0
  0
LINE
  5
212
330
2
100
AcDbEntity
  8
0
100
AcDbLine
 10
3.607556017200002
 20
-11.0418890579
 30
0.0
 11
3.836221958000001
 21
-11.0451173427
 31
0.0
  0
LINE
  5
213
330
2
100
AcDbEntity
  8
0
100
AcDbLine
 10
6.573406724399992
 20
-10.9761538563
 30
0.0
 11
6.454002791599995
 21
-10.9745127827
 31
0.0
  0
LINE
  5
214
330
2
100
AcDbEntity
  8
0
100
AcDbLine
 10
6.746084940400001
 20
-10.9758349011
 30
0.0
 11
6.898679285999994
 21
-10.9779387347
 31
0.0
  0
LINE
  5
215
330
2
100
AcDbEntity
  8
0
100
AcDbLine
 10
8.257161037999983
 20
-10.9876555619
 30
0.0
 11
8.230793161200002
 21
-10.9872838035
 31
0.0
  0
LINE
  5
216
330
2
100
AcDbEntity
  8
0
100
AcDbLine
 10
6.479203422000002
 20
-10.9748845619
 30
0.0
 11
6.33057140119998
 21
-10.9727204547
 31
0.0
  0
LINE
  5
217
330
2
100
AcDbEntity
  8
0
100
AcDbLine
 10
6.36208532599999
 20
-10.9732025731
 30
0.0
 11
6.217556639599981
 21
-10.9710288851
 31
0.0
  0
LINE
  5
218
330
2
100
AcDbEntity
  8
0
100
AcDbLine
 10
6.587683882799998
 20
-10.9734888979
 30
0.0
 11
6.7461821452
 21
-10.9758362899
 31
0.0
  0
LINE
  5
219
330
2
100
AcDbEntity
  8
0
100
AcDbLine
 10
5.486137322799995
 20
-11.1389219763
 30
0.0
 11
5.739438487600002
 21
-11.1428027971
 31
0.0
  0
LWPOLYLINE
  5
21A
330
2
100
AcDbEntity
  8
0
100
AcDbPolyline
 90
        8
 70
     0
 43
0.0
 10
5.740059621999989
 20
-11.1115598979
 10
5.415654071600016
 20
-11.1063928371
 10
5.067628814000016
 20
-11.0990868835
 10
4.724577054000008
 20
-11.0905126803
 10
4.40699424920001
 20
-11.0816079411
 10
4.1222554844
 20
-11.0729306755
 10
3.871661143599993
 20
-11.0646428851
 10
3.663127254000016
 20
-11.0569148883
  0
LINE
  5
21B
330
2
100
AcDbEntity
  8
0
100
AcDbLine
 10
6.222797900399987
 20
-10.9710925539
 30
0.0
 11
6.080545474799995
 21
-10.9688813907
 31
0.0
  0
LINE
  5
21C
330
2
100
AcDbEntity
  8
0
100
AcDbLine
 10
6.478342970800005
 20
-10.9717730787
 30
0.0
 11
6.587792413999997
 21
-10.9734905619
 31
0.0
  0
LINE
  5
21D
330
2
100
AcDbEntity
  8
0
100
AcDbLine
 10
8.231034748399983
 20
-10.9872874067
 30
0.0
 11
8.207406393200008
 21
-10.9869146787
 31
0.0
  0
LINE
  5
21E
330
2
100
AcDbEntity
  8
0
100
AcDbLine
 10
5.150117175599993
 20
-11.0679148819
 30
0.0
 11
5.819129453999996
 21
-11.0787909155
 31
0.0
  0
LINE
  5
21F
330
2
100
AcDbEntity
  8
0
100
AcDbLine
 10
6.103192772399998
 20
-10.9692247843
 30
0.0
 11
5.956422305199984
 21
-10.9668686051
 31
0.0
  0
LINE
  5
220
330
2
100
AcDbEntity
  8
0
100
AcDbLine
 10
6.365488330799982
 20
-10.9699196675
 30
0.0
 11
6.478459849199984
 21
-10.9717749555
 31
0.0
  0
LINE
  5
221
330
2
100
AcDbEntity
  8
0
100
AcDbLine
 10
5.98371520439999
 20
-10.9672998451
 30
0.0
 11
5.834674951599984
 21
-10.9648291043
 31
0.0
  0
LINE
  5
222
330
2
100
AcDbEntity
  8
0
100
AcDbLine
 10
5.86549874199999
 20
-10.9653348051
 30
0.0
 11
5.723325663599998
 21
-10.9629027907
 31
0.0
  0
LINE
  5
223
330
2
100
AcDbEntity
  8
0
100
AcDbLine
 10
6.24900357079999
 20
-10.9679191059
 30
0.0
 11
6.365614351600006
 21
-10.9699217843
 31
0.0
  0
LWPOLYLINE
  5
224
330
2
100
AcDbEntity
  8
0
100
AcDbPolyline
 90
        3
 70
     0
 43
0.0
 10
3.83622195800001
 20
-11.0451173427
 10
4.496430943599989
 20
-11.0567924419
 10
5.150117175600001
 20
-11.0679148819
  0
LINE
  5
225
330
2
100
AcDbEntity
  8
0
100
AcDbLine
 10
5.75479013399998
 20
-10.9634363571
 30
0.0
 11
5.588833420399984
 21
-10.9604928659
 31
0.0
  0
LINE
  5
226
330
2
100
AcDbEntity
  8
0
100
AcDbLine
 10
6.1290769164
 20
-10.9657670499
 30
0.0
 11
6.24913890679999
 21
-10.9679214819
 31
0.0
  0
LINE
  5
227
330
2
100
AcDbEntity
  8
0
100
AcDbLine
 10
5.617827618799983
 20
-10.9610032499
 30
0.0
 11
5.465706551599984
 21
-10.9582014579
 31
0.0
  0
LINE
  5
228
330
2
100
AcDbEntity
  8
0
100
AcDbLine
 10
6.005997634799987
 20
-10.9634617027
 30
0.0
 11
6.129221614000007
 21
-10.9657697027
 31
0.0
  0
LINE
  5
229
330
2
100
AcDbEntity
  8
0
100
AcDbLine
 10
5.501781570799996
 20
-10.9588645603
 30
0.0
 11
5.34818014359998
 21
-10.9559415571
 31
0.0
  0
LINE
  5
22A
330
2
100
AcDbEntity
  8
0
100
AcDbLine
 10
5.879821340400004
 20
-10.9609976659
 30
0.0
 11
6.006151577199991
 21
-10.9634646483
 31
0.0
  0
LINE
  5
22B
330
2
100
AcDbEntity
  8
0
100
AcDbLine
 10
8.207741622000005
 20
-10.9869202835
 30
0.0
 11
8.168855172400006
 21
-10.9861957603
 31
0.0
  0
LINE
  5
22C
330
2
100
AcDbEntity
  8
0
100
AcDbLine
 10
5.34818014359998
 20
-10.9559415571
 30
0.0
 11
5.12434020119999
 21
-10.9515347475
 31
0.0
  0
LINE
  5
22D
330
2
100
AcDbEntity
  8
0
100
AcDbLine
 10
5.749515108399995
 20
-10.9583480131
 30
0.0
 11
5.879985719599991
 21
-10.9610009411
 31
0.0
  0
LWPOLYLINE
  5
22E
330
2
100
AcDbEntity
  8
0
100
AcDbPolyline
 90
       10
 70
     0
 43
0.0
 10
5.124340201199999
 20
-10.95153474749999
 10
4.97938855320001
 20
-10.9485556211
 10
4.896664215599997
 20
-10.9467853571
 10
4.80213162999999
 20
-10.9446952499
 10
4.695342372400006
 20
-10.9422424483
 10
4.585375092399999
 20
-10.9396067859
 10
4.481389412400005
 20
-10.9370099715
 10
4.383923303599999
 20
-10.93448463069999
 10
4.291763269999989
 20
-10.9320161875
 10
4.20398991479999
 20
-10.9295887747
  0
LINE
  5
22F
330
2
100
AcDbEntity
  8
0
100
AcDbLine
 10
5.615928372399983
 20
-10.9555238691
 30
0.0
 11
5.749690484399982
 21
-10.9583516499
 31
0.0
  0
LINE
  5
230
330
2
100
AcDbEntity
  8
0
100
AcDbLine
 10
5.479636626800006
 20
-10.9525331875
 30
0.0
 11
5.616113807600006
 21
-10.9555278627
 31
0.0
  0
LWPOLYLINE
  5
231
330
2
100
AcDbEntity
  8
0
100
AcDbPolyline
 90
       17
 70
     0
 43
0.0
 10
5.413147951599995
 20
-10.9610201283
 10
5.545067634800005
 20
-10.9639674339
 10
5.687207073199999
 20
-10.96702887229999
 10
5.840387476399996
 20
-10.9701914611
 10
6.002568916400008
 20
-10.9733804035
 10
6.174952303600008
 20
-10.9765854147
 10
6.358043452400011
 20
-10.9797783683
 10
6.551231018799995
 20
-10.9829093187
 10
6.7479665404
 20
-10.98584529149999
 10
6.925261194800015
 20
-10.9882729299
 10
7.081316244399999
 20
-10.9902389219
 10
7.218276658799993
 20
-10.9918328611
 10
7.337492898800007
 20
-10.9931205395
 10
7.443125988399998
 20
-10.9941841635
 10
7.536031847600014
 20
-10.9950596867
 10
7.618288991599996
 20
-10.9957880611
 10
7.757507074800003
 20
-10.9969205939
  0
LINE
  5
232
330
2
100
AcDbEntity
  8
0
100
AcDbLine
 10
5.341116801199992
 20
-10.9493836371
 30
0.0
 11
5.479831750000007
 21
-10.9525375459
 31
0.0
  0
LINE
  5
233
330
2
100
AcDbEntity
  8
0
100
AcDbLine
 10
5.200906001199987
 20
-10.9460859123
 30
0.0
 11
5.341321119599987
 21
-10.9493883635
 31
0.0
  0
LINE
  5
234
330
2
100
AcDbEntity
  8
0
100
AcDbLine
 10
8.169296588400007
 20
-10.9862049187
 30
0.0
 11
8.140735138800001
 21
-10.9855563347
 31
0.0
  0
LINE
  5
235
330
2
100
AcDbEntity
  8
0
100
AcDbLine
 10
5.05800142039998
 20
-10.9426143747
 30
0.0
 11
5.201118807600002
 21
-10.9460910003
 31
0.0
  0
LINE
  5
236
330
2
100
AcDbEntity
  8
0
100
AcDbLine
 10
4.908045418800005
 20
-10.9388547779
 30
0.0
 11
5.058229415600001
 21
-10.9426200003
 31
0.0
  0
LINE
  5
237
330
2
100
AcDbEntity
  8
0
100
AcDbLine
 10
4.757079628399983
 20
-10.9349496595
 30
0.0
 11
4.908287913200004
 21
-10.9388609523
 31
0.0
  0
LINE
  5
238
330
2
100
AcDbEntity
  8
0
100
AcDbLine
 10
4.604007458799989
 20
-10.9308667843
 30
0.0
 11
4.757329061999987
 21
-10.9349562115
 31
0.0
  0
LINE
  5
239
330
2
100
AcDbEntity
  8
0
100
AcDbLine
 10
8.153936671599998
 20
-10.9858717587
 30
0.0
 11
8.130757124399982
 21
-10.9852845667
 31
0.0
  0
LINE
  5
23A
330
2
100
AcDbEntity
  8
0
100
AcDbLine
 10
4.446216517999991
 20
-10.9265306099
 30
0.0
 11
4.604270126000008
 21
-10.9308738963
 31
0.0
  0
LWPOLYLINE
  5
23B
330
2
100
AcDbEntity
  8
0
100
AcDbPolyline
 90
       10
 70
     0
 43
0.0
 10
4.295009381999989
 20
-10.9322440851
 10
4.438759239600017
 20
-10.9363089571
 10
4.578304647599992
 20
-10.9401554019
 10
4.711818089199994
 20
-10.9437412707
 10
4.837085161200008
 20
-10.94702015069999
 10
4.953468998000005
 20
-10.9499917635
 10
5.065386318000008
 20
-10.9527819811
 10
5.175481591600004
 20
-10.9554617283
 10
5.290228078000012
 20
-10.95818456989999
 10
5.413147951599995
 20
-10.9610201283
  0
LINE
  5
23C
330
2
100
AcDbEntity
  8
0
100
AcDbLine
 10
4.282236693999996
 20
-10.9218913315
 30
0.0
 11
4.44649600759998
 21
-10.9265384019
 31
0.0
  0
LINE
  5
23D
330
2
100
AcDbEntity
  8
0
100
AcDbLine
 10
4.111163866800003
 20
-10.9169121907
 30
0.0
 11
4.282535538799995
 21
-10.9218999075
 31
0.0
  0
LINE
  5
23E
330
2
100
AcDbEntity
  8
0
100
AcDbLine
 10
4.29500938199998
 20
-10.9322440851
 30
0.0
 11
4.111119365999988
 21
-10.9269152723
 31
0.0
  0
LWPOLYLINE
  5
23F
330
2
100
AcDbEntity
  8
0
100
AcDbPolyline
 90
        6
 70
     0
 43
0.0
 10
3.956214140399993
 20
-11.0987937411
 10
4.233482217199991
 20
-11.1076644979
 10
4.5426520476
 20
-11.1167758803
 10
4.867020772399996
 20
-11.1254786003
 10
5.188386388400004
 20
-11.1330542819
 10
5.486137322800004
 20
-11.1389219763
  0
LINE
  5
240
330
2
100
AcDbEntity
  8
0
100
AcDbLine
 10
8.131136638000006
 20
-10.9852957667
 30
0.0
 11
8.123724150000006
 21
-10.9850552371
 31
0.0
  0
LWPOLYLINE
  5
241
330
2
100
AcDbEntity
  8
0
100
AcDbPolyline
 90
        3
 70
     0
 43
0.0
 10
3.864345497199991
 20
-10.9189637603
 10
4.027894479600007
 20
-10.9243961107
 10
4.111119365999996
 20
-10.9269152723
  0
LINE
  5
242
330
2
100
AcDbEntity
  8
0
100
AcDbLine
 10
3.727247455599998
 20
-11.0906873139
 30
0.0
 11
3.956214140399984
 21
-11.0987937411
 31
0.0
  0
LINE
  5
243
330
2
100
AcDbEntity
  8
0
100
AcDbLine
 10
3.715763892399982
 20
-10.9133270179
 30
0.0
 11
3.864345497199982
 21
-10.9189637603
 31
0.0
  0
LWPOLYLINE
  5
244
330
2
100
AcDbEntity
  8
0
100
AcDbPolyline
 90
        4
 70
     0
 43
0.0
 10
3.716311926000003
 20
-10.9033409395
 10
3.840487596400009
 20
-10.9080979315
 10
3.97222521239999
 20
-10.91262270429999
 10
4.111306932399998
 20
-10.9169165779
  0
LINE
  5
245
330
2
100
AcDbEntity
  8
0
100
AcDbLine
 10
3.73217665239999
 20
-10.9138740275
 30
0.0
 11
3.730340508399981
 21
-10.9138013379
 31
0.0
  0
LWPOLYLINE
  5
246
330
2
100
AcDbEntity
  8
0
100
AcDbPolyline
 90
        3
 70
     0
 43
0.0
 10
8.123999521200005
 20
-10.98506528669999
 10
8.120119297200005
 20
-10.9849065795
 10
8.120927799599996
 20
-10.9849628339
  0
LINE
  5
247
330
2
100
AcDbEntity
  8
0
100
AcDbLine
 10
3.558996868400006
 20
-11.0837050995
 30
0.0
 11
3.727247455599998
 21
-11.0906873139
 31
0.0
  0
LINE
  5
248
330
2
100
AcDbEntity
  8
0
100
AcDbLine
 10
3.663127254000007
 20
-11.0569148883
 30
0.0
 11
3.511962540399983
 21
-11.0500710115
 31
0.0
  0
LINE
  5
249
330
2
100
AcDbEntity
  8
0
100
AcDbLine
 10
14.27374218679999
 20
-11.0792163651
 30
0.0
 11
14.26521593399998
 21
-11.0787395795
 31
0.0
  0
LWPOLYLINE
  5
24A
330
2
100
AcDbEntity
  8
0
100
AcDbPolyline
 90
        3
 70
     0
 43
0.0
 10
3.511962540399991
 20
-11.0500710115
 10
3.442387225200008
 20
-11.0448289555
 10
3.440453388400015
 20
-11.0440225651
  0
LWPOLYLINE
  5
24B
330
2
100
AcDbEntity
  8
0
100
AcDbPolyline
 90
        6
 70
     0
 43
0.0
 10
8.120739495599991
 20
-10.9849496435
 10
8.128666300399999
 20
-10.98569466269999
 10
8.150296306800015
 20
-10.9892235379
 10
8.188543465200012
 20
-11.0005771987
 10
8.233215020399995
 20
-11.0232524611
 10
8.274993748399992
 20
-11.0568883843
  0
LWPOLYLINE
  5
24C
330
2
100
AcDbEntity
  8
0
100
AcDbPolyline
 90
        3
 70
     0
 43
0.0
 10
3.439273225199997
 20
-11.0752494547
 10
3.460937228400013
 20
-11.0781599123
 10
3.558996868400015
 20
-11.0837050995
  0
LWPOLYLINE
  5
24D
330
2
100
AcDbEntity
  8
0
100
AcDbPolyline
 90
        5
 70
     0
 43
0.0
 10
8.127868785200007
 20
-10.9856047779
 10
8.148276618799997
 20
-10.9888070867
 10
8.186085098799992
 20
-10.9996412547
 10
8.231992500399996
 20
-11.0224734131
 10
8.27499372439999
 20
-11.0568883603
  0
LWPOLYLINE
  5
24E
330
2
100
AcDbEntity
  8
0
100
AcDbPolyline
 90
        4
 70
     0
 43
0.0
 10
3.571572407600001
 20
-11.0842269715
 10
3.594614293999995
 20
-11.0887155747
 10
3.646056036400011
 20
-11.1054062099
 10
3.702934053999996
 20
-11.1344819619
  0
LWPOLYLINE
  5
24F
330
2
100
AcDbEntity
  8
0
100
AcDbPolyline
 90
        7
 70
     0
 43
0.0
 10
2.010498362800007
 20
-9.3311793011
 10
2.072335119600012
 20
-9.344931886700003
 10
2.128958537199991
 20
-9.357839923500002
 10
2.17848493560001
 20
-9.369551137900003
 10
2.218307236399994
 20
-9.3794507331
 10
2.244154988399998
 20
-9.386306376299998
 10
2.257238498800006
 20
-9.390076081899998
  0
LWPOLYLINE
  5
250
330
2
100
AcDbEntity
  8
0
100
AcDbPolyline
 90
       10
 70
     0
 43
0.0
 10
8.149934268400016
 20
-10.9994097347
 10
8.156419724399995
 20
-11.0008861283
 10
8.167138335600014
 20
-11.0038150003
 10
8.179492887599991
 20
-11.0078743283
 10
8.192881058799997
 20
-11.0131419699
 10
8.20678662520001
 20
-11.01963800669999
 10
8.221007969200002
 20
-11.0274622883
 10
8.235368431599994
 20
-11.0367178643
 10
8.249682325999998
 20
-11.0474988371
 10
8.263778935600015
 20
-11.0599145715
  0
LINE
  5
251
330
2
100
AcDbEntity
  8
0
100
AcDbLine
 10
6.113346429999998
 20
-11.1152378803
 30
0.0
 11
5.969010564399999
 21
-11.0810385747
 31
0.0
  0
LINE
  5
252
330
2
100
AcDbEntity
  8
0
100
AcDbLine
 10
2.25723840599999
 20
-9.390076053100004
 30
0.0
 11
2.258681146799991
 21
-9.390503950700002
 31
0.0
  0
LWPOLYLINE
  5
253
330
2
100
AcDbEntity
  8
0
100
AcDbPolyline
 90
       34
 70
     0
 43
0.0
 10
2.258070380399999
 20
-9.3902920899
 10
2.273062257199995
 20
-9.395243046700002
 10
2.287865713200005
 20
-9.400009885100004
 10
2.302481124400003
 20
-9.404598305900002
 10
2.316908892399993
 20
-9.409013840299998
 10
2.331149561199993
 20
-9.413261893099999
 10
2.345203817200001
 20
-9.417347741100002
 10
2.359072474800001
 20
-9.421276534699998
 10
2.372756482800014
 20
-9.4250533027
 10
2.386256918000015
 20
-9.4286829459
 10
2.399575066799997
 20
-9.432170273899998
 10
2.412711817200005
 20
-9.435519838700002
 10
2.425664601199997
 20
-9.438735213100002
 10
2.438428340400008
 20
-9.441819329899999
 10
2.450997858800008
 20
-9.444775131500001
 10
2.463368166000009
 20
-9.447605619500002
 10
2.475534377200006
 20
-9.450313849899998
 10
2.48749148280001
 20
-9.452902856299999
 10
2.499238831599996
 20
-9.455376595499998
 10
2.510782330799997
 20
-9.457740261099999
 10
2.522130194800013
 20
-9.459999265900002
 10
2.533290876400002
 20
-9.462158795500002
 10
2.544273337199996
 20
-9.464223864300002
 10
2.555087030000009
 20
-9.466199312299998
 10
2.565741900400013
 20
-9.468089805099999
 10
2.576248028400016
 20
-9.469899774700003
 10
2.586613886000009
 20
-9.471633134699999
 10
2.596905878000001
 20
-9.473302854700001
 10
2.607131730800006
 20
-9.474911505900003
 10
2.617206572399993
 20
-9.476447635500001
 10
2.627042321200008
 20
-9.477900968299998
 10
2.636572617200016
 20
-9.4792659059
 10
2.645760391599992
 20
-9.480541985900003
 10
2.669917748399996
 20
-9.483710667499998
  0
LWPOLYLINE
  5
254
330
2
100
AcDbEntity
  8
0
100
AcDbPolyline
 90
       11
 70
     0
 43
0.0
 10
0.9841436620000081
 20
-9.021221073900001
 10
1.177098738799998
 20
-9.107202661100004
 10
1.326039988399998
 20
-9.160948417900002
 10
1.446409090800017
 20
-9.197877917100001
 10
1.550014401200002
 20
-9.226013870700001
 10
1.642954801200005
 20
-9.2490787475
 10
1.727075314800003
 20
-9.268685854700002
 10
1.804058298800015
 20
-9.2859359443
 10
1.875756468399998
 20
-9.301692984300004
 10
1.944752612400009
 20
-9.316762976300005
 10
2.010494073199993
 20
-9.3311783555
  0
LWPOLYLINE
  5
255
330
2
100
AcDbEntity
  8
0
100
AcDbPolyline
 90
        4
 70
     0
 43
0.0
 10
3.759024748400008
 20
-11.1773545379
 10
3.808697434799995
 20
-11.2335979283
 10
3.847399142
 20
-11.3013778771
 10
3.864721202800012
 20
-11.3493695587
  0
LWPOLYLINE
  5
256
330
2
100
AcDbEntity
  8
0
100
AcDbPolyline
 90
        2
 70
     0
 43
0.0
 10
2.003207913623953
 20
-10.41394104849253
 10
2.003208903600011
 20
-10.4139421011
  0
LINE
  5
257
330
2
100
AcDbEntity
  8
0
100
AcDbLine
 10
-0.0758176596000144
 20
-7.869731829100006
 30
0.0
 11
0.1634390139999962
 21
-8.3166169955
 31
0.0
  0
LWPOLYLINE
  5
258
330
2
100
AcDbEntity
  8
0
100
AcDbPolyline
 90
        3
 70
     0
 43
0.0
 10
-0.0758602404000044
 20
-7.869623025900004
 10
0.1633813244000066
 20
-8.316534429100002
 10
0.4581874268000093
 20
-8.656496976300005
  0
LWPOLYLINE
  5
259
330
2
100
AcDbEntity
  8
0
100
AcDbPolyline
 90
       17
 70
     0
 43
0.0
 10
1.788746750795098
 20
-10.21181036975139
 10
1.796015969199999
 20
-10.2207763235
 10
1.846461559600015
 20
-10.27778001469999
 10
1.903220711599999
 20
-10.3362708771
 10
1.964690399600016
 20
-10.3937529459
 10
2.029720558000008
 20
-10.4487786051
 10
2.096774799600012
 20
-10.5000397203
 10
2.164287708399996
 20
-10.5466650035
 10
2.232370569200014
 20
-10.58913338909999
 10
2.299569289200007
 20
-10.6269814979
 10
2.361417442799989
 20
-10.6585531123
 10
2.413059214000014
 20
-10.6827452131
 10
2.456288876400009
 20
-10.7016237923
 10
2.491386518000012
 20
-10.7161197283
 10
2.519807018800008
 20
-10.72737524669999
 10
2.5426705996
 20
-10.73616003229999
 10
2.559859497199994
 20
-10.7426404387
  0
LINE
  5
25A
330
2
100
AcDbEntity
  8
0
100
AcDbLine
 10
-0.2066985204000193
 20
-7.353542016300005
 30
0.0
 11
-0.0758176596000144
 21
-7.869731829100006
 31
0.0
  0
LWPOLYLINE
  5
25B
330
2
100
AcDbEntity
  8
0
100
AcDbPolyline
 90
        5
 70
     0
 43
0.0
 10
-3.130993766800003
 20
0.6764547900999958
 10
-2.985721514000005
 20
0.0952159564999988
 10
-2.652230211599999
 20
-0.4254377747000007
 10
-2.18406773800001
 20
-0.8524169874999998
 10
-1.575353554000002
 20
-1.220112664300003
  0
LINE
  5
260
330
2
100
AcDbEntity
  8
0
100
AcDbLine
 10
-1.263142589199995
 20
-1.274385609900002
 30
0.0
 11
-1.262618075599997
 21
-1.280344741100003
 31
0.0
  0
LWPOLYLINE
  5
261
330
2
100
AcDbEntity
  8
0
100
AcDbPolyline
 90
       32
 70
     0
 43
0.0
 10
-0.7236454051999886
 20
-2.161073051500004
 10
-0.7263672548000102
 20
-2.179302150700003
 10
-0.7279573412000105
 20
-2.204567184300003
 10
-0.7283990500000073
 20
-2.236530424299999
 10
-0.7277080435999892
 20
-2.274944688300003
 10
-0.7259120932000088
 20
-2.319433307499998
 10
-0.7230428899999879
 20
-2.3697317843
 10
-0.719155803599989
 20
-2.425270029099998
 10
-0.714298827600004
 20
-2.485703592299998
 10
-0.7085495363999997
 20
-2.550360441900004
 10
-0.7019650611999851
 20
-2.618848062700003
 10
-0.6946375251999939
 20
-2.690414355500003
 10
-0.6866311091999933
 20
-2.764597206700003
 10
-0.678045338000004
 20
-2.840594685100001
 10
-0.6689481219999891
 20
-2.917883147499999
 10
-0.6594267843999831
 20
-2.995748347500004
 10
-0.6495530708000104
 20
-3.073587286700004
 10
-0.6394357268000022
 20
-3.150495851500004
 10
-0.6291816547999929
 20
-3.225604813099998
 10
-0.6189078676000009
 20
-3.298003433899999
 10
-0.6087560484000108
 20
-3.366671261100002
 10
-0.598772368400006
 20
-3.431292710699999
 10
-0.5890120756000102
 20
-3.491504312300001
 10
-0.5795417795999925
 20
-3.546908968300002
 10
-0.5704169651999962
 20
-3.597228245099998
 10
-0.5616092452000033
 20
-3.642657907500002
 10
-0.5531274868000083
 20
-3.683160673900005
 10
-0.5449956500000042
 20
-3.718625206700004
 10
-0.5372024387999943
 20
-3.749080568300001
 10
-0.5297666579999998
 20
-3.774395158700002
 10
-0.5226957827999854
 20
-3.7944417235
 10
-0.5160380499999917
 20
-3.808940269099998
  0
LINE
  5
262
330
2
100
AcDbEntity
  8
0
100
AcDbLine
 10
-1.345404781199997
 20
3.020633799699999
 30
0.0
 11
-1.346008146000011
 21
3.017469436499999
 31
0.0
  0
LWPOLYLINE
  5
263
330
2
100
AcDbEntity
  8
0
100
AcDbPolyline
 90
       25
 70
     0
 43
0.0
 10
-1.641430877200008
 20
0.3727632812999957
 10
-1.649234437199993
 20
0.3465514525000017
 10
-1.670663574799988
 20
0.267064423699999
 10
-1.688951726799984
 20
0.1863029549000004
 10
-1.704210633999991
 20
0.102095108499995
 10
-1.716214413199992
 20
0.0111176013000005
 10
-1.723835134799998
 20
-0.0884268675000044
 10
-1.725402421199987
 20
-0.1923217555000036
 10
-1.720345192400003
 20
-0.294819096300003
 10
-1.709013430799984
 20
-0.3939399731000037
 10
-1.691594853200001
 20
-0.490637320300003
 10
-1.668513246799989
 20
-0.5839217827000028
 10
-1.641126360399994
 20
-0.6709574035000046
 10
-1.611175457999991
 20
-0.7499769411000017
 10
-1.579901662799983
 20
-0.8212584947000038
 10
-1.548243085199999
 20
-0.8853064306999982
 10
-1.517000341200002
 20
-0.9425062147000033
 10
-1.486847265999983
 20
-0.9932467459000022
 10
-1.458058542799989
 20
-1.038297512300005
 10
-1.430122606799983
 20
-1.079322089900003
 10
-1.402090661199991
 20
-1.1182127123
 10
-1.372769358799985
 20
-1.156807989100002
 10
-1.341680485199987
 20
-1.195717577899998
 10
-1.308866293199997
 20
-1.2348145427
 10
-1.274391669199985
 20
-1.273946237099998
  0
LINE
  5
264
330
2
100
AcDbEntity
  8
0
100
AcDbLine
 10
-0.9740516212000134
 20
1.766878450899993
 30
0.0
 11
-0.9937499284000157
 21
1.719052919699996
 31
0.0
  0
LWPOLYLINE
  5
265
330
2
100
AcDbEntity
  8
0
100
AcDbPolyline
 90
        9
 70
     0
 43
0.0
 10
-0.9937499284000068
 20
1.719052919699997
 10
-0.9966086164000103
 20
1.712369777299997
 10
-1.022971301199987
 20
1.653089527699997
 10
-1.052725968399983
 20
1.589946127699995
 10
-1.085691966799998
 20
1.5230963853
 10
-1.121679806799988
 20
1.452709118099996
 10
-1.157776342799991
 20
1.384071292499996
 10
-1.190119851600002
 20
1.323733246099997
 10
-1.21888960359999
 20
1.270617638099999
  0
LINE
  5
266
330
2
100
AcDbEntity
  8
0
100
AcDbLine
 10
8.345909599599982
 20
-11.1887382627
 30
0.0
 11
8.384932358000005
 21
-11.1809691427
 31
0.0
  0
LWPOLYLINE
  5
267
330
2
100
AcDbEntity
  8
0
100
AcDbPolyline
 90
       32
 70
     0
 43
0.0
 10
17.5176679372
 20
-9.4792659059
 10
17.52719823160001
 20
-9.477900968299998
 10
17.53703398199999
 20
-9.476447635500001
 10
17.54710882360001
 20
-9.474911505900003
 10
17.55733467479998
 20
-9.473302854700001
 10
17.56762666680001
 20
-9.471633134699999
 10
17.5779925244
 20
-9.469899774700003
 10
17.588498654
 20
-9.468089805099999
 10
17.59915352440001
 20
-9.466199312299998
 10
17.60996721719999
 20
-9.464223864300002
 10
17.62094967800001
 20
-9.462158795500002
 10
17.6321103596
 20
-9.459999265900002
 10
17.64345822359999
 20
-9.457740261099999
 10
17.65500172279999
 20
-9.455376595499998
 10
17.6667490716
 20
-9.452902856299999
 10
17.67870617720001
 20
-9.450313849899998
 10
17.6908723884
 20
-9.447605619500002
 10
17.70324269400001
 20
-9.444775131500001
 10
17.71581221400001
 20
-9.441819329899999
 10
17.72857595319999
 20
-9.438735213100002
 10
17.74152873720001
 20
-9.435519838700002
 10
17.75466548759999
 20
-9.432170273899998
 10
17.7679836364
 20
-9.4286829459
 10
17.7814840716
 20
-9.4250533027
 10
17.79516807960001
 20
-9.421276534699998
 10
17.80903673720001
 20
-9.417347741100002
 10
17.82309099159999
 20
-9.413261893099999
 10
17.83733166199999
 20
-9.409013840299998
 10
17.85175943000001
 20
-9.404598305900002
 10
17.86637484120001
 20
-9.400009885100004
 10
17.88117829719999
 20
-9.395243046700002
 10
17.89617017239999
 20
-9.3902920899
  0
LINE
  5
268
330
2
100
AcDbEntity
  8
0
100
AcDbLine
 10
17.49962187479999
 20
-9.481735990700004
 30
0.0
 11
17.51766793719999
 21
-9.479265905900001
 31
0.0
  0
LWPOLYLINE
  5
269
330
2
100
AcDbEntity
  8
0
100
AcDbPolyline
 90
        3
 70
     0
 43
0.0
 10
17.49962187479999
 20
-9.481735990700002
 10
17.48056377879999
 20
-9.484191545900003
 10
17.48333832439999
 20
-9.483842545900003
  0
LINE
  5
26A
330
2
100
AcDbEntity
  8
0
100
AcDbLine
 10
2.663254793199987
 20
-9.482866792300002
 30
0.0
 11
2.673676775599991
 21
-9.484191545900005
 31
0.0
  0
LWPOLYLINE
  5
26B
330
2
100
AcDbEntity
  8
0
100
AcDbPolyline
 90
      161
 70
     0
 43
0.0
 10
2.662613604400007
 20
-9.482748931500005
 10
2.654035084399993
 20
-9.481577883500001
 10
2.644777871600012
 20
-9.480266478700002
 10
2.635072014000002
 20
-9.478840027499998
 10
2.624993383600013
 20
-9.477304269100002
 10
2.614590085999992
 20
-9.475661793900002
 10
2.603897743600015
 20
-9.473913925099999
 10
2.592948290799995
 20
-9.472061963500003
 10
2.581774302000013
 20
-9.470107893099999
 10
2.570422233199991
 20
-9.468056821099999
 10
2.558920095600001
 20
-9.465911101100004
 10
2.54727446199999
 20
-9.463669395499998
 10
2.535490850800016
 20
-9.461330261100002
 10
2.523575097199994
 20
-9.458892397100001
 10
2.511533020400008
 20
-9.456354595500002
 10
2.499370429999999
 20
-9.453715739500005
 10
2.487093116399989
 20
-9.450974800300002
 10
2.474706852400004
 20
-9.448130845100003
 10
2.462217394800006
 20
-9.445183037100001
 10
2.449630476400017
 20
-9.442130629099999
 10
2.436951831599998
 20
-9.4389729795
 10
2.424187186799997
 20
-9.435709547500003
 10
2.411340498800001
 20
-9.432339429100004
 10
2.398413625199992
 20
-9.428861205099998
 10
2.385407900399997
 20
-9.4252733139
 10
2.372324718000015
 20
-9.4215741987
 10
2.359165463599993
 20
-9.417762289900004
 10
2.345931513200014
 20
-9.413836001900001
 10
2.332624236399993
 20
-9.409793729900002
 10
2.319244991600015
 20
-9.405633854699999
 10
2.305795130799992
 20
-9.401354734699999
 10
2.292275999600008
 20
-9.3969547091
 10
2.278688930800001
 20
-9.392432094699998
 10
2.265035252399997
 20
-9.387785181099999
 10
2.25131628279999
 20
-9.383012232300004
 10
2.237533369200008
 20
-9.378111499500001
 10
2.223687567599995
 20
-9.373081097899998
 10
2.209778924400012
 20
-9.3679188531
 10
2.195807828400006
 20
-9.362622845099998
 10
2.181775284400004
 20
-9.3571913651
 10
2.167682266799999
 20
-9.351622664300002
 10
2.153529748399989
 20
-9.3459149603
 10
2.139318709999997
 20
-9.340066440299999
 10
2.125050252400001
 20
-9.3340753027
 10
2.110724886000014
 20
-9.327939457900001
 10
2.096341871600003
 20
-9.321656203500005
 10
2.081900054000016
 20
-9.315222545899999
 10
2.067398444399998
 20
-9.308635441900001
 10
2.052836204399994
 20
-9.301891790700004
 10
2.038212657200006
 20
-9.294988445100003
 10
2.023527303599991
 20
-9.287922216300003
 10
2.008779842800009
 20
-9.280689886700002
 10
1.993970172399997
 20
-9.273288213100002
 10
1.97909839799999
 20
-9.265713939500002
 10
1.964164838000016
 20
-9.257963789100003
 10
1.949170007600002
 20
-9.250034478700001
 10
1.93411462680001
 20
-9.241922710700002
 10
1.918999599599999
 20
-9.233625174700001
 10
1.903826004400002
 20
-9.225138544300001
 10
1.888595090800009
 20
-9.216459469100001
 10
1.873308258799994
 20
-9.2075845811
 10
1.8579670636
 20
-9.198510483500001
 10
1.842573172399994
 20
-9.189233739500004
 10
1.827128028400011
 20
-9.179750653100001
 10
1.811633026799995
 20
-9.1700573683
 10
1.796089753199993
 20
-9.160150001899999
 10
1.780499919600003
 20
-9.150024617900001
 10
1.764865366000009
 20
-9.1396772099
 10
1.749188060400001
 20
-9.129103713900001
 10
1.733470102000012
 20
-9.118300000300003
 10
1.717713730799999
 20
-9.1072618755
 10
1.701921324399989
 20
-9.095985089900004
 10
1.686095412399993
 20
-9.084465331499998
 10
1.670238684400004
 20
-9.072698232299998
 10
1.654353988400004
 20
-9.0606793699
 10
1.638444346800014
 20
-9.048404275500004
 10
1.622512966000016
 20
-9.035868430699999
 10
1.606563244400007
 20
-9.023067281900004
 10
1.590598847600006
 20
-9.009996293100002
 10
1.574622340399997
 20
-8.996649877100004
 10
1.558636279599994
 20
-8.983022633899999
 10
1.542644639600013
 20
-8.969110329900004
 10
1.526652031600008
 20
-8.954909112300001
 10
1.510663311600012
 20
-8.940415206700002
 10
1.494683653999999
 20
-8.925624966699999
 10
1.478718559599997
 20
-8.910534917100001
 10
1.462773890800008
 20
-8.8951417763
 10
1.446855886000008
 20
-8.879442501100001
 10
1.430971190000008
 20
-8.863434325100001
 10
1.415126885999995
 20
-8.847114816299999
 10
1.399330524399999
 20
-8.830481933100003
 10
1.383590172400005
 20
-8.813534101100003
 10
1.367914599599998
 20
-8.7962704595
 10
1.352311922799998
 20
-8.778689379500001
 10
1.33678781239999
 20
-8.7607862531
 10
1.321353031600011
 20
-8.742562110699999
 10
1.306023261999996
 20
-8.724024078700004
 10
1.290815020400003
 20
-8.705180963499998
 10
1.275745849200006
 20
-8.686043662700001
 10
1.260834388400013
 20
-8.666625451500003
 10
1.24610039960001
 20
-8.6469422483
 10
1.231564781999992
 20
-8.627012909100002
 10
1.217249988399998
 20
-8.606860125099998
 10
1.203175156399993
 20
-8.586503696299999
 10
1.189357614000016
 20
-8.5659623795
 10
1.175818526
 20
-8.545262342699999
 10
1.162593220399998
 20
-8.5244545635
 10
1.149730002799998
 20
-8.503616430699999
 10
1.137274562800001
 20
-8.482829104300002
 10
1.125268431600005
 20
-8.462175046700004
 10
1.113738589999996
 20
-8.441720134699998
 10
1.102707354800003
 20
-8.421532171500004
 10
1.092202958000001
 20
-8.401697592300003
 10
1.082252890799992
 20
-8.382309656300002
 10
1.072882324400012
 20
-8.363465680300002
 10
1.064114030000013
 20
-8.345266781100001
 10
1.055968030000002
 20
-8.327816968299998
 10
1.048460679599998
 20
-8.311220701100005
 10
1.041609324400013
 20
-8.295592862700004
 10
1.035432319600005
 20
-8.281059542699999
 10
1.029924025200017
 20
-8.267697072300002
 10
1.025065156399989
 20
-8.255549507499999
 10
1.020839873200003
 20
-8.244667944300005
 10
1.017234311599992
 20
-8.235107521900005
 10
1.01423617719999
 20
-8.226926742700001
 10
1.011830844400009
 20
-8.220176619500001
 10
1.009989375600014
 20
-8.214864851500003
 10
1.008688265199992
 20
-8.211009809899998
 10
1.007914554800009
 20
-8.208657217900004
 10
1.007654766000001
 20
-8.207848787500005
 10
1.007894617200008
 20
-8.2086206787
 10
1.008618966
 20
-8.211002595499998
 10
1.009811772400013
 20
-8.215016953900004
 10
1.011456154800015
 20
-8.220678333100003
 10
1.013534425199992
 20
-8.227992953899999
 10
1.016033106799994
 20
-8.236976329900002
 10
1.018940706800009
 20
-8.247646320299999
 10
1.022243388399999
 20
-8.2600072643
 10
1.025927105199997
 20
-8.274057109099999
 10
1.029978226800011
 20
-8.289789622699998
 10
1.034382191600002
 20
-8.307189067500004
 10
1.039124378800011
 20
-8.326233320299998
 10
1.044191261999998
 20
-8.3468985971
 10
1.049570909999999
 20
-8.369161885099998
 10
1.055248847600012
 20
-8.392984027499998
 10
1.061201229999994
 20
-8.418283355500001
 10
1.067411516399999
 20
-8.445007857900002
 10
1.073872182000002
 20
-8.473140984300002
 10
1.080575423600009
 20
-8.502662480300003
 10
1.087513441200002
 20
-8.533549643500002
 10
1.094678330800007
 20
-8.5657768883
 10
1.102061962800007
 20
-8.599315216299999
 10
1.109655874800012
 20
-8.634131741099999
 10
1.117451186799996
 20
-8.670189254699998
 10
1.12543852440001
 20
-8.707445857900005
 10
1.1336083196
 20
-8.745856353900002
 10
1.141947278000003
 20
-8.785355486699998
 10
1.150433198000001
 20
-8.825832582700002
 10
1.159059102000014
 20
-8.867245390699999
 10
1.167830137200013
 20
-8.909603440300003
 10
1.176749170800007
 20
-8.952902721900002
  0
LINE
  5
26C
330
2
100
AcDbEntity
  8
0
100
AcDbLine
 10
11.80833095319999
 20
-11.1887382627
 30
0.0
 11
11.76930819639999
 21
-11.1809691427
 31
0.0
  0
LINE
  5
26D
330
2
100
AcDbEntity
  8
0
100
AcDbLine
 10
11.7731112124
 20
-11.1771661267
 30
0.0
 11
11.80390858839998
 21
-11.1870004579
 31
0.0
  0
LINE
  5
26E
330
2
100
AcDbEntity
  8
0
100
AcDbLine
 10
8.226963940399988
 20
-11.0193722531
 30
0.0
 11
8.251932479600005
 21
-11.0365079107
 31
0.0
  0
LINE
  5
26F
330
2
100
AcDbEntity
  8
0
100
AcDbLine
 10
8.251932466800004
 20
-11.0365079011
 30
0.0
 11
8.275049953200001
 21
-11.0569445955
 31
0.0
  0
LWPOLYLINE
  5
270
330
2
100
AcDbEntity
  8
0
100
AcDbPolyline
 90
        3
 70
     0
 43
0.0
 10
-0.5160380499999917
 20
-3.808940269099998
 10
-0.5098269540000047
 20
-3.817626614700003
 10
-0.5094664067999873
 20
-3.817786099500004
  0
LWPOLYLINE
  5
271
330
2
100
AcDbEntity
  8
0
100
AcDbPolyline
 90
       32
 70
     0
 43
0.0
 10
-0.712728384400009
 20
-2.1587600979
 10
-0.7055226356000049
 20
-2.173756501100001
 10
-0.6976701923999827
 20
-2.194435169900003
 10
-0.6892587939999828
 20
-2.220444321900004
 10
-0.6803109395999912
 20
-2.2516564947
 10
-0.6708904420000011
 20
-2.287851477099998
 10
-0.661048638799997
 20
-2.328866456299998
 10
-0.6508226660000105
 20
-2.3746217427
 10
-0.6402613955999925
 20
-2.4250126899
 10
-0.6293943107999951
 20
-2.4800552883
 10
-0.6182998676000011
 20
-2.539542339500002
 10
-0.6070150211999988
 20
-2.603503029100004
 10
-0.5956464596000047
 20
-2.6715932675
 10
-0.5842894884000032
 20
-2.743518209900003
 10
-0.573135483599998
 20
-2.818316009900001
 10
-0.5623446227999978
 20
-2.895095350700003
 10
-0.5520775587999936
 20
-2.972827725100003
 10
-0.5424639908000018
 20
-3.0505708867
 10
-0.5335793827999851
 20
-3.127714086700002
 10
-0.5254976964000094
 20
-3.203598387500001
 10
-0.5182740836000051
 20
-3.277676686700004
 10
-0.511982450000005
 20
-3.3491204675
 10
-0.5066558067999836
 20
-3.417436705900001
 10
-0.5023197268000104
 20
-3.482189446700004
 10
-0.4990149939999924
 20
-3.542601086700003
 10
-0.4967559412000071
 20
-3.598067065900004
 10
-0.4955356387999928
 20
-3.648319689899999
 10
-0.4953504227999872
 20
-3.6927671587
 10
-0.4961819396000067
 20
-3.7311399059
 10
-0.4980044371999952
 20
-3.763048350700003
 10
-0.500786014799985
 20
-3.788235302700002
 10
-0.50445632200001
 20
-3.806357125099999
  0
LWPOLYLINE
  5
272
330
2
100
AcDbEntity
  8
0
100
AcDbPolyline
 90
       33
 70
     0
 43
0.0
 10
0.998215025200011
 20
-8.211163405100002
 10
0.9981224235999945
 20
-8.210873669100003
 10
0.9984521004000157
 20
-8.211939734700003
 10
0.9992253947999927
 20
-8.2144951155
 10
1.000434111600014
 20
-8.2185792227
 10
1.002068415600007
 20
-8.224223360300001
 10
1.004118671599997
 20
-8.231456309100003
 10
1.006575266800012
 20
-8.2403034899
 10
1.009428814000017
 20
-8.250787433900001
 10
1.012670279600001
 20
-8.2629280851
 10
1.016291132399999
 20
-8.2767432403
 10
1.020283293999995
 20
-8.292248291500001
 10
1.024639023600002
 20
-8.3094557171
 10
1.029352212399999
 20
-8.328380181100001
 10
1.034421556399991
 20
-8.349051907500005
 10
1.039847870000016
 20
-8.371506678700001
 10
1.045631476399989
 20
-8.3957751891
 10
1.051756423600011
 20
-8.421818889900002
 10
1.058221988399992
 20
-8.449664521900004
 10
1.065032618799989
 20
-8.479360070700003
 10
1.072190066800004
 20
-8.510940718699998
 10
1.079695148399991
 20
-8.5444355459
 10
1.087548202800007
 20
-8.5798693459
 10
1.095748919599998
 20
-8.617261843500003
 10
1.104295748400005
 20
-8.656625440300004
 10
1.113187602799996
 20
-8.697972645100001
 10
1.122424222000006
 20
-8.741317200300002
 10
1.132009321200001
 20
-8.786689048300004
 10
1.141947025200011
 20
-8.834117782700005
 10
1.152248311600004
 20
-8.883658819499999
 10
1.162921054000008
 20
-8.935335635500003
 10
1.1739684044
 20
-8.9891385843
 10
1.185394121200005
 20
-9.045050824299998
  0
LWPOLYLINE
  5
273
330
2
100
AcDbEntity
  8
0
100
AcDbPolyline
 90
        4
 70
     0
 43
0.0
 10
1.25448923319999
 20
-9.335643477099999
 10
1.332397666800005
 20
-9.594576510700001
 10
1.460105484400003
 20
-9.841441995499998
 10
1.610626921201316
 20
-10.03722188190123
  0
LINE
  5
274
330
2
100
AcDbEntity
  8
0
  6
HIDDEN
 48
0.5
100
AcDbLine
 10
-2.294280576399993
 20
5.994845967699999
 30
0.0
 11
-2.291881326800004
 21
5.986842106899997
 31
0.0
  0
LINE
  5
275
330
2
100
AcDbEntity
  8
0
  6
HIDDEN
 48
0.5
100
AcDbLine
 10
-2.840760160400018
 20
5.570311082899996
 30
0.0
 11
-2.838306315600002
 21
5.561996967699995
 31
0.0
  0
LWPOLYLINE
  5
276
330
2
100
AcDbEntity
  8
0
100
AcDbPolyline
 90
       10
 70
     0
 43
0.0
 10
1.243749617199995
 20
-9.3331226835
 10
1.265829300400014
 20
-9.427252782700001
 10
1.302102278000006
 20
-9.543119091500003
 10
1.347316058800004
 20
-9.6548956771
 10
1.401469326000011
 20
-9.7627976355
 10
1.464555868399997
 20
-9.866508840299999
 10
1.536336663599996
 20
-9.965269193899999
 10
1.616252716399998
 20
-10.0580458243
 10
1.703586177200008
 20
-10.1439038499
 10
1.796134700400017
 20
-10.22091048989999
  0
LWPOLYLINE
  5
277
330
2
100
AcDbEntity
  8
0
  6
HIDDEN
 48
0.5
100
AcDbPolyline
 90
       19
 70
     0
 43
0.0
 10
-2.291881326799995
 20
5.986842106899999
 10
-2.289312953999996
 20
5.975806874900001
 10
-2.286586026000009
 20
5.961756303699999
 10
-2.283760662800006
 20
5.944945918099996
 10
-2.280919440399998
 20
5.925867172499998
 10
-2.278114829200006
 20
5.904909924499996
 10
-2.275359776399994
 20
5.8821666957
 10
-2.272713696399989
 20
5.8580888221
 10
-2.270253563599993
 20
5.833385228499999
 10
-2.268029814800001
 20
5.808630505299994
 10
-2.266064931599998
 20
5.784149142099998
 10
-2.264394400399993
 20
5.760464654099997
 10
-2.263037709200006
 20
5.737974193299997
 10
-2.262005795600003
 20
5.717010463699999
 10
-2.261300521999999
 20
5.697772956499996
 10
-2.2609240532
 20
5.680473567699998
 10
-2.260877240399992
 20
5.665278273299996
 10
-2.261162038799994
 20
5.652369226899999
 10
-2.261780520400009
 20
5.641940804499995
  0
LWPOLYLINE
  5
278
330
2
100
AcDbEntity
  8
0
  6
HIDDEN
 48
0.5
100
AcDbPolyline
 90
       18
 70
     0
 43
0.0
 10
-2.838306315599993
 20
5.561996967699997
 10
-2.835684985999989
 20
5.550574081299998
 10
-2.832911322000001
 20
5.536094618900001
 10
-2.830047262800007
 20
5.5188422541
 10
-2.827176944400008
 20
5.499336348500001
 10
-2.824341104399991
 20
5.4778877293
 10
-2.821558128399999
 20
5.454615218899995
 10
-2.818892149199996
 20
5.430005286099998
 10
-2.816423749199998
 20
5.404805010899998
 10
-2.814190018000005
 20
5.379432974099998
 10
-2.812207398799984
 20
5.354059111699996
 10
-2.810523581199987
 20
5.329228593300001
 10
-2.809189803599991
 20
5.3057037421
 10
-2.808223096399984
 20
5.283872098899998
 10
-2.807630576399986
 20
5.263884177299999
 10
-2.807430835600001
 20
5.246172081299995
 10
-2.807629467600008
 20
5.2312737373
 10
-2.808215557199986
 20
5.219409369299995
  0
LINE
  5
279
330
2
100
AcDbEntity
  8
0
100
AcDbLine
 10
1.176749170799999
 20
-8.952902721900004
 30
0.0
 11
1.195043369199984
 21
-9.042302771500006
 31
0.0
  0
LINE
  5
27A
330
2
100
AcDbEntity
  8
0
100
AcDbLine
 10
1.195043369199984
 20
-9.042302771500006
 30
0.0
 11
1.213966617200005
 21
-9.1353788323
 31
0.0
  0
LINE
  5
27B
330
2
100
AcDbEntity
  8
0
100
AcDbLine
 10
1.185394121199996
 20
-9.0450508243
 30
0.0
 11
1.209422732400005
 21
-9.1632384355
 31
0.0
  0
LINE
  5
27C
330
2
100
AcDbEntity
  8
0
100
AcDbLine
 10
1.213966617200005
 20
-9.1353788323
 30
0.0
 11
1.233512981999998
 21
-9.231884289900003
 31
0.0
  0
LINE
  5
27D
330
2
100
AcDbEntity
  8
0
100
AcDbLine
 10
1.209422732400005
 20
-9.1632384355
 30
0.0
 11
1.235045575599988
 21
-9.289963664300005
 31
0.0
  0
LINE
  5
27E
330
2
100
AcDbEntity
  8
0
100
AcDbLine
 10
1.235045575599988
 20
-9.289963664300005
 30
0.0
 11
1.243775294000007
 21
-9.333287717100001
 31
0.0
  0
LINE
  5
27F
330
2
100
AcDbEntity
  8
0
100
AcDbLine
 10
1.233512981999998
 20
-9.231884289900003
 30
0.0
 11
1.253579271600008
 21
-9.331317649900002
 31
0.0
  0
LWPOLYLINE
  5
280
330
2
100
AcDbEntity
  8
0
100
AcDbPolyline
 90
       20
 70
     0
 43
0.0
 10
-0.6614440339999988
 20
2.523747703699996
 10
-0.5784427875999825
 20
2.085780945300001
 10
-0.482932242000004
 20
1.578475382099995
 10
-0.3914017907999891
 20
1.088590593299997
 10
-0.3036574292000012
 20
0.6151732653000011
 10
-0.2194993043999887
 20
0.1572496604999998
 10
-0.1387355283999909
 20
-0.2861063170999998
 10
-0.0611861236000095
 20
-0.7157477331000024
 10
0.0133519372000137
 20
-1.1325318899
 10
0.0850931452000055
 20
-1.537306670700004
 10
0.1541903627999943
 20
-1.9306200547
 10
0.2206166491999966
 20
-2.311985440299999
 10
0.2843396204000044
 20
-2.680587611500001
 10
0.3453632396000046
 20
-3.035746325099999
 10
0.4036857691999956
 20
-3.3768449971
 10
0.4592908060000127
 20
-3.703277997100002
 10
0.5120523948000085
 20
-4.013902645100003
 10
0.5617446987999984
 20
-4.307082969900001
 10
0.6081844875999991
 20
-4.581501886700003
 10
0.6514635212000144
 20
-4.837526729899998
  0
LWPOLYLINE
  5
281
330
2
100
AcDbEntity
  8
0
100
AcDbPolyline
 90
       35
 70
     0
 43
0.0
 10
-0.6516219924000098
 20
2.525626775699997
 10
-0.4741357203999997
 20
1.585847887699998
 10
-0.2989436803999865
 20
0.6446220989000011
 10
-0.1282523364000099
 20
-0.2879547154999997
 10
0.0360571500000049
 20
-1.202751733100001
 10
0.192301004400008
 20
-2.090788461100004
 10
0.3395512636000149
 20
-2.942816336300005
 10
0.4771847995999963
 20
-3.748826809900002
 10
0.6036338460000082
 20
-4.494567334700001
 10
0.7162576107999996
 20
-5.161080190700005
 10
0.8131145419999938
 20
-5.7352358483
 10
0.8925308363999988
 20
-6.206696331500005
 10
0.9510854028000039
 20
-6.555396013100001
 10
0.9905582764000087
 20
-6.792090445100001
 10
1.025260062
 20
-7.001787289900001
 10
1.054843161200011
 20
-7.181855307500001
 10
1.077729890800014
 20
-7.322184496300003
 10
1.088303210800006
 20
-7.387488941100002
 10
1.080417711600006
 20
-7.3380034515
 10
1.054902839600003
 20
-7.175594915499999
 10
1.014712946800017
 20
-6.9147019635
 10
0.9622928203999947
 20
-6.566310424299999
 10
0.9003907820000165
 20
-6.143865678700002
 10
0.8318122363999975
 20
-5.662988827500001
 10
0.7589136395999958
 20
-5.138628021100004
 10
0.6825222315999895
 20
-4.576924505900002
 10
0.6030511724000008
 20
-3.982622077100003
 10
0.5206839388000049
 20
-3.360328493099999
 10
0.4351999147999948
 20
-2.7130869219
 10
0.346115604400012
 20
-2.043318521900005
 10
0.2531276427999956
 20
-1.3541173459
 10
0.1564263148000009
 20
-0.6480231107000023
 10
0.056281716400008
 20
0.072726874899999
 10
-0.0469933715999957
 20
0.8058030189000007
 10
-0.1529749508000009
 20
1.548428626899998
  0
LINE
  5
282
330
2
100
AcDbEntity
  8
0
100
AcDbLine
 10
-0.965371643600017
 20
-1.060933237100003
 30
0.0
 11
-0.9678137251999974
 21
-1.047967192300001
 31
0.0
  0
LINE
  5
283
330
2
100
AcDbEntity
  8
0
100
AcDbLine
 10
0.6514635212000055
 20
-4.8375267299
 30
0.0
 11
0.7292205660000004
 21
-5.297979552300001
 31
0.0
  0
LINE
  5
284
330
2
100
AcDbEntity
  8
0
100
AcDbLine
 10
0.7292205660000004
 20
-5.297979552300001
 30
0.0
 11
0.7961925659999931
 21
-5.694921576300005
 31
0.0
  0
LINE
  5
285
330
2
100
AcDbEntity
  8
0
100
AcDbLine
 10
0.7961925659999931
 20
-5.694921576300005
 30
0.0
 11
0.8531123451999942
 21
-6.032620189100002
 31
0.0
  0
LINE
  5
286
330
2
100
AcDbEntity
  8
0
100
AcDbLine
 10
0.8531123451999942
 20
-6.032620189100002
 30
0.0
 11
0.8990499211999942
 21
-6.3056060435
 31
0.0
  0
LINE
  5
287
330
2
100
AcDbEntity
  8
0
100
AcDbLine
 10
0.8990499211999942
 20
-6.3056060435
 30
0.0
 11
0.9327530971999831
 21
-6.5064061091
 31
0.0
  0
LINE
  5
288
330
2
100
AcDbEntity
  8
0
100
AcDbLine
 10
0.9327530971999831
 20
-6.5064061091
 30
0.0
 11
0.9591085611999883
 21
-6.664059448300003
 31
0.0
  0
LINE
  5
289
330
2
100
AcDbEntity
  8
0
100
AcDbLine
 10
0.9591085611999883
 20
-6.664059448300003
 30
0.0
 11
0.9862795403999964
 21
-6.827430141100004
 31
0.0
  0
LINE
  5
28A
330
2
100
AcDbEntity
  8
0
100
AcDbLine
 10
0.9862795403999964
 20
-6.827430141100004
 30
0.0
 11
1.011144546800002
 21
-6.977739761900005
 31
0.0
  0
LINE
  5
28B
330
2
100
AcDbEntity
  8
0
100
AcDbLine
 10
1.011144546800002
 20
-6.977739761900005
 30
0.0
 11
1.032863231599995
 21
-7.109717777900003
 31
0.0
  0
LINE
  5
28C
330
2
100
AcDbEntity
  8
0
100
AcDbLine
 10
1.032863231599995
 20
-7.109717777900003
 30
0.0
 11
1.051298540400003
 21
-7.222295334700001
 31
0.0
  0
LINE
  5
28D
330
2
100
AcDbEntity
  8
0
100
AcDbLine
 10
1.051298540400003
 20
-7.222295334700001
 30
0.0
 11
1.065856767599987
 21
-7.311635296300005
 31
0.0
  0
LINE
  5
28E
330
2
100
AcDbEntity
  8
0
100
AcDbLine
 10
1.065856767599987
 20
-7.311635296300005
 30
0.0
 11
1.078531151599994
 21
-7.389898712300004
 31
0.0
  0
LWPOLYLINE
  5
28F
330
2
100
AcDbEntity
  8
0
100
AcDbPolyline
 90
       21
 70
     0
 43
0.0
 10
-0.2165954804000023
 20
-7.354990515499999
 10
-0.1934757491999903
 20
-7.500236413100004
 10
-0.1565480179999952
 20
-7.658084030700003
 10
-0.1079351715999905
 20
-7.812406131500004
 10
-0.048377233999986
 20
-7.961471733100005
 10
0.0210255036000149
 20
-8.103634616299999
 10
0.0988245132000145
 20
-8.237401795499998
 10
0.183296799600015
 20
-8.361555809900004
 10
0.2723481756000012
 20
-8.4749966579
 10
0.3634793676000072
 20
-8.576762133100004
 10
0.4541681340000139
 20
-8.666426675499998
 10
0.5427445820000117
 20
-8.744654030700004
 10
0.6285989467999969
 20
-8.812883600300004
 10
0.7115224636000051
 20
-8.872528025900003
 10
0.791428781999997
 20
-8.924782549100001
 10
0.8684942604000127
 20
-8.970763952300004
 10
0.9428878028000156
 20
-9.011371539500004
 10
1.01449439480001
 20
-9.047212141100004
 10
1.082550852400004
 20
-9.0785320819
 10
1.146484975600003
 20
-9.105684262700002
 10
1.202190402799999
 20
-9.1276149555
  0
LINE
  5
290
330
2
100
AcDbEntity
  8
0
100
AcDbLine
 10
-0.9678137251999974
 20
-1.047967192300001
 30
0.0
 11
-0.9759286739999968
 21
-0.9933296723000012
 31
0.0
  0
LWPOLYLINE
  5
291
330
2
100
AcDbEntity
  8
0
100
AcDbPolyline
 90
        5
 70
     0
 43
0.0
 10
-0.9735474339999825
 20
-0.9970173123000023
 10
-0.7146684900000082
 20
-3.020856553900003
 10
-0.4811536388000093
 20
-5.051014557100003
 10
-0.2740500451999992
 20
-6.8815904243
 10
-0.216558426000006
 20
-7.354926568300001
  0
LWPOLYLINE
  5
292
330
2
100
AcDbEntity
  8
0
100
AcDbPolyline
 90
       28
 70
     0
 43
0.0
 10
-0.9759286739999879
 20
-0.9933296722999997
 10
-0.9781452691999845
 20
-0.9755920274999994
 10
-0.9855759747999854
 20
-0.896788429099999
 10
-0.9892121684000017
 20
-0.8130460978999991
 10
-0.9883592772000042
 20
-0.7239920323000036
 10
-0.9820907939999869
 20
-0.6276364962999992
 10
-0.9695050915999843
 20
-0.525165963500001
 10
-0.9508374099999912
 20
-0.4221610483000049
 10
-0.9270161459999997
 20
-0.3221691875000019
 10
-0.8989532948000089
 20
-0.2262154739000053
 10
-0.8677360035999868
 20
-0.1351665554999997
 10
-0.8346696419999943
 20
-0.0498760067000035
 10
-0.8003498484000033
 20
0.0305319212999962
 10
-0.7645287443999962
 20
0.1084908812999998
 10
-0.7275335875999929
 20
0.1845387468999959
 10
-0.690364435600003
 20
0.2576775468999983
 10
-0.6535997235999958
 20
0.3276351628999947
 10
-0.6174858692000101
 20
0.3946883981000013
 10
-0.5816976051999916
 20
0.4600397724999965
 10
-0.546037659599989
 20
0.5246111772999953
 10
-0.5119642724000073
 20
0.586184409299996
 10
-0.4808970308000085
 20
0.6424569436999974
 10
-0.4531825779999963
 20
0.6929498092999964
 10
-0.4287276291999831
 20
0.7378854188999995
 10
-0.4065744307999922
 20
0.779040714899999
 10
-0.3855935171999931
 20
0.8185392828999979
 10
-0.3651448708000089
 20
0.8576605661000016
 10
-0.3529938995999942
 20
0.881364042899996
  0
LINE
  5
293
330
2
100
AcDbEntity
  8
0
100
AcDbLine
 10
-0.9643216067999933
 20
-0.9906023059000062
 30
0.0
 11
-0.5370400100000073
 21
-4.459322197100002
 31
0.0
  0
LWPOLYLINE
  5
294
330
2
100
AcDbEntity
  8
0
100
AcDbPolyline
 90
       30
 70
     0
 43
0.0
 10
-0.9735475427999915
 20
-0.9970165074999997
 10
-0.9807153076000076
 20
-0.9344949699000011
 10
-0.9860645235999925
 20
-0.8586848851000041
 10
-0.987841661200008
 20
-0.7811810643000002
 10
-0.9859424675999832
 20
-0.7029984819000035
 10
-0.9806971204000092
 20
-0.6278478739000022
 10
-0.973002358799988
 20
-0.5589893363000016
 10
-0.9639761235999912
 20
-0.4983860915000023
 10
-0.9546699011999919
 20
-0.4469115250999991
 10
-0.9453183043999899
 20
-0.4019458787000048
 10
-0.9356141140000033
 20
-0.3601655938999997
 10
-0.9250726596000049
 20
-0.3188963218999987
 10
-0.913619259599983
 20
-0.277756344300002
 10
-0.9013819891999901
 20
-0.237121611500001
 10
-0.8885715540000092
 20
-0.1974757555000011
 10
-0.8751184852000051
 20
-0.1583803683000013
 10
-0.8601794564000044
 20
-0.1174352019000011
 10
-0.8426755028000059
 20
-0.0721514355000039
 10
-0.8215139811999847
 20
-0.020544817900003
 10
-0.7968873204000034
 20
0.0361124492999991
 10
-0.7698467539999854
 20
0.0951300973000002
 10
-0.7416909540000063
 20
0.1538446029000013
 10
-0.7139494339999999
 20
0.2095802189000011
 10
-0.6881914932000086
 20
0.2598538268999988
 10
-0.6653642036000065
 20
0.3034556972999951
 10
-0.6442725795999991
 20
0.3431053452999961
 10
-0.6233355427999925
 20
0.3819659516999962
 10
-0.6021947795999836
 20
0.4207963964999948
 10
-0.5812333636000063
 20
0.4589877469000001
 10
-0.5605415171999937
 20
0.4964822413000008
  0
LINE
  5
295
330
2
100
AcDbEntity
  8
0
100
AcDbLine
 10
-0.5370454003999985
 20
-4.459274197100002
 30
0.0
 11
-0.2066792356000153
 21
-7.353655705900004
 31
0.0
  0
LWPOLYLINE
  5
296
330
2
100
AcDbEntity
  8
0
100
AcDbPolyline
 90
       15
 70
     0
 43
0.0
 10
-1.21888960359999
 20
1.270617638099999
 10
-1.273155160399994
 20
1.171008092499995
 10
-1.301483297999993
 20
1.118956566099996
 10
-1.330448450000005
 20
1.065462175699998
 10
-1.359175667599998
 20
1.011938927700001
 10
-1.386822270799996
 20
0.9597748668999983
 10
-1.414136486800003
 20
0.9073693340999966
 10
-1.442445256399992
 20
0.8518426380999954
 10
-1.47300572200001
 20
0.7900652685000012
 10
-1.505893744399998
 20
0.7207416620999965
 10
-1.538517393999995
 20
0.6481557404999947
 10
-1.569172542800004
 20
0.5753300492999998
 10
-1.598035267599982
 20
0.501076276500001
 10
-1.624903870799982
 20
0.4246891437000003
 10
-1.641430877200008
 20
0.3727632812999957
  0
LWPOLYLINE
  5
297
330
2
100
AcDbEntity
  8
0
100
AcDbPolyline
 90
        8
 70
     0
 43
0.0
 10
-0.4997022947999881
 20
0.6063540588999956
 10
-0.4802416356000095
 20
0.6415888124999967
 10
-0.4609833716000083
 20
0.6765916876999967
 10
-0.4400202228000012
 20
0.7149116749000016
 10
-0.416449184399994
 20
0.7583830140999979
 10
-0.3915176275999954
 20
0.8049666060999953
 10
-0.3667212739999854
 20
0.8521182524999986
 10
-0.3526444963999893
 20
0.8794788653000011
  0
LINE
  5
298
330
2
100
AcDbEntity
  8
0
100
AcDbLine
 10
-0.5605415172000026
 20
0.4964822412999994
 30
0.0
 11
-0.499702294799997
 21
0.6063540588999943
 31
0.0
  0
LINE
  5
299
330
2
100
AcDbEntity
  8
0
100
AcDbLine
 10
11.80390858839998
 20
-11.1870004579
 30
0.0
 11
11.87055197079998
 21
-11.2224997667
 31
0.0
  0
LINE
  5
29A
330
2
100
AcDbEntity
  8
0
100
AcDbLine
 10
11.933986142
 20
-11.2760978323
 30
0.0
 11
11.80833095319999
 21
-11.1887382627
 31
0.0
  0
LINE
  5
29B
330
2
100
AcDbEntity
  8
0
100
AcDbLine
 10
8.263778935600006
 20
-11.0599145715
 30
0.0
 11
8.267922876399998
 21
-11.0639596483
 31
0.0
  0
LWPOLYLINE
  5
29C
330
2
100
AcDbEntity
  8
0
100
AcDbPolyline
 90
        4
 70
     0
 43
0.0
 10
-0.6726174563999905
 20
-1.525243769900001
 10
-0.6925712803999886
 20
-1.505730446699999
 10
-0.7089616291999903
 20
-1.488348913900004
 10
-0.7325662243999887
 20
-1.461526598700004
  0
LINE
  5
29D
330
2
100
AcDbEntity
  8
0
100
AcDbLine
 10
8.621825905200003
 20
-11.4178626899
 30
0.0
 11
8.267923143599992
 21
-11.0639599283
 31
0.0
  0
LINE
  5
29E
330
2
100
AcDbEntity
  8
0
100
AcDbLine
 10
8.628896972400005
 20
-11.4107916211
 30
0.0
 11
8.274994023600006
 21
-11.0568886739
 31
0.0
  0
LINE
  5
29F
330
2
100
AcDbEntity
  8
0
100
AcDbLine
 10
-1.267715854800011
 20
-1.274751208300004
 30
0.0
 11
-1.263558112400014
 21
-1.279293473900005
 31
0.0
  0
LINE
  5
2A0
330
2
100
AcDbEntity
  8
0
100
AcDbLine
 10
-1.262618075599997
 20
-1.280344741100003
 30
0.0
 11
-1.263558104400013
 21
-1.279291531500001
 31
0.0
  0
LWPOLYLINE
  5
2A1
330
2
100
AcDbEntity
  8
0
100
AcDbPolyline
 90
        4
 70
     0
 43
0.0
 10
-0.7321993875999909
 20
-1.461945582700003
 10
-0.8571600180000018
 20
-1.291144235499999
 10
-0.9293093043999931
 20
-1.137011208300002
 10
-0.9646871139999859
 20
-0.9879191779000038
  0
LINE
  5
2A2
330
2
100
AcDbEntity
  8
0
100
AcDbLine
 10
-0.7070488100000123
 20
2.660069118099996
 30
0.0
 11
-0.7023492340000051
 21
2.650919975699997
 31
0.0
  0
LWPOLYLINE
  5
2A3
330
2
100
AcDbEntity
  8
0
100
AcDbPolyline
 90
        7
 70
     0
 43
0.0
 10
-0.7023492339999962
 20
2.650919975699999
 10
-0.696559422799993
 20
2.638633956500001
 10
-0.6898118196000099
 20
2.622749274899994
 10
-0.6822923123999943
 20
2.602649324499999
 10
-0.6742937491999897
 20
2.577585689300001
 10
-0.6662667715999931
 20
2.546719332499996
 10
-0.6614638003999858
 20
2.523836412499996
  0
LWPOLYLINE
  5
2A4
330
2
100
AcDbEntity
  8
0
100
AcDbPolyline
 90
        3
 70
     0
 43
0.0
 10
-0.6937023811999837
 20
2.656082151699997
 10
-0.6858108947999995
 20
2.639203940499996
 10
-0.6759237427999949
 20
2.614661017300001
  0
LINE
  5
2A5
330
2
100
AcDbEntity
  8
0
100
AcDbLine
 10
4.118941405999995
 20
-10.9235889235
 30
0.0
 11
4.172872188399983
 21
-11.0510706467
 31
0.0
  0
LWPOLYLINE
  5
2A6
330
2
100
AcDbEntity
  8
0
100
AcDbPolyline
 90
       11
 70
     0
 43
0.0
 10
-1.695294974799992
 20
3.279839388500001
 10
-1.679901037199982
 20
3.240390378899995
 10
-1.660045333200002
 20
3.202767678099995
 10
-1.636202633999999
 20
3.1678114093
 10
-1.608587344400007
 20
3.135734482899998
 10
-1.577368830799997
 20
3.106852071699996
 10
-1.543255029199997
 20
3.081825593299996
 10
-1.506575363600006
 20
3.060809618899995
 10
-1.467557648400003
 20
3.044007266899996
 10
-1.427015522000004
 20
3.031817132499995
 10
-1.38548768519999
 20
3.024320281299999
  0
LWPOLYLINE
  5
2A7
330
2
100
AcDbEntity
  8
0
100
AcDbPolyline
 90
        3
 70
     0
 43
0.0
 10
-0.6759237523999957
 20
2.614661041299996
 10
-0.6642473091999932
 20
2.578939708499994
 10
-0.6516521972000078
 20
2.525769607699999
  0
LWPOLYLINE
  5
2A8
330
2
100
AcDbEntity
  8
0
100
AcDbPolyline
 90
        3
 70
     0
 43
0.0
 10
-0.1528274995999936
 20
1.545737406099995
 10
-0.2970631203999971
 20
1.9948139261
 10
-0.4446696708000104
 20
2.261963732499999
  0
LINE
  5
2A9
330
2
100
AcDbEntity
  8
0
100
AcDbLine
 10
-0.5044563220000189
 20
-3.806357125100001
 30
0.0
 11
-0.5089244452000035
 21
-3.817360035500003
 31
0.0
  0
LWPOLYLINE
  5
2AA
330
2
100
AcDbEntity
  8
0
100
AcDbPolyline
 90
       35
 70
     0
 43
0.0
 10
-0.5140665316000082
 20
-3.821402497900002
 10
-0.5197742499999834
 20
-3.818879309100005
 10
-0.5259877331999974
 20
-3.810195312300002
 10
-0.5326483780000047
 20
-3.795700803500004
 10
-0.5397225284000058
 20
-3.7756597475
 10
-0.5471616739999945
 20
-3.750351590699999
 10
-0.5549579668000036
 20
-3.719902971500005
 10
-0.5630922260000091
 20
-3.684445061099999
 10
-0.5715754563999838
 20
-3.643948297900003
 10
-0.580383554000008
 20
-3.598522795500002
 10
-0.5895074867999881
 20
-3.548204885099998
 10
-0.5989756355999987
 20
-3.492797118700003
 10
-0.608732325200009
 20
-3.432577894700003
 10
-0.618710746000005
 20
-3.367945493100002
 10
-0.6288548516000106
 20
-3.299270075500004
 10
-0.639119344400001
 20
-3.226863960300001
 10
-0.6493626355999993
 20
-3.1517513155
 10
-0.6594696820000081
 20
-3.074833208299999
 10
-0.66933275560001
 20
-2.996990448300003
 10
-0.678844197199993
 20
-2.9191242419
 10
-0.6879329187999872
 20
-2.8418352419
 10
-0.6965115923999861
 20
-2.765837350700003
 10
-0.7045121811999877
 20
-2.691654171500005
 10
-0.711835030799989
 20
-2.620087659500001
 10
-0.7184158052000101
 20
-2.551599928299999
 10
-0.7241622356000051
 20
-2.486943038700005
 10
-0.7290170292000085
 20
-2.426509485099998
 10
-0.7329024771999855
 20
-2.370971288300005
 10
-0.7357704419999891
 20
-2.320672896300003
 10
-0.7375654404000045
 20
-2.276184398700003
 10
-0.7382556723999869
 20
-2.237770267500003
 10
-0.737813286799991
 20
-2.205807129900001
 10
-0.7362225491999937
 20
-2.180542181100001
 10
-0.7335000468000033
 20
-2.162313193900004
 10
-0.7296954740000104
 20
-2.1512063427
  0
LWPOLYLINE
  5
2AB
330
2
100
AcDbEntity
  8
0
100
AcDbPolyline
 90
        3
 70
     0
 43
0.0
 10
-0.7249011476000078
 20
-2.147125033900003
 10
-0.7192169507999893
 20
-2.149762813100004
 10
-0.712728384400009
 20
-2.1587600979
  0
LINE
  5
2AC
330
2
100
AcDbEntity
  8
0
100
AcDbLine
 10
-1.800705944400002
 20
-1.1112775139
 30
0.0
 11
-1.579831899600018
 21
-1.229012429100003
 31
0.0
  0
LINE
  5
2AD
330
2
100
AcDbEntity
  8
0
100
AcDbLine
 10
11.87055197079998
 20
-11.2224997667
 30
0.0
 11
11.9358929916
 21
-11.2781474931
 31
0.0
  0
LINE
  5
2AE
330
2
100
AcDbEntity
  8
0
100
AcDbLine
 10
-0.7449547844000027
 20
2.713381748499996
 30
0.0
 11
-0.7085484052000002
 21
2.659487026899994
 31
0.0
  0
LINE
  5
2AF
330
2
100
AcDbEntity
  8
0
100
AcDbLine
 10
-1.343320872400008
 20
3.021584735699994
 30
0.0
 11
-1.342673601999999
 21
3.020607599699998
 31
0.0
  0
LWPOLYLINE
  5
2B0
330
2
100
AcDbEntity
  8
0
100
AcDbPolyline
 90
       28
 70
     0
 43
0.0
 10
-1.346008146000002
 20
3.0174694365
 10
-1.307889440400003
 20
2.957704196499996
 10
-1.265576014799989
 20
2.893950817299995
 10
-1.223521254800004
 20
2.829265007699994
 10
-1.184701342799996
 20
2.767304914899995
 10
-1.150828426000003
 20
2.711234383699995
 10
-1.12129809320001
 20
2.661072353299999
 10
-1.095045440399985
 20
2.615930479699997
 10
-1.071121566800002
 20
2.574665354899998
 10
-1.048792096400006
 20
2.535918231699994
 10
-1.027456568399998
 20
2.498170980499999
 10
-1.006529152399991
 20
2.459913862099995
 10
-0.9861180387999866
 20
2.420792398099997
 10
-0.9666682547999982
 20
2.381010103699999
 10
-0.9485251188000063
 20
2.340427956500001
 10
-0.9321482372000104
 20
2.298959833299996
 10
-0.918315433999993
 20
2.2571494317
 10
-0.9076940035999996
 20
2.2155052429
 10
-0.9004459843999939
 20
2.174015047699995
 10
-0.8965522595999857
 20
2.132474510099996
 10
-0.895926614800004
 20
2.090495422099998
 10
-0.8984818163999932
 20
2.047659002899997
 10
-0.9041891635999945
 20
2.003565959699997
 10
-0.9129673715999899
 20
1.958187286099999
 10
-0.924558168399983
 20
1.911878714899998
 10
-0.9386426195999888
 20
1.864850351699999
 10
-0.9550085971999919
 20
1.817019769299996
 10
-0.9740516212000045
 20
1.766878450899994
  0
LWPOLYLINE
  5
2B1
330
2
100
AcDbEntity
  8
0
100
AcDbPolyline
 90
        3
 70
     0
 43
0.0
 10
-0.7139313092000066
 20
2.672086916499999
 10
-0.7128583107999873
 20
2.670346097299997
 10
-0.7105639156000052
 20
2.666435602899994
  0
LWPOLYLINE
  5
2B2
330
2
100
AcDbEntity
  8
0
100
AcDbPolyline
 90
        4
 70
     0
 43
0.0
 10
-0.7053148628000088
 20
2.6771356685
 10
-0.7033416692000003
 20
2.673903929299996
 10
-0.6995131795999896
 20
2.6671924941
 10
-0.6937023843999839
 20
2.656082158099998
  0
LINE
  5
2B3
330
2
100
AcDbEntity
  8
0
100
AcDbLine
 10
-0.7085484052000002
 20
2.659487026899994
 30
0.0
 11
-0.7064577747999952
 21
2.656058050899999
 31
0.0
  0
LWPOLYLINE
  5
2B4
330
2
100
AcDbEntity
  8
0
100
AcDbPolyline
 90
        3
 70
     0
 43
0.0
 10
-0.4446699140000021
 20
2.261964150099998
 10
-0.5825625251999896
 20
2.490038281299995
 10
-0.6962312595999834
 20
2.662391190099995
  0
LINE
  5
2B5
330
2
100
AcDbEntity
  8
0
100
AcDbLine
 10
-0.7105639156000141
 20
2.666435602899993
 30
0.0
 11
-0.7070488100000123
 21
2.660069118099996
 31
0.0
  0
LINE
  5
2B6
330
2
100
AcDbEntity
  8
0
100
AcDbLine
 10
-0.7064577747999952
 20
2.656058050899999
 30
0.0
 11
-0.6950654947999997
 21
2.635117065299999
 31
0.0
  0
LINE
  5
2B7
330
2
100
AcDbEntity
  8
0
100
AcDbLine
 10
3.440187049199996
 20
-11.0440143219
 30
0.0
 11
3.439218714799997
 21
-11.0752477699
 31
0.0
  0
LINE
  5
2B8
330
2
100
AcDbEntity
  8
0
100
AcDbLine
 10
3.730674050799981
 20
-10.9038244355
 30
0.0
 11
3.730340508399981
 21
-10.9138013379
 31
0.0
  0
LWPOLYLINE
  5
2B9
330
2
100
AcDbEntity
  8
0
100
AcDbPolyline
 90
       13
 70
     0
 43
0.0
 10
-0.2025959636000039
 20
-1.826579413099999
 10
-0.2060763876000067
 20
-1.824966118700004
 10
-0.2419112899999902
 20
-1.8075552723
 10
-0.2845185187999846
 20
-1.785628363500002
 10
-0.3293787220000013
 20
-1.7612931699
 10
-0.3787307524000028
 20
-1.733155379500004
 10
-0.4314090563999855
 20
-1.701588424299998
 10
-0.4842161043999909
 20
-1.668193989100004
 10
-0.5343805731999965
 20
-1.634524614699998
 10
-0.5798050548000049
 20
-1.601961329899999
 10
-0.6181457156000079
 20
-1.572396757100001
 10
-0.6485515251999914
 20
-1.547020640300004
 10
-0.6726175203999958
 20
-1.525243710700003
  0
LWPOLYLINE
  5
2BA
330
2
100
AcDbEntity
  8
0
100
AcDbPolyline
 90
        6
 70
     0
 43
0.0
 10
-0.9315387299999997
 20
-1.325428973100002
 10
-0.9591722643999958
 20
-1.312425544300005
 10
-1.017274725199996
 20
-1.292361264299998
 10
-1.077944032399983
 20
-1.278445121899999
 10
-1.140324822799982
 20
-1.270864729900004
 10
-1.203917589199988
 20
-1.269640485099998
  0
LWPOLYLINE
  5
2BB
330
2
100
AcDbEntity
  8
0
100
AcDbPolyline
 90
        4
 70
     0
 43
0.0
 10
-1.572677022800007
 20
-1.221441509100003
 10
-1.12928869960001
 20
-1.431026216300004
 10
-0.6694382355999835
 20
-1.631550024300004
 10
-0.2060202451999942
 20
-1.8251427203
  0
LWPOLYLINE
  5
2BC
330
2
100
AcDbEntity
  8
0
100
AcDbPolyline
 90
        4
 70
     0
 43
0.0
 10
-1.577091569999993
 20
-1.230336288300001
 10
-1.322739595599983
 20
-1.352847113900004
 10
-1.046656741199996
 20
-1.479094024300003
 10
-0.9039309476000028
 20
-1.5412584707
  0
LWPOLYLINE
  5
2BD
330
2
100
AcDbEntity
  8
0
100
AcDbPolyline
 90
        7
 70
     0
 43
0.0
 10
-0.9314820724000014
 20
-1.325871910700001
 10
-0.9332383251999942
 20
-1.324959193899999
 10
-0.9940133892000062
 20
-1.301787502700001
 10
-1.05766040040001
 20
-1.285508942700005
 10
-1.123313739600007
 20
-1.276363512300001
 10
-1.190361067600008
 20
-1.274426849900002
 10
-1.257872534799986
 20
-1.279674051500002
  0
LINE
  5
2BE
330
2
100
AcDbEntity
  8
0
100
AcDbLine
 10
5.869697697199987
 20
-10.9676964403
 30
0.0
 11
5.875061983599996
 21
-10.9972893571
 31
0.0
  0
LINE
  5
2BF
330
2
100
AcDbEntity
  8
0
100
AcDbLine
 10
6.294350140400004
 20
-11.1172036291
 30
0.0
 11
6.291078598000003
 21
-11.0986497923
 31
0.0
  0
LINE
  5
2C0
330
2
100
AcDbEntity
  8
0
100
AcDbLine
 10
5.875061983599996
 20
-10.9972893571
 30
0.0
 11
5.889024620399984
 21
-11.0787395795
 31
0.0
  0
LWPOLYLINE
  5
2C1
330
2
100
AcDbEntity
  8
0
100
AcDbPolyline
 90
        3
 70
     0
 43
0.0
 10
-0.7194666067999833
 20
-2.149646958700003
 10
-0.7198414355999887
 20
-2.149966073900003
 10
-0.7236454051999886
 20
-2.161073051500004
  0
LINE
  5
2C2
330
2
100
AcDbEntity
  8
0
100
AcDbLine
 10
-0.7296954740000193
 20
-2.151206342700001
 30
0.0
 11
-0.7249011476000167
 21
-2.147125033900004
 31
0.0
  0
LWPOLYLINE
  5
2C3
330
2
100
AcDbEntity
  8
0
  6
HIDDEN
 48
0.5
100
AcDbPolyline
 90
        3
 70
     0
 43
0.0
 10
-2.844969939599991
 20
5.576896332499998
 10
-2.843005398799988
 20
5.575332799699999
 10
-2.840760160400009
 20
5.570311082899998
  0
LWPOLYLINE
  5
2C4
330
2
100
AcDbEntity
  8
0
  6
HIDDEN
 48
0.5
100
AcDbPolyline
 90
       22
 70
     0
 43
0.0
 10
-2.812202312399989
 20
5.203330698899996
 10
-2.814170813200007
 20
5.204900414099995
 10
-2.816417757199985
 20
5.209932060500001
 10
-2.818870739599987
 20
5.218248762899996
 10
-2.821488662799993
 20
5.229659646099996
 10
-2.82425659399999
 20
5.2441080141
 10
-2.827113513999989
 20
5.261311209299996
 10
-2.829976450000003
 20
5.280755367699995
 10
-2.832805017999987
 20
5.302131532499998
 10
-2.835582201999983
 20
5.325331542099995
 10
-2.838245370000009
 20
5.349884914899995
 10
-2.840714689999998
 20
5.3750585533
 10
-2.842952155599988
 20
5.400432522899997
 10
-2.844940761999993
 20
5.425838474899997
 10
-2.846631683600008
 20
5.450726327699996
 10
-2.847972073999983
 20
5.474318823699995
 10
-2.848943770000005
 20
5.496210847699998
 10
-2.849539673999998
 20
5.516248031700001
 10
-2.849741416400007
 20
5.533999902099999
 10
-2.849543566800008
 20
5.548926718099998
 10
-2.848957422799998
 20
5.560807994899995
 10
-2.847987355599997
 20
5.569566625299998
  0
LINE
  5
2C5
330
2
100
AcDbEntity
  8
0
100
AcDbLine
 10
11.9358929916
 20
-11.2781474931
 30
0.0
 11
11.98931163159999
 21
-11.3515534339
 31
0.0
  0
LINE
  5
2C6
330
2
100
AcDbEntity
  8
0
100
AcDbLine
 10
12.01074516599998
 20
-11.3970144339
 30
0.0
 11
11.933986142
 21
-11.2760978323
 31
0.0
  0
LINE
  5
2C7
330
2
100
AcDbEntity
  8
0
100
AcDbLine
 10
-0.5089244452000035
 20
-3.817360035500003
 30
0.0
 11
-0.5140665316000171
 21
-3.821402497900004
 31
0.0
  0
LWPOLYLINE
  5
2C8
330
2
100
AcDbEntity
  8
0
  6
HIDDEN
 48
0.5
100
AcDbPolyline
 90
        3
 70
     0
 43
0.0
 10
-2.298395109199987
 20
6.001162729299998
 10
-2.296472349200001
 20
5.999663772499999
 10
-2.294280576399984
 20
5.994845967700001
  0
LWPOLYLINE
  5
2C9
330
2
100
AcDbEntity
  8
0
  6
HIDDEN
 48
0.5
100
AcDbPolyline
 90
       22
 70
     0
 43
0.0
 10
-2.265627481999985
 20
5.627597095699996
 10
-2.267552346000002
 20
5.629099274899999
 10
-2.269744809999991
 20
5.633921671700001
 10
-2.272143091599986
 20
5.6419247165
 10
-2.274708941200003
 20
5.652949650899998
 10
-2.277431970000009
 20
5.6669779805
 10
-2.2802527236
 20
5.683755599699999
 10
-2.283089369999999
 20
5.702794921299997
 10
-2.2858896372
 20
5.723707522899999
 10
-2.288640997199991
 20
5.746404103700001
 10
-2.291284539599985
 20
5.7704383389
 10
-2.293743427599991
 20
5.795104268499997
 10
-2.295966825999983
 20
5.819824356499999
 10
-2.297933024400009
 20
5.844284332499995
 10
-2.299607288399982
 20
5.867976361299994
 10
-2.30096961160001
 20
5.890507804499996
 10
-2.302007729999985
 20
5.911539591699998
 10
-2.302718235599996
 20
5.930857425299997
 10
-2.303097814799997
 20
5.948230782099997
 10
-2.30314537640001
 20
5.963478673299995
 10
-2.302859648399987
 20
5.976414026899995
 10
-2.3022397796
 20
5.986845588499996
  0
LINE
  5
2CA
330
2
100
AcDbEntity
  8
0
100
AcDbLine
 10
16.7151493308
 20
-11.0751989795
 30
0.0
 11
16.71506529079999
 21
-11.0751124339
 31
0.0
  0
LINE
  5
2CB
330
2
100
AcDbEntity
  8
0
100
AcDbLine
 10
11.98931163159999
 20
-11.3515534339
 30
0.0
 11
12.01074516599998
 21
-11.3970144339
 31
0.0
  0
LWPOLYLINE
  5
2CC
330
2
100
AcDbEntity
  8
0
100
AcDbPolyline
 90
       20
 70
     0
 43
0.0
 10
8.889620276399995
 20
5.514537521299999
 10
8.893248082799999
 20
5.606400332500001
 10
8.904271538800003
 20
5.698719474899995
 10
8.922852119600008
 20
5.790833486099998
 10
8.949217610799991
 20
5.882460004499996
 10
8.983463543600009
 20
5.972799095699997
 10
9.025694180399995
 20
6.0612346013
 10
9.075629569200003
 20
6.146562586899996
 10
9.132724041199992
 20
6.227603698899997
 10
9.196609357999989
 20
6.303752074899996
 10
9.266640006000017
 20
6.3742263213
 10
9.3424835916
 20
6.438694671699998
 10
9.423420332400013
 20
6.496548390099995
 10
9.509019757999993
 20
6.547491327700001
 10
9.598683561200004
 20
6.591151593299997
 10
9.69174696120001
 20
6.627195510100001
 10
9.787379802799989
 20
6.655320793299999
 10
9.884182454000011
 20
6.675251172499997
 10
9.981206026800009
 20
6.687043420499996
 10
10.07712027639999
 20
6.6908886557
  0
LINE
  5
2CD
330
2
100
AcDbEntity
  8
0
100
AcDbLine
 10
-1.203917589199997
 20
-1.269640485099999
 30
0.0
 11
-1.267716563600012
 21
-1.274752078700005
 31
0.0
  0
LINE
  5
2CE
330
2
100
AcDbEntity
  8
0
100
AcDbLine
 10
21.35815777079999
 20
-1.269640891500004
 30
0.0
 11
21.42195671319998
 21
-1.274752521899999
 31
0.0
  0
LINE
  5
2CF
330
2
100
AcDbEntity
  8
0
100
AcDbLine
 10
12.0142732252
 20
-11.4063841715
 30
0.0
 11
12.01074516599998
 21
-11.3970144339
 31
0.0
  0
LINE
  5
2D0
330
2
100
AcDbEntity
  8
0
100
AcDbLine
 10
8.8934220172
 20
5.420503290899999
 30
0.0
 11
8.889620276399986
 21
5.514537521299997
 31
0.0
  0
LWPOLYLINE
  5
2D1
330
2
100
AcDbEntity
  8
0
100
AcDbPolyline
 90
       20
 70
     0
 43
0.0
 10
8.889668796400002
 20
5.514539457299996
 10
8.893319439599991
 20
5.4229971341
 10
8.904486138799995
 20
5.330244623699996
 10
8.923200482800012
 20
5.2380502221
 10
8.949632409200006
 20
5.146613834899994
 10
8.983846542000009
 20
5.056639682899998
 10
9.025947180400009
 20
4.968642678099996
 10
9.075695628400012
 20
4.883713650899998
 10
9.132637932400001
 20
4.8029161965
 10
9.19640670519999
 20
4.726911124499999
 10
9.266293567600001
 20
4.656572441299999
 10
9.341947466800007
 20
4.592241527699997
 10
9.422694954799993
 20
4.534484665299999
 10
9.508135205999991
 20
4.483586604499997
 10
9.597547678000012
 20
4.439984158099996
 10
9.690162393200012
 20
4.404020246099996
 10
9.785322969199995
 20
4.375900732499999
 10
9.881973417200015
 20
4.355842084499997
 10
9.979553637999998
 20
4.3438363757
 10
10.07712027639999
 20
4.339862612499999
  0
LINE
  5
2D2
330
2
100
AcDbEntity
  8
0
100
AcDbLine
 10
-1.259452677199996
 20
-1.279902853100006
 30
0.0
 11
-1.257872534799995
 21
-1.279674051500003
 31
0.0
  0
LINE
  5
2D3
330
2
100
AcDbEntity
  8
0
100
AcDbLine
 10
-1.262618075599997
 20
-1.280344741100003
 30
0.0
 11
-1.259452677199996
 21
-1.279902853100006
 31
0.0
  0
LINE
  5
2D4
330
2
100
AcDbEntity
  8
0
100
AcDbLine
 10
11.26084250679999
 20
5.608276836499994
 30
0.0
 11
11.26462027639998
 21
5.514537521299997
 31
0.0
  0
LWPOLYLINE
  5
2D5
330
2
100
AcDbEntity
  8
0
100
AcDbPolyline
 90
       20
 70
     0
 43
0.0
 10
11.26462027639999
 20
5.514537521299999
 10
11.2609252812
 20
5.421830721299997
 10
11.24976503799999
 20
5.329091926099998
 10
11.23105767000001
 20
5.236903380499995
 10
11.2046317084
 20
5.145465838100001
 10
11.17042508759999
 20
5.055493649299997
 10
11.1283345148
 20
4.967501558099996
 10
11.0785909324
 20
4.8825664461
 10
11.02165934359999
 20
4.801771143700001
 10
10.9579008396
 20
4.725765647700001
 10
10.88802047640001
 20
4.655421566099995
 10
10.8123727116
 20
4.591084748499994
 10
10.73162478840001
 20
4.533317482899995
 10
10.64619290679999
 20
4.482414953300001
 10
10.55677503320001
 20
4.4388010925
 10
10.46416322039999
 20
4.402830316500001
 10
10.3689926124
 20
4.374700630100001
 10
10.272324206
 20
4.354632590099996
 10
10.174723446
 20
4.342620470100001
 10
10.07712027639999
 20
4.338643734099996
  0
LWPOLYLINE
  5
2D6
330
2
100
AcDbEntity
  8
0
100
AcDbPolyline
 90
       12
 70
     0
 43
0.0
 10
21.49756142519998
 20
3.021584735699995
 10
21.42873790519999
 20
3.017876162899995
 10
21.3599978796
 20
3.007793094099994
 10
21.29221404439999
 20
2.991329796499996
 10
21.2260866604
 20
2.968546422099997
 10
21.1625493164
 20
2.9398411373
 10
21.1020265084
 20
2.905503090899998
 10
21.04514128120001
 20
2.865841092499998
 10
20.9921661836
 20
2.821069025299998
 10
20.94365180279999
 20
2.771780138899998
 10
20.89993950679999
 20
2.718361332499995
 10
20.86817633879999
 20
2.672084086099999
  0
LWPOLYLINE
  5
2D7
330
2
100
AcDbEntity
  8
0
100
AcDbPolyline
 90
       11
 70
     0
 43
0.0
 10
21.5002480892
 20
3.017470100499998
 10
21.43024690519999
 20
3.013902546899998
 10
21.36079321720001
 20
3.003853548499996
 10
21.29264143
 20
2.987395956499995
 10
21.22633179639998
 20
2.964626436499997
 10
21.16264704759998
 20
2.935905722899995
 10
21.10192368439999
 20
2.9014551757
 10
21.04480088919999
 20
2.8616324125
 10
20.99162703159998
 20
2.816652881300001
 10
20.94299063799999
 20
2.767105462099998
 10
20.89919475639999
 20
2.713382159699996
  0
LWPOLYLINE
  5
2D8
330
2
100
AcDbEntity
  8
0
100
AcDbPolyline
 90
       11
 70
     0
 43
0.0
 10
-1.346008146000002
 20
3.0174694365
 10
-1.276006928399993
 20
3.013901895699994
 10
-1.20655321320001
 20
3.0038529101
 10
-1.138401405199999
 20
2.9873953309
 10
-1.072091758799984
 20
2.964625826899997
 10
-1.008407006799984
 20
2.935905132499996
 10
-0.9476836467999874
 20
2.901454607699996
 10
-0.8905608611999866
 20
2.861631873299998
 10
-0.837387019599987
 20
2.816652377299995
 10
-0.7887506451999969
 20
2.767105001299995
 10
-0.7449547843999938
 20
2.713381748499998
  0
LWPOLYLINE
  5
2D9
330
2
100
AcDbEntity
  8
0
100
AcDbPolyline
 90
       12
 70
     0
 43
0.0
 10
-1.343320872399999
 20
3.021584735699995
 10
-1.274497362000005
 20
3.017876162899995
 10
-1.205757347599984
 20
3.007793098899995
 10
-1.13797352200001
 20
2.991329807699997
 10
-1.071846149199984
 20
2.968546439699998
 10
-1.008308814799988
 20
2.939841162899995
 10
-0.9477860131999875
 20
2.905503127700001
 10
-0.8909007924000036
 20
2.865841142099995
 10
-0.8379256963999921
 20
2.821069087699996
 10
-0.7894113188000063
 20
2.771780215699997
 10
-0.7456990243999826
 20
2.718361430099996
 10
-0.7139357844000074
 20
2.672084086099999
  0
LWPOLYLINE
  5
2DA
330
2
100
AcDbEntity
  8
0
100
AcDbPolyline
 90
       10
 70
     0
 43
0.0
 10
-1.343320165199997
 20
3.031566492499997
 10
-1.257338931600003
 20
3.026038318099999
 10
-1.172486297999995
 20
3.010809455699998
 10
-1.089894128400004
 20
2.986092543699996
 10
-1.010661885199994
 20
2.952236516500001
 10
-0.9358350931999837
 20
2.909719618899998
 10
-0.86638631080001
 20
2.859137737299995
 10
-0.8032018627999946
 20
2.8011912029
 10
-0.7470712052000011
 20
2.736670207700001
 10
-0.6986808899999915
 20
2.666442239699996
  0
LINE
  5
2DB
330
2
100
AcDbEntity
  8
0
100
AcDbLine
 10
-1.385487685199999
 20
3.024320281299998
 30
0.0
 11
-1.343320872400008
 21
3.021584735699994
 31
0.0
  0
LWPOLYLINE
  5
2DC
330
2
100
AcDbEntity
  8
0
100
AcDbPolyline
 90
       10
 70
     0
 43
0.0
 10
-1.343320096399992
 20
3.031567276499998
 10
-1.393422021199995
 20
3.035447770899999
 10
-1.4425356996
 20
3.0462654333
 10
-1.48971206920001
 20
3.063807345299998
 10
-1.534038574800007
 20
3.087729697299998
 10
-1.574658197199994
 20
3.117563886100001
 10
-1.610788834000004
 20
3.152727522900001
 10
-1.641737393999989
 20
3.192536398099996
 10
-1.666912537999991
 20
3.2362183133
 10
-1.685835283599999
 20
3.282928106899994
  0
LINE
  5
2DD
330
2
100
AcDbEntity
  8
0
100
AcDbLine
 10
8.139967329199995
 20
-11.4063841715
 30
0.0
 11
8.143431618799999
 21
-11.3971772803
 31
0.0
  0
LINE
  5
2DE
330
2
100
AcDbEntity
  8
0
100
AcDbLine
 10
21.49964495159999
 20
3.020633841299995
 30
0.0
 11
21.4969141868
 21
3.020607646099995
 31
0.0
  0
LINE
  5
2DF
330
2
100
AcDbEntity
  8
0
100
AcDbLine
 10
-1.342673601999999
 20
3.020607599699998
 30
0.0
 11
-1.345404781199997
 21
3.020633799699999
 31
0.0
  0
LINE
  5
2E0
330
2
100
AcDbEntity
  8
0
100
AcDbLine
 10
8.143431618799999
 20
-11.3971772803
 30
0.0
 11
8.170804653999985
 21
-11.3413704723
 31
0.0
  0
LWPOLYLINE
  5
2E1
330
2
100
AcDbEntity
  8
0
100
AcDbPolyline
 90
       20
 70
     0
 43
0.0
 10
10.07712027639999
 20
4.339862612499999
 10
10.17331700279999
 20
4.343725385299997
 10
10.2696005852
 20
4.355405450900001
 10
10.36522358359999
 20
4.374980052499999
 10
10.4596978156
 20
4.4025351517
 10
10.5519572972
 20
4.437926812499995
 10
10.64128239960001
 20
4.480994430099997
 10
10.726789902
 20
4.5313912509
 10
10.8076395932
 20
4.5886279037
 10
10.8834104684
 20
4.652396423699997
 10
10.95343275159999
 20
4.722119391699997
 10
11.0174213724
 20
4.797515900499995
 10
11.07476935319999
 20
4.877884953299997
 10
11.12511923479999
 20
4.9627029309
 10
11.16796443160001
 20
5.051006329300001
 10
11.20295657400001
 20
5.141702487700001
 10
11.23009239800001
 20
5.234215982099996
 10
11.24933971320001
 20
5.327691452499998
 10
11.26082347639999
 20
5.421782866899995
 10
11.26457112279999
 20
5.5145395085
  0
LINE
  5
2E2
330
2
100
AcDbEntity
  8
CENTER
 48
4.0
100
AcDbLine
 10
13.56162333559998
 20
5.515985073299999
 30
0.0
 11
6.693983441199994
 21
5.515985073299999
 31
0.0
  0
LWPOLYLINE
  5
2E6
330
2
100
AcDbEntity
  8
0
100
AcDbPolyline
 90
       19
 70
     0
 43
0.0
 10
10.07712027639999
 20
4.338643734099996
 10
9.980948949999998
 20
4.342504455699994
 10
9.884678705200002
 20
4.3541802477
 10
9.789074446
 20
4.373746894100001
 10
9.694618170799998
 20
4.401290788499998
 10
9.602366750000015
 20
4.436671785299999
 10
9.513060092399996
 20
4.479720972499997
 10
9.427551958000009
 20
4.530106740499995
 10
9.346704063600014
 20
4.587329322899996
 10
9.27092799639999
 20
4.6510878845
 10
9.200901268400002
 20
4.720799375699996
 10
9.136908615599992
 20
4.796182332499995
 10
9.079553439600005
 20
4.876540127699996
 10
9.029197348400003
 20
4.961343007699994
 10
8.986336069999993
 20
5.0496497341
 10
8.951327572400003
 20
5.140355228499998
 10
8.924176993200006
 20
5.2328815997
 10
8.904915855599995
 20
5.3263811005
 10
8.893422017200009
 20
5.420503290900001
  0
LINE
  5
2E7
330
2
100
AcDbEntity
  8
0
100
AcDbLine
 10
16.42356650199999
 20
-10.9038244355
 30
0.0
 11
16.4239001532
 21
-10.9138042291
 31
0.0
  0
LINE
  5
2E8
330
2
100
AcDbEntity
  8
0
100
AcDbLine
 10
13.85989041399999
 20
-11.1172036291
 30
0.0
 11
13.86316195639999
 21
-11.0986497923
 31
0.0
  0
LINE
  5
2E9
330
2
100
AcDbEntity
  8
0
100
AcDbLine
 10
8.143431618799999
 20
-11.3971772803
 30
0.0
 11
8.2202544124
 21
-11.2760978323
 31
0.0
  0
LINE
  5
2EA
330
2
100
AcDbEntity
  8
0
100
AcDbLine
 10
8.170804653999985
 20
-11.3413704723
 30
0.0
 11
8.227039298799999
 21
-11.2691341395
 31
0.0
  0
LWPOLYLINE
  5
2EE
330
2
100
AcDbEntity
  8
0
100
AcDbPolyline
 90
       19
 70
     0
 43
0.0
 10
10.07712027639999
 20
6.6908886557
 10
10.17112584759999
 20
6.687195174099997
 10
10.26634968280001
 20
6.6758503661
 10
10.36171353080001
 20
6.656592050899995
 10
10.45639681880001
 20
6.629250070099999
 10
10.54901056599999
 20
6.593983894099999
 10
10.6385603228
 20
6.5510594701
 10
10.72427492599999
 20
6.500794010900001
 10
10.805354518
 20
6.443654324499995
 10
10.881382102
 20
6.379938271699998
 10
10.95163114839999
 20
6.310271449299996
 10
11.0158343244
 20
6.234927983699996
 10
11.07346596120001
 20
6.154491292499997
 10
11.1241705756
 20
6.069412878099996
 10
11.16738905080001
 20
5.980651850899995
 10
11.20268799000001
 20
5.889409278099996
 10
11.23002373880001
 20
5.796367582099996
 10
11.24935760120001
 20
5.702498975699995
 10
11.2608425068
 20
5.608276836499996
  0
LINE
  5
2F4
330
2
100
AcDbEntity
  8
0
100
AcDbLine
 10
16.7150218396
 20
-11.0752477699
 30
0.0
 11
16.7140535052
 21
-11.0440143219
 31
0.0
  0
LINE
  5
2F5
330
2
100
AcDbEntity
  8
0
100
AcDbLine
 10
14.2791785708
 20
-10.9972893571
 30
0.0
 11
14.26521593399998
 21
-11.0787395795
 31
0.0
  0
LINE
  5
2F6
330
2
100
AcDbEntity
  8
0
100
AcDbLine
 10
14.28454285559998
 20
-10.9676964403
 30
0.0
 11
14.2791785708
 21
-10.9972893571
 31
0.0
  0
LWPOLYLINE
  5
2F7
330
2
100
AcDbEntity
  8
0
100
AcDbPolyline
 90
        6
 70
     0
 43
0.0
 10
21.08577927159998
 20
-1.325429043500001
 10
21.1134123548
 20
-1.312425840300001
 10
21.1715148524
 20
-1.292361576300002
 10
21.2321841868
 20
-1.278445457899998
 10
21.29456499479999
 20
-1.270865097899999
 10
21.3581577708
 20
-1.269640891500003
  0
LWPOLYLINE
  5
2F8
330
2
100
AcDbEntity
  8
0
100
AcDbPolyline
 90
        7
 70
     0
 43
0.0
 10
21.08561914200001
 20
-1.326680886700003
 10
21.1087526652
 20
-1.315933713900001
 10
21.16690074999999
 20
-1.296217417900002
 10
21.2274264076
 20
-1.282672435500003
 10
21.28953438839999
 20
-1.275482318699999
 10
21.3527784828
 20
-1.274681278700001
 10
21.4163010572
 20
-1.280239000299999
  0
LWPOLYLINE
  5
2F9
330
2
100
AcDbEntity
  8
0
100
AcDbPolyline
 90
        4
 70
     0
 43
0.0
 10
21.0581705916
 20
-1.541265565100005
 10
21.20732752119999
 20
-1.476226624300004
 10
21.48044625720001
 20
-1.351218950700001
 10
21.73132900600001
 20
-1.230337829100001
  0
LWPOLYLINE
  5
2FA
330
2
100
AcDbEntity
  8
0
100
AcDbPolyline
 90
        4
 70
     0
 43
0.0
 10
20.36026079800001
 20
-1.8251427203
 10
20.82367879
 20
-1.631550024300004
 10
21.283529254
 20
-1.431026216300004
 10
21.7269175772
 20
-1.221441509100003
  0
LINE
  5
30A
330
2
100
AcDbEntity
  8
0
100
AcDbLine
 10
20.85658978840001
 20
2.650919975699997
 30
0.0
 11
20.86128936279998
 21
2.660069118099996
 31
0.0
  0
LINE
  5
30B
330
2
100
AcDbEntity
  8
0
100
AcDbLine
 10
20.8606977244
 20
2.656058402899999
 30
0.0
 11
20.8493088748
 21
2.635123718099996
 31
0.0
  0
LINE
  5
30C
330
2
100
AcDbEntity
  8
0
100
AcDbLine
 10
20.86128936279998
 20
2.660069118099996
 30
0.0
 11
20.86480446839999
 21
2.666435602899993
 31
0.0
  0
LINE
  5
30D
330
2
100
AcDbEntity
  8
0
100
AcDbLine
 10
20.86480446839999
 20
2.666435602899993
 30
0.0
 11
20.8670988652
 21
2.670346097299996
 31
0.0
  0
LINE
  5
30E
330
2
100
AcDbEntity
  8
0
100
AcDbLine
 10
20.8627893708
 20
2.659489039699997
 30
0.0
 11
20.8606977244
 21
2.656058402899999
 31
0.0
  0
LINE
  5
30F
330
2
100
AcDbEntity
  8
0
100
AcDbLine
 10
20.8670988652
 20
2.670346097299996
 30
0.0
 11
20.86817186359998
 21
2.672086916499998
 31
0.0
  0
LWPOLYLINE
  5
310
330
2
100
AcDbEntity
  8
0
100
AcDbPolyline
 90
       28
 70
     0
 43
0.0
 10
21.5002480892
 20
3.017470100499998
 10
21.46212934199999
 20
2.957704780499994
 10
21.41981587
 20
2.8939513117
 10
21.37776107479999
 20
2.8292654173
 10
21.33894114040001
 20
2.767305257299994
 10
21.30506821400001
 20
2.711234681299998
 10
21.27553787639999
 20
2.6610726173
 10
21.24928521719999
 20
2.615930716499995
 10
21.22536133400001
 20
2.574665561300001
 10
21.20303185240001
 20
2.535918401300001
 10
21.18169631
 20
2.498171097299994
 10
21.16076887479999
 20
2.459913913299999
 10
21.14035774999999
 20
2.420792382099996
 10
21.1209079628
 20
2.381010018899999
 10
21.10276483160001
 20
2.340427798099995
 10
21.08638797079998
 20
2.298959602899998
 10
21.0725552076
 20
2.257149138899997
 10
21.06193383160001
 20
2.2155048941
 10
21.05468587800001
 20
2.174014641299997
 10
21.05079222680001
 20
2.132474038099999
 10
21.0501666588
 20
2.090494874899995
 10
21.0527219436
 20
2.047658369299995
 10
21.05842938040001
 20
2.003565228500001
 10
21.06720768120001
 20
1.958186462099995
 10
21.07879856760001
 20
1.911877802900001
 10
21.0928831068
 20
1.864849350099994
 10
21.10924917720001
 20
1.817018654099996
 10
21.1282923228
 20
1.766877154900001
  0
LWPOLYLINE
  5
311
330
2
100
AcDbEntity
  8
0
100
AcDbPolyline
 90
        5
 70
     0
 43
0.0
 10
20.85049844920001
 20
2.662435548499999
 10
20.73695505559999
 20
2.490276474899999
 10
20.59870855479999
 20
2.261623036499997
 10
20.451687182
 20
1.995592868499997
 10
20.30716284760001
 20
1.546444034899998
  0
LINE
  5
312
330
2
100
AcDbEntity
  8
0
100
AcDbLine
 10
21.49756142519998
 20
3.021584735699994
 30
0.0
 11
21.4969141868
 21
3.020607646099995
 31
0.0
  0
LINE
  5
313
330
2
100
AcDbEntity
  8
0
100
AcDbLine
 10
20.89919475639998
 20
2.713382159699995
 30
0.0
 11
20.8627893708
 21
2.659489039699997
 31
0.0
  0
LWPOLYLINE
  5
314
330
2
100
AcDbEntity
  8
0
100
AcDbPolyline
 90
       10
 70
     0
 43
0.0
 10
20.85292144280001
 20
2.666442239699996
 10
20.90131886840001
 20
2.736679375699999
 10
20.957451982
 20
2.801201023699995
 10
21.02063733080001
 20
2.8591463021
 10
21.09008693879999
 20
2.909726906899997
 10
21.16491443960001
 20
2.952242465299995
 10
21.2441471692
 20
2.9860970637
 10
21.32673988440001
 20
3.0108125645
 10
21.411590262
 20
3.026039626900001
 10
21.49756071800001
 20
3.031566492499997
  0
LWPOLYLINE
  5
315
330
2
100
AcDbEntity
  8
0
100
AcDbPolyline
 90
        3
 70
     0
 43
0.0
 10
8.227039298800008
 20
-11.2691341395
 10
8.294385404400003
 20
-11.2155894083
 10
8.361258809199995
 20
-11.1827318755
  0
LINE
  5
316
330
2
100
AcDbEntity
  8
0
100
AcDbLine
 10
8.2202544124
 20
-11.2760978323
 30
0.0
 11
8.345909599599982
 21
-11.1887382627
 31
0.0
  0
LWPOLYLINE
  5
317
330
2
100
AcDbEntity
  8
0
100
AcDbPolyline
 90
        5
 70
     0
 43
0.0
 10
21.72959499800001
 20
-1.220112219500002
 10
22.3403030796
 20
-0.8509487651
 10
22.8081224844
 20
-0.4235246034999989
 10
23.1407714412
 20
0.0970651533000009
 10
23.2852568348
 20
0.6767690653000003
  0
LINE
  5
367
330
2
100
AcDbEntity
  8
0
100
AcDbLine
 10
19.6963639564
 20
-2.884596457900003
 30
0.0
 11
19.60789170359998
 21
-3.554625198700003
 31
0.0
  0
LINE
  5
368
330
2
100
AcDbEntity
  8
0
100
AcDbLine
 10
19.7886111436
 20
-2.189299993900001
 30
0.0
 11
19.6963567724
 21
-2.884650833900005
 31
0.0
  0
LINE
  5
369
330
2
100
AcDbEntity
  8
0
100
AcDbLine
 10
19.6078994588
 20
-3.554566526700001
 30
0.0
 11
19.5227595132
 21
-4.1961502291
 31
0.0
  0
LINE
  5
36A
330
2
100
AcDbEntity
  8
0
100
AcDbLine
 10
19.88506004919999
 20
-1.472357531500003
 30
0.0
 11
19.7886046188
 21
-2.189348891500004
 31
0.0
  0
LINE
  5
36B
330
2
100
AcDbEntity
  8
0
100
AcDbLine
 10
19.5227677724
 20
-4.196088323500001
 30
0.0
 11
19.44089206839998
 21
-4.804912568300006
 31
0.0
  0
LINE
  5
36C
330
2
100
AcDbEntity
  8
0
100
AcDbLine
 10
19.98553125879998
 20
-0.7371408579000032
 30
0.0
 11
19.88505436119998
 21
-1.472399483499999
 31
0.0
  0
LINE
  5
36D
330
2
100
AcDbEntity
  8
0
100
AcDbLine
 10
19.44090073239999
 20
-4.804848733100003
 30
0.0
 11
19.36265319479999
 21
-5.375206494700004
 31
0.0
  0
LINE
  5
36E
330
2
100
AcDbEntity
  8
0
100
AcDbLine
 10
19.3626621948
 20
-5.375141673900005
 30
0.0
 11
19.2886675484
 21
-5.901328705900001
 31
0.0
  0
LWPOLYLINE
  5
36F
330
2
100
AcDbEntity
  8
0
100
AcDbPolyline
 90
        4
 70
     0
 43
0.0
 10
20.30721535
 20
1.548427553300001
 10
20.19707482999999
 20
0.7764687212999988
 10
20.0896696108
 20
0.0134510317000007
 10
19.98553125879999
 20
-0.7371408579000019
  0
LINE
  5
370
330
2
100
AcDbEntity
  8
0
100
AcDbLine
 10
19.2886768332
 20
-5.901263577900005
 30
0.0
 11
19.22041351
 21
-6.373486637100002
 31
0.0
  0
LINE
  5
371
330
2
100
AcDbEntity
  8
0
100
AcDbLine
 10
19.2204226956
 20
-6.3734240099
 30
0.0
 11
19.16083386519999
 21
-6.774165123500006
 31
0.0
  0
LINE
  5
372
330
2
100
AcDbEntity
  8
0
100
AcDbLine
 10
19.16084238679999
 20
-6.774108614700006
 30
0.0
 11
19.11296768279998
 21
-7.087758417900007
 31
0.0
  0
LWPOLYLINE
  5
373
330
2
100
AcDbEntity
  8
0
100
AcDbPolyline
 90
        3
 70
     0
 43
0.0
 10
19.1129747772
 20
-7.087712528300002
 10
19.08040607320001
 20
-7.296383309100001
 10
19.06639739159999
 20
-7.384619833900003
  0
LINE
  5
374
330
2
100
AcDbEntity
  8
0
100
AcDbLine
 10
19.07561642199999
 20
-7.3904770419
 30
0.0
 11
19.08984880759998
 21
-7.302623459500006
 31
0.0
  0
LWPOLYLINE
  5
375
330
2
100
AcDbEntity
  8
0
100
AcDbPolyline
 90
        4
 70
     0
 43
0.0
 10
19.06639656600001
 20
-7.384624992300004
 10
19.0906596156
 20
-7.235306075499998
 10
19.11792418679999
 20
-7.068935318699999
 10
19.15093518200001
 20
-6.868938790699999
  0
LINE
  5
376
330
2
100
AcDbEntity
  8
0
100
AcDbLine
 10
19.08984880759998
 20
-7.302623459500006
 30
0.0
 11
19.1046787964
 21
-7.211665256300003
 31
0.0
  0
LINE
  5
377
330
2
100
AcDbEntity
  8
0
100
AcDbLine
 10
19.1046787964
 20
-7.211665256300003
 30
0.0
 11
19.12392481559998
 21
-7.094202670700001
 31
0.0
  0
LINE
  5
378
330
2
100
AcDbEntity
  8
0
100
AcDbLine
 10
19.12392481559998
 20
-7.094202670700001
 30
0.0
 11
19.1469082508
 21
-6.954641566700006
 31
0.0
  0
LINE
  5
379
330
2
100
AcDbEntity
  8
0
100
AcDbLine
 10
19.1469082508
 20
-6.954641566700006
 30
0.0
 11
19.17263494839999
 21
-6.799264054700005
 31
0.0
  0
LINE
  5
37A
330
2
100
AcDbEntity
  8
0
100
AcDbLine
 10
19.150935182
 20
-6.868938790700001
 30
0.0
 11
19.1887460828
 21
-6.641578069100001
 31
0.0
  0
LINE
  5
37B
330
2
100
AcDbEntity
  8
0
100
AcDbLine
 10
19.17263494839999
 20
-6.799264054700005
 30
0.0
 11
19.19942173559999
 21
-6.638346040300001
 31
0.0
  0
LINE
  5
37C
330
2
100
AcDbEntity
  8
0
100
AcDbLine
 10
19.19942173559999
 20
-6.638346040300001
 30
0.0
 11
19.22631947799998
 21
-6.477575123500004
 31
0.0
  0
LINE
  5
37D
330
2
100
AcDbEntity
  8
0
100
AcDbLine
 10
19.18873963640001
 20
-6.641616677100005
 30
0.0
 11
19.23989511639998
 21
-6.336422841900004
 31
0.0
  0
LINE
  5
37E
330
2
100
AcDbEntity
  8
0
100
AcDbLine
 10
19.22631947799998
 20
-6.477575123500004
 30
0.0
 11
19.2610878236
 21
-6.270526971500006
 31
0.0
  0
LINE
  5
37F
330
2
100
AcDbEntity
  8
0
100
AcDbLine
 10
19.23988526039999
 20
-6.336481496300004
 30
0.0
 11
19.3130628892
 21
-5.901736341100006
 31
0.0
  0
LWPOLYLINE
  5
380
330
2
100
AcDbEntity
  8
0
100
AcDbPolyline
 90
        3
 70
     0
 43
0.0
 10
19.2610878236
 20
-6.270526971500004
 10
19.30856541400001
 20
-5.988469971500002
 10
19.33647761879998
 20
-5.822848166699998
  0
LINE
  5
381
330
2
100
AcDbEntity
  8
0
100
AcDbLine
 10
19.3130512124
 20
-5.901805632300005
 30
0.0
 11
19.40129020919999
 21
-5.378504371500001
 31
0.0
  0
LINE
  5
382
330
2
100
AcDbEntity
  8
0
100
AcDbLine
 10
19.33647761879998
 20
-5.8228481667
 30
0.0
 11
19.40000179319999
 21
-5.446224213100004
 31
0.0
  0
LINE
  5
383
330
2
100
AcDbEntity
  8
0
100
AcDbLine
 10
19.40127781719999
 20
-5.378577824300004
 30
0.0
 11
19.50286173399998
 21
-4.776940560300007
 31
0.0
  0
LINE
  5
384
330
2
100
AcDbEntity
  8
0
100
AcDbLine
 10
19.40000179319999
 20
-5.446224213100004
 30
0.0
 11
19.4733886188
 21
-5.011497009900006
 31
0.0
  0
LWPOLYLINE
  5
385
330
2
100
AcDbEntity
  8
0
100
AcDbPolyline
 90
       20
 70
     0
 43
0.0
 10
19.47338861880001
 20
-5.011497009900004
 10
19.55724298359999
 20
-4.515364670700002
 10
19.60375278200001
 20
-4.240622309100004
 10
19.65346547800001
 20
-3.947446419500003
 10
19.70614705080001
 20
-3.637459837100003
 10
19.7615505052
 20
-3.312426990700004
 10
19.81957715000001
 20
-2.973335088300004
 10
19.8802197468
 20
-2.620731925100002
 10
19.94348174040001
 20
-2.255194576299999
 10
20.00937018199999
 20
-1.877367510700004
 10
20.0778485436
 20
-1.488020771500004
 10
20.14891293400001
 20
-1.0874804691
 10
20.2227231532
 20
-0.675152166700002
 10
20.29948605399999
 20
-0.2502193907000034
 10
20.3793924652
 20
0.1881325836999963
 10
20.46261351160001
 20
0.6407163693000016
 10
20.54933351479999
 20
1.108421830099999
 10
20.6397427148
 20
1.592175546899994
 10
20.73402588760001
 20
2.092885655700001
 10
20.8156847388
 20
2.523748497299997
  0
LINE
  5
386
330
2
100
AcDbEntity
  8
0
100
AcDbLine
 10
19.5028492732
 20
-4.777014296300004
 30
0.0
 11
19.6158307068
 21
-4.1094427603
 31
0.0
  0
LINE
  5
387
330
2
100
AcDbEntity
  8
0
100
AcDbLine
 10
19.61581893879999
 20
-4.109512166700001
 30
0.0
 11
19.73819163959998
 21
-3.389884448300003
 31
0.0
  0
LINE
  5
388
330
2
100
AcDbEntity
  8
0
100
AcDbLine
 10
19.73818104279998
 20
-3.389946552300004
 30
0.0
 11
19.86853458519998
 21
-2.629807133100003
 31
0.0
  0
LINE
  5
389
330
2
100
AcDbEntity
  8
0
100
AcDbLine
 10
19.8685254588
 20
-2.629860054700004
 30
0.0
 11
20.00659598999998
 21
-1.835112233899999
 31
0.0
  0
LWPOLYLINE
  5
38A
330
2
100
AcDbEntity
  8
0
100
AcDbPolyline
 90
        6
 70
     0
 43
0.0
 10
20.0065885676
 20
-1.835154613100002
 10
20.15255385559999
 20
-1.009861736300003
 10
20.3061741324
 20
-0.1575577234999983
 10
20.4667962492
 20
0.7182977852999955
 10
20.6336811388
 20
1.614123642899997
 10
20.8058618508
 20
2.525623113299999
  0
LWPOLYLINE
  5
38B
330
2
100
AcDbEntity
  8
0
100
AcDbPolyline
 90
        7
 70
     0
 43
0.0
 10
20.81570447800001
 20
2.523837057299999
 10
20.82050732600001
 20
2.546719332499996
 10
20.82853430200001
 20
2.577585689300001
 10
20.83653286680001
 20
2.602649324499999
 10
20.84405237399999
 20
2.622749274899994
 10
20.85079997720001
 20
2.638633956500001
 10
20.85658978840001
 20
2.650919975699999
  0
LWPOLYLINE
  5
38C
330
2
100
AcDbEntity
  8
0
100
AcDbPolyline
 90
        8
 70
     0
 43
0.0
 10
20.80589274999999
 20
2.525769607699999
 10
20.81848786360001
 20
2.578939708499994
 10
20.83016430680001
 20
2.614661041299996
 10
20.84005145399999
 20
2.639203953299997
 10
20.8479429388
 20
2.656082158099998
 10
20.85375373400001
 20
2.6671924941
 10
20.85758222359999
 20
2.673903929299996
 10
20.8595554172
 20
2.6771356685
  0
LWPOLYLINE
  5
38D
330
2
100
AcDbEntity
  8
0
  6
HIDDEN
 48
0.5
100
AcDbPolyline
 90
        4
 70
     0
 43
0.0
 10
22.44611814839998
 20
5.986827799699995
 10
22.4485256284
 20
5.994858534099996
 10
22.4507164828
 20
5.999669247699998
 10
22.4526356636
 20
6.001162729299998
  0
LINE
  5
38E
330
2
100
AcDbEntity
  8
0
100
AcDbLine
 10
16.28951935159999
 20
-11.3493695539
 30
0.0
 11
16.30660337879998
 21
-11.3019200291
 31
0.0
  0
LWPOLYLINE
  5
38F
330
2
100
AcDbEntity
  8
0
100
AcDbPolyline
 90
       10
 70
     0
 43
0.0
 10
21.84007583639999
 20
3.282928106899994
 10
21.8211488172
 20
3.2362095517
 10
21.7959713628
 20
3.192526602899995
 10
21.76502166520001
 20
3.152718889299997
 10
21.72888996759999
 20
3.117556446099996
 10
21.68826942679999
 20
3.087723556499994
 10
21.6439422908
 20
3.063802663699995
 10
21.59676519640001
 20
3.0462621757
 10
21.5476535644
 20
3.035446436499995
 10
21.49756065080001
 20
3.031567276499998
  0
LINE
  5
390
330
2
100
AcDbEntity
  8
0
100
AcDbLine
 10
16.03529612759998
 20
-10.9235960643
 30
0.0
 11
15.98136836599999
 21
-11.0510706467
 31
0.0
  0
LINE
  5
391
330
2
100
AcDbEntity
  8
0
100
AcDbLine
 10
21.01133461399998
 20
-1.291255817900002
 30
0.0
 11
20.8864540588
 21
-1.4619293811
 31
0.0
  0
LWPOLYLINE
  5
392
330
2
100
AcDbEntity
  8
0
100
AcDbPolyline
 90
        8
 70
     0
 43
0.0
 10
20.88684031159999
 20
-1.461488193900002
 10
20.86321903800001
 20
-1.488330321900001
 10
20.84682604119998
 20
-1.505715982700003
 10
20.8268741084
 20
-1.525228603500003
 10
20.80281009559999
 20
-1.5470049603
 10
20.77240681239999
 20
-1.572380265900001
 10
20.73406811160001
 20
-1.601944608300001
 10
20.68864396119999
 20
-1.634508787500003
  0
LINE
  5
393
330
2
100
AcDbEntity
  8
0
100
AcDbLine
 10
21.41685863
 20
-1.280344741100003
 30
0.0
 11
21.4177954316
 21
-1.279294761900005
 31
0.0
  0
LINE
  5
394
330
2
100
AcDbEntity
  8
0
100
AcDbLine
 10
21.4219560044
 20
-1.274751651500005
 30
0.0
 11
21.4177954316
 21
-1.279294761900005
 31
0.0
  0
LWPOLYLINE
  5
395
330
2
100
AcDbEntity
  8
0
100
AcDbPolyline
 90
       15
 70
     0
 43
0.0
 10
20.8632021548
 20
-1.4883489459
 10
20.8468118572
 20
-1.505730424300004
 10
20.82685807320001
 20
-1.525243710700003
 10
20.80279207960001
 20
-1.547020640300004
 10
20.77238626999999
 20
-1.572396757100001
 10
20.73404560919999
 20
-1.601961329899999
 10
20.68862112760001
 20
-1.634524614699998
 10
20.63845665880001
 20
-1.668193989100004
 10
20.5856496108
 20
-1.701588424299998
 10
20.53297130679999
 20
-1.733155379500004
 10
20.48361927639999
 20
-1.7612931699
 10
20.4387590732
 20
-1.785628363500002
 10
20.3961518428
 20
-1.8075552723
 10
20.36031694199999
 20
-1.824966118700004
 10
20.35683651799999
 20
-1.826579413099999
  0
LINE
  5
396
330
2
100
AcDbEntity
  8
0
100
AcDbLine
 10
11.87924652919999
 20
-11.0568886739
 30
0.0
 11
11.52534358199999
 21
-11.4107916211
 31
0.0
  0
LINE
  5
397
330
2
100
AcDbEntity
  8
0
100
AcDbLine
 10
11.88631741079998
 20
-11.0639599283
 30
0.0
 11
11.53241464919999
 21
-11.4178626899
 31
0.0
  0
LINE
  5
398
330
2
100
AcDbEntity
  8
0
100
AcDbLine
 10
11.8863176748
 20
-11.0639596515
 30
0.0
 11
11.88953727479999
 21
-11.0608000419
 31
0.0
  0
LWPOLYLINE
  5
399
330
2
100
AcDbEntity
  8
0
100
AcDbPolyline
 90
       10
 70
     0
 43
0.0
 10
11.8895372748
 20
-11.0608000419
 10
11.90354392759999
 20
-11.0483285715
 10
11.91777422519999
 20
-11.03748676189999
 10
11.93206054040001
 20
-11.02816438909999
 10
11.946223798
 20
-11.02026592989999
 10
11.96009495320001
 20
-11.01368832029999
 10
11.97348510360001
 20
-11.0083316883
 10
11.98590593560001
 20
-11.0041756051
 10
11.99676590199999
 20
-11.0011505347
 10
12.00425145080001
 20
-10.9994129123
  0
LWPOLYLINE
  5
39A
330
2
100
AcDbEntity
  8
0
100
AcDbPolyline
 90
        3
 70
     0
 43
0.0
 10
11.87918944439999
 20
-11.0569457523
 10
11.90231061880001
 20
-11.0365059267
 10
11.92727660279999
 20
-11.0193722611
  0
LWPOLYLINE
  5
39B
330
2
100
AcDbEntity
  8
0
100
AcDbPolyline
 90
        5
 70
     0
 43
0.0
 10
11.87924671639999
 20
-11.0568884755
 10
11.9184102636
 20
-11.02495288029999
 10
11.96038397719999
 20
-11.0027027139
 10
11.99960186039999
 20
-10.99017947709999
 10
12.02355947
 20
-10.9859351011
  0
LWPOLYLINE
  5
39C
330
2
100
AcDbEntity
  8
0
100
AcDbPolyline
 90
        5
 70
     0
 43
0.0
 10
11.87924673719999
 20
-11.0568884531
 10
11.91900642999999
 20
-11.0245611587
 10
11.9616677964
 20
-11.00217610749999
 10
12.0009389116
 20
-10.98987631549999
 10
12.02444677080001
 20
-10.9858268739
  0
LWPOLYLINE
  5
39F
330
2
100
AcDbEntity
  8
0
100
AcDbPolyline
 90
       16
 70
     0
 43
0.0
 10
10.07712028119999
 20
11.13678155809999
 10
8.740487934000015
 20
11.11722052129999
 10
7.315981001200015
 20
11.08954184769999
 10
5.783480961200012
 20
11.0421823517
 10
4.154690687600009
 20
10.95836134849999
 10
2.394888366000003
 20
10.81542842049999
 10
0.6901930635999918
 20
10.62142130689999
 10
-0.7154800691999981
 20
10.41581284769999
 10
-1.794450917200009
 20
10.21825209729999
 10
-2.592289918799991
 20
10.0298855021
 10
-3.172076646800007
 20
9.8489423181
 10
-3.604111606799989
 20
9.670516172500001
 10
-3.944817267600001
 20
9.485909966099995
 10
-4.217259344399991
 20
9.293090300499997
 10
-4.406164088400004
 20
9.1179545309
 10
-4.500263683535817
 20
8.984735073299999
  0
LWPOLYLINE
  5
3A0
330
2
100
AcDbEntity
  8
0
100
AcDbPolyline
 90
       15
 70
     0
 43
0.0
 10
10.07712027639999
 20
11.13856199809999
 10
8.757125665199993
 20
11.11955000289999
 10
7.352290487600015
 20
11.0918388205
 10
5.837647372399999
 20
11.0441671517
 10
4.227754665199995
 20
10.96278052929999
 10
2.522379122800003
 20
10.8306436461
 10
0.8631640588000095
 20
10.64880852609999
 10
-0.59511306120001
 20
10.43412991969999
 10
-1.846737333199996
 20
10.19444828769999
 10
-2.881098069199993
 20
9.930641044499999
 10
-3.587951849999996
 20
9.678694614099995
 10
-4.027286864399997
 20
9.4628019469
 10
-4.311881037200009
 20
9.2587415757
 10
-4.467976529999987
 20
9.067904522900001
 10
-4.500732487864764
 20
8.984735073299999
  0
LWPOLYLINE
  5
3A4
330
2
100
AcDbEntity
  8
0
100
AcDbPolyline
 90
       30
 70
     0
 43
0.0
 10
20.70587336919999
 20
0.5125851644999955
 10
20.7265603628
 20
0.475158526099996
 10
20.74749062520001
 20
0.4371248972999951
 10
20.76869973719999
 20
0.3983137453000012
 10
20.78985236279998
 20
0.3592345548999987
 10
20.81070542040001
 20
0.3202525852999969
 10
20.83247723799999
 20
0.2789655612999979
 10
20.85677389720001
 20
0.2320181452999961
 10
20.88363319960001
 20
0.1787798508999998
 10
20.9116751484
 20
0.121317289299995
 10
20.93944497719999
 20
0.0619693452999997
 10
20.965523174
 20
0.003384972500001
 10
20.98857508439999
 20
-0.0514404595000002
 10
21.00771543959999
 20
-0.0997773683000034
 10
21.02368435959999
 20
-0.1425494835000052
 10
21.03768899639999
 20
-0.1823105539000025
 10
21.05076454519999
 20
-0.2217760739000028
 10
21.06332345879999
 20
-0.262335496300004
 10
21.07515010840001
 20
-0.3035473378999995
 10
21.08610279480001
 20
-0.345046713900004
 10
21.09616507480001
 20
-0.3868508131000041
 10
21.10568283
 20
-0.4307641474999997
 10
21.11501196439999
 20
-0.4797027075000031
 10
21.12415263159999
 20
-0.5366006930999987
 10
21.13233693719999
 20
-0.6016859523000023
 10
21.1385105564
 20
-0.6733576403000044
 10
21.1417518348
 20
-0.7493606259000032
 10
21.14148714360001
 20
-0.8266379874999998
 10
21.13760177079999
 20
-0.9032134322999993
 10
21.13013327480001
 20
-0.9788363219000046
  0
LWPOLYLINE
  5
3A5
330
2
100
AcDbEntity
  8
0
100
AcDbPolyline
 90
       14
 70
     0
 43
0.0
 10
21.42739638200001
 20
1.171006127699996
 10
21.45572458520001
 20
1.118954442899998
 10
21.4846897724
 20
1.065459942099998
 10
21.51341698359999
 20
1.011936649299997
 10
21.54106357399999
 20
0.9597725468999982
 10
21.5683778332
 20
0.9073668540999975
 10
21.5966867196
 20
0.8518398300999976
 10
21.6272473452
 20
0.7900619917000001
 10
21.66013546199999
 20
0.7207379724999968
 10
21.69275907479999
 20
0.6481518444999992
 10
21.72341413879999
 20
0.5753260060999992
 10
21.75227677559999
 20
0.5010720156999966
 10
21.77914526040001
 20
0.4246846476999977
 10
21.7957030908
 20
0.3726571020999998
  0
LWPOLYLINE
  5
3A6
330
2
100
AcDbEntity
  8
0
100
AcDbPolyline
 90
        9
 70
     0
 43
0.0
 10
20.50687408120001
 20
0.8794261180999995
 10
20.5094634028
 20
0.8743336060999951
 10
20.5337175212
 20
0.827745002899995
 10
20.5589050236
 20
0.7803131084999962
 10
20.58345094360001
 20
0.7347891164999965
 10
20.60583277879999
 20
0.6937250044999957
 10
20.6257503676
 20
0.6574393100999956
 10
20.6450470764
 20
0.6224459980999982
 10
20.70587336919999
 20
0.5125851644999955
  0
LWPOLYLINE
  5
3A7
330
2
100
AcDbEntity
  8
0
100
AcDbPolyline
 90
       10
 70
     0
 43
0.0
 10
21.1479703436
 20
1.719099364499996
 10
21.15084946999999
 20
1.712368249299998
 10
21.17721231160001
 20
1.6530877613
 10
21.20696713239999
 20
1.589944135700001
 10
21.23993328279999
 20
1.523094164500001
 10
21.27592122359999
 20
1.452706759699999
 10
21.31201772759999
 20
1.384069039700001
 10
21.34436111159999
 20
1.323731244499995
 10
21.3731307756
 20
1.270615799699996
 10
21.42739638200001
 20
1.171006127699996
  0
LINE
  5
3A8
330
2
100
AcDbEntity
  8
0
100
AcDbLine
 10
21.1282923228
 20
1.766877154899999
 30
0.0
 11
21.14797034359999
 21
1.719099364499995
 31
0.0
  0
LINE
  5
3A9
330
2
100
AcDbEntity
  8
0
100
AcDbLine
 10
21.41738310199999
 20
-1.274386080300005
 30
0.0
 11
21.41685863
 21
-1.280344741100003
 31
0.0
  0
LINE
  5
3AA
330
2
100
AcDbEntity
  8
0
100
AcDbLine
 10
20.36091978999999
 20
-7.353655705900004
 30
0.0
 11
20.6912860236
 21
-4.459273582700001
 31
0.0
  0
LWPOLYLINE
  5
3AB
330
2
100
AcDbEntity
  8
0
100
AcDbPolyline
 90
        4
 70
     0
 43
0.0
 10
20.37079898039999
 20
-7.354926568300001
 10
20.42829059799998
 20
-6.8815904243
 10
20.6353941932
 20
-5.051014557100003
 10
20.8689090444
 20
-3.020856553900003
  0
LINE
  5
3AC
330
2
100
AcDbEntity
  8
0
100
AcDbLine
 10
20.69128061079998
 20
-4.459321787500003
 30
0.0
 11
21.11856179159999
 21
-0.9906050531000062
 31
0.0
  0
LWPOLYLINE
  5
3AD
330
2
100
AcDbEntity
  8
0
100
AcDbPolyline
 90
       28
 70
     0
 43
0.0
 10
21.13016459799999
 20
-0.9933587235000018
 10
21.13238493560001
 20
-0.9755924562999993
 10
21.13981565080001
 20
-0.8967888291000036
 10
21.143451854
 20
-0.8130464675000013
 10
21.14259897400001
 20
-0.7239923715000032
 10
21.13633050199999
 20
-0.6276368051000035
 10
21.12374481399999
 20
-0.5251662403000026
 10
21.1050771436
 20
-0.4221612963000041
 10
21.08125589560001
 20
-0.3221694082999988
 10
21.05319305719999
 20
-0.2262156723000004
 10
21.02197578199999
 20
-0.1351667347000003
 10
20.9889094348
 20
-0.0498761699000028
 10
20.95458965400001
 20
0.0305317708999979
 10
20.91876856280001
 20
0.1084907452999957
 10
20.88177341720001
 20
0.1845386269000002
 10
20.84460427639999
 20
0.2576774380999964
 10
20.80783957560001
 20
0.327635066900001
 10
20.77172573079999
 20
0.3946883117000013
 10
20.73593747640001
 20
0.4600396972999974
 10
20.70027754040001
 20
0.5246111100999969
 10
20.6662041644
 20
0.5861843516999983
 10
20.6351369308
 20
0.6424568941000004
 10
20.60742248279999
 20
0.6929497661
 10
20.582967542
 20
0.7378853804999963
 10
20.56081434840001
 20
0.7790406812999962
 10
20.53983343800001
 20
0.8185392540999956
 10
20.519384798
 20
0.8576605420999996
 10
20.50723351319999
 20
0.8813646396999956
  0
LINE
  5
3AE
330
2
100
AcDbEntity
  8
0
100
AcDbLine
 10
21.1301332748
 20
-0.9788363219000061
 30
0.0
 11
20.86890904439999
 21
-3.020856553900004
 31
0.0
  0
LINE
  5
3AF
330
2
100
AcDbEntity
  8
0
100
AcDbLine
 10
21.12205338359998
 20
-1.047967648300003
 30
0.0
 11
21.13016459799998
 21
-0.9933587235000032
 31
0.0
  0
LINE
  5
3B0
330
2
100
AcDbEntity
  8
0
100
AcDbLine
 10
21.11961389879998
 20
-1.060919897900001
 30
0.0
 11
21.12205338359998
 21
-1.047967648300003
 31
0.0
  0
LINE
  5
3B1
330
2
100
AcDbEntity
  8
0
100
AcDbLine
 10
18.90066128279999
 20
-9.331317649900002
 30
0.0
 11
18.9207275724
 21
-9.231884289900003
 31
0.0
  0
LWPOLYLINE
  5
3B2
330
2
100
AcDbEntity
  8
0
100
AcDbPolyline
 90
       26
 70
     0
 43
0.0
 10
18.91046508280001
 20
-9.333288601900001
 10
18.93854621080001
 20
-9.1941936483
 10
18.9539883484
 20
-9.118052437100004
 10
18.9688150268
 20
-9.0452048259
 10
18.98303162999999
 20
-8.9756730179
 10
18.9966592236
 20
-8.909440184300002
 10
19.00970456920001
 20
-8.846534435500004
 10
19.022178462
 20
-8.786939891500004
 10
19.0341012892
 20
-8.730558910700004
 10
19.04548175959999
 20
-8.677330253100002
 10
19.05632445079999
 20
-8.627206325100004
 10
19.06662724919999
 20
-8.580164664299999
 10
19.07638757879999
 20
-8.536179531500003
 10
19.0856049132
 20
-8.495211614700004
 10
19.09428023000001
 20
-8.457209592300003
 10
19.1024160556
 20
-8.422110232299999
 10
19.11002014359999
 20
-8.389824205099998
 10
19.11708454200001
 20
-8.360327297899999
 10
19.12359043
 20
-8.333642851500002
 10
19.1295402076
 20
-8.309699979500003
 10
19.13493169080001
 20
-8.288439075500001
 10
19.13975288119999
 20
-8.269830886699999
 10
19.14398846200001
 20
-8.253848963500004
 10
19.14762214999998
 20
-8.240460403500001
 10
19.15063648119999
 20
-8.229626861100001
 10
19.15301310360001
 20
-8.221303790699998
  0
LINE
  5
3B3
330
2
100
AcDbEntity
  8
0
100
AcDbLine
 10
18.9207275724
 20
-9.231884289900003
 30
0.0
 11
18.94027393719999
 21
-9.1353788323
 31
0.0
  0
LINE
  5
3B4
330
2
100
AcDbEntity
  8
0
100
AcDbLine
 10
18.94027393719999
 20
-9.1353788323
 30
0.0
 11
18.95919718519999
 21
-9.042302771500006
 31
0.0
  0
LWPOLYLINE
  5
3B5
330
2
100
AcDbEntity
  8
0
100
AcDbPolyline
 90
      162
 70
     0
 43
0.0
 10
18.95919718519999
 20
-9.042302771500004
 10
18.97749138360001
 20
-8.952902721900002
 10
18.9864104156
 20
-8.909603440300003
 10
18.9951814524
 20
-8.867245390699999
 10
19.00380735640001
 20
-8.825832582700002
 10
19.01229327640001
 20
-8.785355486699998
 10
19.02063223479999
 20
-8.745856353900002
 10
19.02880203
 20
-8.707445857900005
 10
19.03678936599999
 20
-8.670189254699998
 10
19.0445846796
 20
-8.634131741099999
 10
19.05217859160001
 20
-8.599315216299999
 10
19.05956222200001
 20
-8.5657768883
 10
19.06672711160001
 20
-8.533549643500002
 10
19.07366513080001
 20
-8.502662480300003
 10
19.08036837240001
 20
-8.473140984300002
 10
19.08682903799999
 20
-8.445007857900002
 10
19.09303932279999
 20
-8.418283355500001
 10
19.0989917068
 20
-8.392984027499998
 10
19.10466964439999
 20
-8.369161885099998
 10
19.11004929239999
 20
-8.3468985971
 10
19.1151161756
 20
-8.326233320299998
 10
19.11985836280001
 20
-8.307189067500004
 10
19.1242623276
 20
-8.289789622699998
 10
19.12831344919999
 20
-8.274057109099999
 10
19.13199716599999
 20
-8.2600072643
 10
19.13529984760001
 20
-8.247646320299999
 10
19.13820744759999
 20
-8.236976329900002
 10
19.14070612919999
 20
-8.227992953899999
 10
19.142784398
 20
-8.220678333100003
 10
19.144428782
 20
-8.215016953900004
 10
19.14562158839999
 20
-8.211002595499998
 10
19.14634593560001
 20
-8.2086206787
 10
19.14658578840001
 20
-8.207848787500005
 10
19.1463259996
 20
-8.208657217900004
 10
19.14555228919999
 20
-8.211009809899998
 10
19.1442511788
 20
-8.214864851500003
 10
19.14240971
 20
-8.220176619500001
 10
19.1400043772
 20
-8.226926742700001
 10
19.13700624119999
 20
-8.235107521900005
 10
19.13340067960001
 20
-8.244667944300005
 10
19.129175398
 20
-8.255549507499999
 10
19.1243165292
 20
-8.267697072300002
 10
19.11880823320001
 20
-8.281059542699999
 10
19.11263123
 20
-8.295592862700004
 10
19.10577987479999
 20
-8.311220701100005
 10
19.09827252440001
 20
-8.327816968299998
 10
19.0901265228
 20
-8.345266781100001
 10
19.0813582284
 20
-8.363465680300002
 10
19.07198766359999
 20
-8.382309656300002
 10
19.06203759480001
 20
-8.401697592300003
 10
19.05153319960001
 20
-8.421532171500004
 10
19.04050196439999
 20
-8.441720134699998
 10
19.02897212280001
 20
-8.462175046700004
 10
19.01696599160001
 20
-8.482829104300002
 10
19.00451055159999
 20
-8.503616430699999
 10
18.99164733399999
 20
-8.5244545635
 10
18.97842202679998
 20
-8.545262342699999
 10
18.9648829404
 20
-8.5659623795
 10
18.95106539799999
 20
-8.586503696299999
 10
18.93699056599999
 20
-8.606860125099998
 10
18.92267577239999
 20
-8.627012909100002
 10
18.90814015480001
 20
-8.6469422483
 10
18.893406166
 20
-8.666625451500003
 10
18.87849470520001
 20
-8.686043662700001
 10
18.86342553400001
 20
-8.705180963499998
 10
18.84821729079999
 20
-8.724024078700004
 10
18.8328875228
 20
-8.742562110699999
 10
18.817452742
 20
-8.7607862531
 10
18.80192863159999
 20
-8.778689379500001
 10
18.78632595479999
 20
-8.7962704595
 10
18.77065038040001
 20
-8.813534101100003
 10
18.75491002839999
 20
-8.830481933100003
 10
18.73911366839999
 20
-8.847114816299999
 10
18.72326936440001
 20
-8.863434325100001
 10
18.70738466840001
 20
-8.879442501100001
 10
18.69146666360001
 20
-8.8951417763
 10
18.67552199479999
 20
-8.910534917100001
 10
18.65955690039999
 20
-8.925624966699999
 10
18.6435772412
 20
-8.940415206700002
 10
18.62758852280001
 20
-8.954909112300001
 10
18.6115959148
 20
-8.969110329900004
 10
18.59560427479999
 20
-8.983022633899999
 10
18.57961821239999
 20
-8.996649877100004
 10
18.56364170680001
 20
-9.009996293100002
 10
18.54767731000001
 20
-9.023067281900004
 10
18.5317275884
 20
-9.035868430699999
 10
18.515796206
 20
-9.048404275500004
 10
18.49988656600001
 20
-9.0606793699
 10
18.48400187000001
 20
-9.072698232299998
 10
18.46814514039999
 20
-9.084465331499998
 10
18.45231923
 20
-9.095985089900004
 10
18.43652682359999
 20
-9.1072618755
 10
18.4207704524
 20
-9.118300000300003
 10
18.40505249400001
 20
-9.129103713900001
 10
18.3893751884
 20
-9.1396772099
 10
18.37374063480001
 20
-9.150024617900001
 10
18.35815080119999
 20
-9.160150001899999
 10
18.34260752599999
 20
-9.1700573683
 10
18.327112526
 20
-9.179750653100001
 10
18.31166738199999
 20
-9.189233739500004
 10
18.29627349079999
 20
-9.198510483500001
 10
18.28093229559999
 20
-9.2075845811
 10
18.26564546360001
 20
-9.216459469100001
 10
18.25041454840001
 20
-9.225138544300001
 10
18.23524095479999
 20
-9.233625174700001
 10
18.22012592760001
 20
-9.241922710700002
 10
18.20507054680001
 20
-9.250034478700001
 10
18.1900757164
 20
-9.257963789100003
 10
18.1751421564
 20
-9.265713939500002
 10
18.16027038199999
 20
-9.273288213100002
 10
18.1454607116
 20
-9.280689886700002
 10
18.1307132492
 20
-9.287922216300003
 10
18.11602789720001
 20
-9.294988445100003
 10
18.10140434999999
 20
-9.301891790700004
 10
18.08684210999999
 20
-9.308635441900001
 10
18.0723405004
 20
-9.315222545899999
 10
18.05789868280001
 20
-9.321656203500005
 10
18.0435156684
 20
-9.327939457900001
 10
18.02919030199999
 20
-9.3340753027
 10
18.01492184439999
 20
-9.340066440299999
 10
18.000710806
 20
-9.3459149603
 10
17.98655828759999
 20
-9.351622664300002
 10
17.97246527000001
 20
-9.3571913651
 10
17.95843272600001
 20
-9.362622845099998
 10
17.94446163
 20
-9.3679188531
 10
17.93055298679999
 20
-9.373081097899998
 10
17.91670718520001
 20
-9.378111499500001
 10
17.90292426999999
 20
-9.383012232300004
 10
17.88920530039999
 20
-9.387785181099999
 10
17.87555162360001
 20
-9.392432094699998
 10
17.86196455480001
 20
-9.3969547091
 10
17.84844542199999
 20
-9.401354734699999
 10
17.8349955628
 20
-9.405633854699999
 10
17.82161631799999
 20
-9.409793729900002
 10
17.8083090396
 20
-9.413836001900001
 10
17.79507509079999
 20
-9.417762289900004
 10
17.7819158364
 20
-9.4215741987
 10
17.76883265399999
 20
-9.4252733139
 10
17.75582692919999
 20
-9.428861205099998
 10
17.74290005560001
 20
-9.432339429100004
 10
17.73005336759999
 20
-9.435709547500003
 10
17.71728872119999
 20
-9.4389729795
 10
17.704610078
 20
-9.442130629099999
 10
17.69202315960001
 20
-9.445183037100001
 10
17.67953370200001
 20
-9.448130845100003
 10
17.667147438
 20
-9.450974800300002
 10
17.65487012279999
 20
-9.453715739500005
 10
17.6427075324
 20
-9.456354595500002
 10
17.63066545719999
 20
-9.458892397100001
 10
17.6187497036
 20
-9.461330261100002
 10
17.6069660924
 20
-9.463669395499998
 10
17.59532045720001
 20
-9.465911101100004
 10
17.58381832119999
 20
-9.468056821099999
 10
17.5724662524
 20
-9.470107893099999
 10
17.56129226359999
 20
-9.472061963500003
 10
17.5503428092
 20
-9.473913925099999
 10
17.53965046839999
 20
-9.475661793900002
 10
17.5292471708
 20
-9.477304269100002
 10
17.51916853880001
 20
-9.478840027499998
 10
17.5094626828
 20
-9.480266478700002
 10
17.50020546999999
 20
-9.481577883500001
 10
17.49162694840001
 20
-9.482748931500005
  0
LWPOLYLINE
  5
3B6
330
2
100
AcDbEntity
  8
0
  6
HIDDEN
 48
0.5
100
AcDbPolyline
 90
       18
 70
     0
 43
0.0
 10
22.96318180279999
 20
5.219146230100001
 10
22.96580071639999
 20
5.230567895699998
 10
22.96856124920001
 20
5.2449809533
 10
22.97141922520001
 20
5.262191116499998
 10
22.974291182
 20
5.281700980499998
 10
22.97712046360001
 20
5.303090815699995
 10
22.9798892764
 20
5.326226489299997
 10
22.98255296440001
 20
5.350787351699999
 10
22.98502964920001
 20
5.3760434605
 10
22.98726724600001
 20
5.401432393299998
 10
22.98924897239999
 20
5.426761974099996
 10
22.9909394668
 20
5.451651902099996
 10
22.9922830076
 20
5.475318937299995
 10
22.9932533452
 20
5.497220625299995
 10
22.99384569880001
 20
5.5171960909
 10
22.9940458252
 20
5.534942326100001
 10
22.993844894
 20
5.549902746899995
 10
22.9932551404
 20
5.561768193299997
  0
LWPOLYLINE
  5
3B7
330
2
100
AcDbEntity
  8
0
  6
HIDDEN
 48
0.5
100
AcDbPolyline
 90
       19
 70
     0
 43
0.0
 10
22.41645211639999
 20
5.642813975700001
 10
22.4190199788
 20
5.653852590100001
 10
22.421733262
 20
5.667832228499996
 10
22.42455261559999
 20
5.684598548499998
 10
22.42739584919999
 20
5.703681153299996
 10
22.43019975000001
 20
5.724623870099996
 10
22.4329424572
 20
5.747250121299998
 10
22.43558672599999
 20
5.7712886877
 10
22.4380524524
 20
5.796024542099999
 10
22.44028097719998
 20
5.820810334099995
 10
22.4422449068
 20
5.845254823699995
 10
22.44392049239999
 20
5.868981983699995
 10
22.44528025560001
 20
5.891492714899996
 10
22.44631732440001
 20
5.9125310589
 10
22.44702529720001
 20
5.931818462099997
 10
22.44740348760001
 20
5.949199310099999
 10
22.44744917240001
 20
5.964422478099997
 10
22.44716142039999
 20
5.9773536589
 10
22.44653997079999
 20
5.9877658973
  0
LINE
  5
3B8
330
2
100
AcDbEntity
  8
0
100
AcDbLine
 10
21.118920206
 20
-0.9879751619000046
 30
0.0
 11
21.0835151404
 21
-1.137110982700002
 31
0.0
  0
LWPOLYLINE
  5
3B9
330
2
100
AcDbEntity
  8
0
  6
HIDDEN
 48
0.5
100
AcDbPolyline
 90
        4
 70
     0
 43
0.0
 10
22.99254108280001
 20
5.561974442899995
 10
22.99500545559999
 20
5.570324551699997
 10
22.99723916120001
 20
5.575322191699996
 10
22.99921049400001
 20
5.576896332499998
  0
LINE
  5
3BA
330
2
100
AcDbEntity
  8
0
100
AcDbLine
 10
19.15301310360001
 20
-8.2213037907
 30
0.0
 11
19.15612821719999
 21
-8.210841563500006
 31
0.0
  0
LINE
  5
3BB
330
2
100
AcDbEntity
  8
0
100
AcDbLine
 10
21.08351487640001
 20
-1.137111744300001
 30
0.0
 11
21.01133217879998
 21
-1.291259939500002
 31
0.0
  0
LWPOLYLINE
  5
3BC
330
2
100
AcDbEntity
  8
0
100
AcDbPolyline
 90
        3
 70
     0
 43
0.0
 10
16.30660337879999
 20
-11.3019200291
 10
16.34661546200001
 20
-11.2321134499
 10
16.39782489399999
 20
-11.1749611315
  0
LINE
  5
3BD
330
2
100
AcDbEntity
  8
0
100
AcDbLine
 10
8.361258809199986
 20
-11.1827318755
 30
0.0
 11
8.38099629879999
 21
-11.1770330835
 31
0.0
  0
LWPOLYLINE
  5
3C0
330
2
100
AcDbEntity
  8
0
100
AcDbPolyline
 90
       25
 70
     0
 43
0.0
 10
21.7957030908
 20
0.3726571020999998
 10
21.80347567480001
 20
0.3465467420999957
 10
21.82490463639999
 20
0.2670595100999975
 10
21.8431926028
 20
0.1862977708999978
 10
21.85845131639999
 20
0.1020894636999969
 10
21.870454846
 20
0.0111113004999979
 10
21.8780752012
 20
-0.0884337779000006
 10
21.87964202200001
 20
-0.192328937900001
 10
21.87458431160001
 20
-0.2948262594999988
 10
21.86325208440001
 20
-0.3939470739000015
 10
21.84583304119999
 20
-0.4906443651000032
 10
21.8227510156
 20
-0.5839286275000007
 10
21.79536382040001
 20
-0.6709638499000051
 10
21.76541272759999
 20
-0.749982905900005
 10
21.7341388236
 20
-0.8212639955000042
 10
21.70248020439998
 20
-0.8853114803000039
 10
21.67123748119999
 20
-0.9425108243000011
 10
21.64108446680001
 20
-0.9932509427000013
 10
21.61229580279999
 20
-1.038301379499998
 10
21.58435986520001
 20
-1.079325768300002
 10
21.55632782680001
 20
-1.118216353900002
 10
21.52700635159999
 20
-1.156811705900004
 10
21.4959172812
 20
-1.1957213891
 10
21.463102894
 20
-1.234818433900002
 10
21.4286280812
 20
-1.273950200299999
  0
LINE
  5
3C1
330
2
100
AcDbEntity
  8
0
100
AcDbLine
 10
21.49964495159999
 20
3.020633841299995
 30
0.0
 11
21.50024808919999
 21
3.017470100499997
 31
0.0
  0
LWPOLYLINE
  5
3C2
330
2
100
AcDbEntity
  8
0
  6
HIDDEN
 48
0.5
100
AcDbPolyline
 90
       22
 70
     0
 43
0.0
 10
22.45647556919999
 20
5.986900644499996
 10
22.45709717560001
 20
5.976492134099999
 10
22.45738520599999
 20
5.963563842900001
 10
22.45733981879999
 20
5.948342082899998
 10
22.45696184280001
 20
5.930960446099994
 10
22.45625388440001
 20
5.911669092499998
 10
22.45521653880001
 20
5.890623646099996
 10
22.45385626200001
 20
5.868104700499998
 10
22.45218010039999
 20
5.844370662099997
 10
22.4502156812
 20
5.819921863699995
 10
22.44798682999999
 20
5.795134327699997
 10
22.4455209676
 20
5.770398956499995
 10
22.4428767292
 20
5.7463623549
 10
22.4401341324
 20
5.723738471699995
 10
22.43733029879999
 20
5.702797574099996
 10
22.43448709239999
 20
5.683716423699998
 10
22.4316677996
 20
5.666951740499996
 10
22.42895465079999
 20
5.652974054099999
 10
22.4263869996
 20
5.641937577299998
 10
22.4239804588
 20
5.633907954899996
 10
22.42178903800001
 20
5.6290933597
 10
22.4198680364
 20
5.627597095699996
  0
LWPOLYLINE
  5
3C3
330
2
100
AcDbEntity
  8
0
  6
HIDDEN
 48
0.5
100
AcDbPolyline
 90
       19
 70
     0
 43
0.0
 10
22.4160245676
 20
5.6419003277
 10
22.41540474039999
 20
5.6523136797
 10
22.41511826999999
 20
5.665222258899994
 10
22.41516359799999
 20
5.680395753299997
 10
22.41553905239999
 20
5.697704406100001
 10
22.41624207
 20
5.716911230099995
 10
22.41727293240001
 20
5.737877041299995
 10
22.41862682519999
 20
5.760340478099998
 10
22.42029835479999
 20
5.784054569299996
 10
22.42226062520001
 20
5.808515903699998
 10
22.42448907479999
 20
5.833331932499994
 10
22.42695618199999
 20
5.858107292500001
 10
22.42960344600001
 20
5.882193690899995
 10
22.43235038680001
 20
5.904870666899995
 10
22.43515898359999
 20
5.925859998100001
 10
22.43800706519999
 20
5.944982961299999
 10
22.4408310572
 20
5.961781183699997
 10
22.44354803800001
 20
5.975780983699998
 10
22.44611814839998
 20
5.986827799699995
  0
LWPOLYLINE
  5
3C4
330
2
100
AcDbEntity
  8
0
  6
HIDDEN
 48
0.5
100
AcDbPolyline
 90
       18
 70
     0
 43
0.0
 10
22.9624633244
 20
5.219313913299998
 10
22.96187343479999
 20
5.231158359699996
 10
22.96167139799999
 20
5.246086255699999
 10
22.96186913240001
 20
5.263789094099998
 10
22.96245768759999
 20
5.2837121405
 10
22.96342247320001
 20
5.305548065300001
 10
22.9647589884
 20
5.329146033299998
 10
22.96644219960001
 20
5.353980343700001
 10
22.96841808920001
 20
5.379282748499996
 10
22.97065194999999
 20
5.404672086099999
 10
22.9731280764
 20
5.429960377299998
 10
22.97579492119999
 20
5.454582172499996
 10
22.9785698684
 20
5.477793916499997
 10
22.9814065756
 20
5.4992579261
 10
22.98428639319999
 20
5.518833116499997
 10
22.9871519804
 20
5.5360952077
 10
22.9899185452
 20
5.550540514899999
 10
22.99254108280001
 20
5.561974442899995
  0
LWPOLYLINE
  5
3C5
330
2
100
AcDbEntity
  8
0
100
AcDbPolyline
 90
        3
 70
     0
 43
0.0
 10
23.2834179948
 20
0.653871919699995
 10
23.640265526
 20
4.611239148499997
 10
23.98816889560001
 20
8.390695532499997
  0
LWPOLYLINE
  5
3CB
330
2
100
AcDbEntity
  8
0
100
AcDbPolyline
 90
        3
 70
     0
 43
0.0
 10
19.99063127159999
 20
-8.316860633899999
 10
20.23008285720001
 20
-7.869668861100002
 10
20.36093922680001
 20
-7.353540763499999
  0
LWPOLYLINE
  5
3CC
330
2
100
AcDbEntity
  8
0
100
AcDbPolyline
 90
        3
 70
     0
 43
0.0
 10
19.99057342040001
 20
-8.316943397100004
 10
20.23004023800001
 20
-7.869777757100003
 10
20.36092380920001
 20
-7.353664923499998
  0
LINE
  5
3CD
330
2
100
AcDbEntity
  8
0
100
AcDbLine
 10
19.41179259159999
 20
-8.881334565100006
 30
0.0
 11
19.69576235639999
 21
-8.656769019500005
 31
0.0
  0
LINE
  5
3CE
330
2
100
AcDbEntity
  8
0
100
AcDbLine
 10
16.39782489399999
 20
-11.1749611315
 30
0.0
 11
16.45557088439999
 21
-11.1318588531
 31
0.0
  0
LINE
  5
3CF
330
2
100
AcDbEntity
  8
0
100
AcDbLine
 10
19.1699028028
 20
-9.021318069100006
 30
0.0
 11
19.41184231639999
 21
-8.881301501100006
 31
0.0
  0
LINE
  5
3D0
330
2
100
AcDbEntity
  8
0
100
AcDbLine
 10
18.97696708439999
 20
-9.107271670700002
 30
0.0
 11
19.16994151639999
 21
-9.021298723500004
 31
0.0
  0
LWPOLYLINE
  5
3D1
330
2
100
AcDbEntity
  8
0
100
AcDbPolyline
 90
       21
 70
     0
 43
0.0
 10
18.952048934
 20
-9.127615190699998
 10
19.00775625240001
 20
-9.1056839875
 10
19.071720438
 20
-9.0785185107
 10
19.13981611159999
 20
-9.047178608300001
 10
19.21146734359999
 20
-9.011311696300005
 10
19.2858998684
 20
-8.970676387499999
 10
19.36299278519999
 20
-8.924669597099999
 10
19.44292429399999
 20
-8.872386777900004
 10
19.52588242679999
 20
-8.812701785900003
 10
19.611781798
 20
-8.744414969899999
 10
19.7004055996
 20
-8.666115933100002
 10
19.79113542359999
 20
-8.576369691499998
 10
19.88230145400001
 20
-8.474509693100003
 10
19.971376206
 20
-8.360965211500001
 10
20.055855038
 20
-8.236705409900004
 10
20.13364186679999
 20
-8.102835715499999
 10
20.2030154892
 20
-7.960574398700003
 10
20.26252935319999
 20
-7.811414497900003
 10
20.3110848268
 20
-7.657002113899999
 10
20.3479432652
 20
-7.499067685100001
 10
20.37083603639999
 20
-7.354990489900004
  0
LWPOLYLINE
  5
3D2
330
2
100
AcDbEntity
  8
0
100
AcDbPolyline
 90
        3
 70
     0
 43
0.0
 10
18.7076600444
 20
-9.197926998700005
 10
18.8280523596
 20
-9.160997169899999
 10
18.9769670844
 20
-9.107271670700001
  0
LINE
  5
3D3
330
2
100
AcDbEntity
  8
0
100
AcDbLine
 10
17.89555953559999
 20
-9.390503909100006
 30
0.0
 11
17.89700115959998
 21
-9.390076353900001
 31
0.0
  0
LINE
  5
3D4
330
2
100
AcDbEntity
  8
0
100
AcDbLine
 10
17.89700125399999
 20
-9.390076325100006
 30
0.0
 11
17.91007901079998
 21
-9.386308192300001
 31
0.0
  0
LWPOLYLINE
  5
3D9
330
2
100
AcDbEntity
  8
0
  6
HIDDEN
 48
0.5
100
AcDbPolyline
 90
        4
 70
     0
 43
0.0
 10
22.4526356636
 20
6.001162729299998
 10
22.45423520919999
 20
5.999427980499994
 10
22.45551889239999
 20
5.9946210445
 10
22.45647556919999
 20
5.986900644499996
  0
LWPOLYLINE
  5
3DA
330
2
100
AcDbEntity
  8
0
  6
HIDDEN
 48
0.5
100
AcDbPolyline
 90
        3
 70
     0
 43
0.0
 10
22.4198680364
 20
5.627597095699996
 10
22.4182655756
 20
5.629338505299998
 10
22.41698064280001
 20
5.634162182099998
  0
LWPOLYLINE
  5
3DB
330
2
100
AcDbEntity
  8
0
  6
HIDDEN
 48
0.5
100
AcDbPolyline
 90
        3
 70
     0
 43
0.0
 10
22.9664428668
 20
5.203330698899996
 10
22.96477449240001
 20
5.205226866899998
 10
22.96343345080001
 20
5.210611390099998
  0
LWPOLYLINE
  5
3DC
330
2
100
AcDbEntity
  8
0
  6
HIDDEN
 48
0.5
100
AcDbPolyline
 90
        3
 70
     0
 43
0.0
 10
22.99921049400001
 20
5.576896332499998
 10
23.0008791948
 20
5.574999382099996
 10
23.00222078999999
 20
5.569610263699999
  0
LINE
  5
3DD
330
2
100
AcDbEntity
  8
0
  6
HIDDEN
 48
0.5
100
AcDbLine
 10
22.4169806428
 20
5.634162182099997
 30
0.0
 11
22.41602456759999
 21
5.641900327699998
 31
0.0
  0
LINE
  5
3DE
330
2
100
AcDbEntity
  8
0
  6
HIDDEN
 48
0.5
100
AcDbLine
 10
22.9634334508
 20
5.210611390099996
 30
0.0
 11
22.96246332439999
 21
5.219313913299997
 31
0.0
  0
LWPOLYLINE
  5
3DF
330
2
100
AcDbEntity
  8
0
  6
HIDDEN
 48
0.5
100
AcDbPolyline
 90
       22
 70
     0
 43
0.0
 10
23.00222078999999
 20
5.569610263699999
 10
23.003191286
 20
5.560896634899997
 10
23.00378103799999
 20
5.549031188499995
 10
23.00398197079999
 20
5.534070769300001
 10
23.0037818444
 20
5.5163245341
 10
23.00318949079999
 20
5.496349066899995
 10
23.0022191532
 20
5.474447380499995
 10
23.00087561239999
 20
5.450780343699996
 10
22.99918511640001
 20
5.425890417299996
 10
22.99720339000001
 20
5.400560836499998
 10
22.9949657932
 20
5.3751719037
 10
22.99248911
 20
5.349915794899999
 10
22.98982542199999
 20
5.325354932499998
 10
22.9870566076
 20
5.302219258899995
 10
22.98422732599999
 20
5.280829423699998
 10
22.9813553708
 20
5.261319559699998
 10
22.9784973932
 20
5.2441093965
 10
22.97573686199999
 20
5.229696337299998
 10
22.97311794840001
 20
5.218274673300001
 10
22.97065433880001
 20
5.209920766099997
 10
22.96841872280001
 20
5.204911924499995
 10
22.9664428668
 20
5.203330698899996
  0
LINE
  5
3E0
330
2
100
AcDbEntity
  8
0
100
AcDbLine
 10
19.6957041324
 20
-8.6568234819
 30
0.0
 11
19.99063127159998
 21
-8.316860633900001
 31
0.0
  0
LWPOLYLINE
  5
3E1
330
2
100
AcDbEntity
  8
0
100
AcDbPolyline
 90
       11
 70
     0
 43
0.0
 10
18.35541300759999
 20
-10.2229772995
 10
18.35673383959999
 20
-10.2220520979
 10
18.45065437720001
 20
-10.1439038499
 10
18.53798783799999
 20
-10.0580458243
 10
18.61790389079999
 20
-9.965269193899999
 10
18.68968468599999
 20
-9.866508840299999
 10
18.7527712284
 20
-9.7627976355
 10
18.80692449400001
 20
-9.6548956771
 10
18.85213827640001
 20
-9.543119091500003
 10
18.888411254
 20
-9.427252782700001
 10
18.91049093719999
 20
-9.3331226835
  0
LWPOLYLINE
  5
3E2
330
2
100
AcDbEntity
  8
0
100
AcDbPolyline
 90
        3
 70
     0
 43
0.0
 10
17.81431577399999
 20
-10.6367157011
 10
18.1494470604
 20
-10.4152814707
 10
18.22561846928056
 20
-10.33450215130476
  0
LINE
  5
3E3
330
2
100
AcDbEntity
  8
0
100
AcDbLine
 10
15.4825360844
 20
-11.9985667059
 30
0.0
 11
15.5256054172
 21
-11.9739367987
 31
0.0
  0
LWPOLYLINE
  5
3E4
330
2
100
AcDbEntity
  8
0
100
AcDbPolyline
 90
        4
 70
     0
 43
0.0
 10
16.4555708844
 20
-11.13185885309999
 10
16.51469307479999
 20
-11.1028260515
 10
16.56618032919999
 20
-11.0871761027
 10
16.5822447484
 20
-11.08424454109999
  0
LWPOLYLINE
  5
3E5
330
2
100
AcDbEntity
  8
0
100
AcDbPolyline
 90
        4
 70
     0
 43
0.0
 10
18.54361363320001
 20
-10.0372218819
 10
18.69413506840001
 20
-9.841441995499998
 10
18.82184288760001
 20
-9.594576510700001
 10
18.8997513212
 20
-9.335643477099999
  0
LWPOLYLINE
  5
3E6
330
2
100
AcDbEntity
  8
0
100
AcDbPolyline
 90
       11
 70
     0
 43
0.0
 10
17.60603946840001
 20
-10.7382546467
 10
17.63374172760001
 20
-10.7276443587
 10
17.67047967319999
 20
-10.7130290067
 10
17.7180446348
 20
-10.6929967923
 10
17.77733718839999
 20
-10.66600511229999
 10
17.85064028120001
 20
-10.6291312339
 10
17.9325581692
 20
-10.5827507923
 10
18.015034294
 20
-10.5298926339
 10
18.0965473612
 20
-10.4708003635
 10
18.1770190796
 20
-10.40479509629999
 10
18.2541283292
 20
-10.3332090211
  0
LWPOLYLINE
  5
3E7
330
2
100
AcDbEntity
  8
0
100
AcDbPolyline
 90
        3
 70
     0
 43
0.0
 10
18.28458534119687
 20
-10.30124689001095
 10
18.32578530040001
 20
-10.2580109187
 10
18.35541300828958
 20
-10.22297729901696
  0
LINE
  5
3E8
330
2
100
AcDbEntity
  8
0
100
AcDbLine
 10
17.5506950316
 20
-10.7590042227
 30
0.0
 11
17.6060394684
 21
-10.7382546467
 31
0.0
  0
LWPOLYLINE
  5
3E9
330
2
100
AcDbEntity
  8
0
100
AcDbPolyline
 90
        3
 70
     0
 43
0.0
 10
17.47091133079999
 20
-10.7764940867
 10
17.60539100119999
 20
-10.7278078307
 10
17.8143141708
 20
-10.6367165123
  0
LWPOLYLINE
  5
3F0
330
2
100
AcDbEntity
  8
0
100
AcDbPolyline
 90
       16
 70
     0
 43
0.0
 10
24.654504238826
 20
8.984735073299999
 10
24.56040467799999
 20
9.117954492499997
 10
24.37150002039999
 20
9.293090202899996
 10
24.09905806520001
 20
9.485909814099997
 10
23.75835256920001
 20
9.670515978899999
 10
23.32631787159999
 20
9.848942076499994
 10
22.74653157240001
 20
10.02988520289999
 10
21.9486932364
 20
10.2182517309
 10
20.86972332280001
 20
10.41581240609999
 10
19.4640513436
 20
10.62142080449999
 10
17.75935725720001
 20
10.8154279261
 10
15.99955437560001
 20
10.95836105409999
 10
14.37076249079999
 20
11.04218223969999
 10
12.838261334
 20
11.0895418045
 10
11.41375355159999
 20
11.11722050689999
 10
10.07712027639999
 20
11.13678155969999
  0
LWPOLYLINE
  5
3F1
330
2
100
AcDbEntity
  8
0
100
AcDbPolyline
 90
       15
 70
     0
 43
0.0
 10
24.654595652158
 20
8.984735073299999
 10
24.61865471480001
 20
9.074341934099997
 10
24.46013489559999
 20
9.264157846099998
 10
24.17336616119999
 20
9.467600124499995
 10
23.73205289079999
 20
9.682958402899998
 10
23.0237043804
 20
9.934163294099995
 10
21.98703190200001
 20
10.19748932929999
 10
20.7348477308
 20
10.4365709613
 10
19.2767381484
 20
10.6506402061
 10
17.61916008119999
 20
10.8318196333
 10
15.9161382284
 20
10.9634320957
 10
14.30911678519999
 20
11.0444588605
 10
12.7973752732
 20
11.0919522397
 10
11.39498919319999
 20
11.11958468289999
 10
10.07712027639999
 20
11.1385619917
  0
LINE
  5
3F3
330
2
100
AcDbEntity
  8
0
100
AcDbLine
 10
28.03609077713142
 20
8.528312944660561
 30
0.0
 11
28.12739201035396
 21
7.484735073299998
 31
0.0
  0
ARC
  5
3F7
330
2
100
AcDbEntity
  8
0
100
AcDbCircle
 10
4.706048719599996
 20
-11.1090149267
 30
0.0
 40
0.875
100
AcDbArc
 50
195.9505882123999
 51
270.0
  0
ARC
  5
3F8
330
2
100
AcDbEntity
  8
0
100
AcDbCircle
 10
15.4481918332
 20
-11.1090149267
 30
0.0
 40
0.875
100
AcDbArc
 50
270.0
 51
344.0494117875999
  0
ARC
  5
3F9
330
2
100
AcDbEntity
  8
0
100
AcDbCircle
 10
12.837172454
 20
-11.1090149267
 30
0.0
 40
0.875
100
AcDbArc
 50
199.3094046438999
 51
270.0
  0
ARC
  5
3FA
330
2
100
AcDbEntity
  8
0
100
AcDbCircle
 10
7.317055674799993
 20
-11.1090149267
 30
0.0
 40
0.875
100
AcDbArc
 50
270.0008136239
 51
340.6786135926
  0
ARC
  5
3FF
330
2
100
AcDbEntity
  8
0
100
AcDbCircle
 10
11.348566886
 20
-11.2340149267
 30
0.0
 40
0.26
100
AcDbArc
 50
270.0
 51
315.0
  0
ARC
  5
400
330
2
100
AcDbEntity
  8
0
100
AcDbCircle
 10
8.805673668399995
 20
-11.2340149267
 30
0.0
 40
0.26
100
AcDbArc
 50
225.0
 51
270.0
  0
ARC
  5
40D
330
2
100
AcDbEntity
  8
0
100
AcDbCircle
 10
11.348566886
 20
-11.2340149267
 30
0.0
 40
0.25
100
AcDbArc
 50
270.0000003856
 51
315.0
  0
ARC
  5
40E
330
2
100
AcDbEntity
  8
0
100
AcDbCircle
 10
8.805673668399995
 20
-11.2340149267
 30
0.0
 40
0.25
100
AcDbArc
 50
225.0
 51
270.0
  0
LINE
  5
40F
330
2
100
AcDbEntity
  8
0
100
AcDbLine
 10
18.28458534119686
 20
-10.30124689001095
 30
0.0
 11
18.25412832919999
 21
-10.3332090211
 31
0.0
  0
LINE
  5
410
330
2
100
AcDbEntity
  8
CENTER
 48
4.0
100
AcDbLine
 10
10.12780338839998
 20
8.949805020499992
 30
0.0
 11
10.12780338839998
 21
2.082165126100007
 31
0.0
  0
LINE
  5
411
330
2
100
AcDbEntity
  8
CENTER
 48
4.0
100
AcDbLine
 10
10.12739201035397
 20
-9.311445296569043
 30
0.0
 11
10.12739201035397
 21
-14.71908455683095
 31
0.0
  0
LINE
  5
4F0
330
2
100
AcDbEntity
  8
0
100
AcDbLine
 10
28.12739201035398
 20
7.484735073299999
 30
0.0
 11
-7.87260798964602
 21
7.484735073299999
 31
0.0
  0
LINE
  5
4F1
330
2
100
AcDbEntity
  8
0
100
AcDbLine
 10
-7.283209407376412
 20
8.984735073299999
 30
0.0
 11
27.53799342808438
 21
8.984735073299999
 31
0.0
  0
ARC
  5
4F2
330
2
100
AcDbEntity
  8
0
100
AcDbCircle
 10
-7.283209407376411
 20
8.484735073299997
 30
0.0
 40
0.5
100
AcDbArc
 50
90.00000000000019
 51
175.0000000015247
  0
ARC
  5
4F3
330
2
100
AcDbEntity
  8
0
100
AcDbCircle
 10
27.53799342808438
 20
8.484735073299992
 30
0.0
 40
0.5
100
AcDbArc
 50
4.999999998474584
 51
89.99999999999959
  0
ENDSEC
  0
SECTION
  2
OBJECTS
  0
DICTIONARY
  5
C
330
0
100
AcDbDictionary
  3
ACAD_COLOR
350
2D
  3
ACAD_GROUP
350
28
  3
ACAD_LAYOUT
350
B
  3
ACAD_MATERIAL
350
2C
  3
ACAD_MLINESTYLE
350
29
  3
ACAD_PLOTSETTINGS
350
2A
  3
ACAD_PLOTSTYLENAME
350
2B
  3
ACAD_TABLESTYLE
350
2E
  3
ACDBHEADERROUNDTRIPXREC
350
52D
  3
ACDBVARIABLEDICTIONARY
350
417
  0
DICTIONARY
  5
12
330
11
100
AcDbDictionary
280
     1
  3
ACAD_LAYERFILTERS
360
13
  3
ACLYDICTIONARY
360
14
  0
DICTIONARY
  5
3
330
2
100
AcDbDictionary
280
     1
  3
ACAD_LAYOUTSELFREF
360
54E
  3
ACAD_SORTENTS
360
412
  0
DICTIONARY
  5
4E0
330
D
100
AcDbDictionary
280
     1
  3
ACAD_LAYOUTSELFREF
360
54F
  0
DICTIONARY
  5
2D
102
{ACAD_REACTORS
330
C
102
}
330
C
100
AcDbDictionary
  0
DICTIONARY
  5
28
102
{ACAD_REACTORS
330
C
102
}
330
C
100
AcDbDictionary
  0
DICTIONARY
  5
B
102
{ACAD_REACTORS
330
C
102
}
330
C
100
AcDbDictionary
  0
DICTIONARY
  5
2C
102
{ACAD_REACTORS
330
C
102
}
330
C
100
AcDbDictionary
  0
DICTIONARY
  5
29
102
{ACAD_REACTORS
330
C
102
}
330
C
100
AcDbDictionary
  3
STANDARD
350
2F
  0
DICTIONARY
  5
2A
102
{ACAD_REACTORS
330
C
102
}
330
C
100
AcDbDictionary
  0
ACDBDICTIONARYWDFLT
  5
2B
102
{ACAD_REACTORS
330
C
102
}
330
C
100
AcDbDictionary
281
     1
  3
Normal
350
7
100
AcDbDictionaryWithDefault
340
7
  0
DICTIONARY
  5
2E
102
{ACAD_REACTORS
330
C
102
}
330
C
100
AcDbDictionary
  3
STANDARD
350
30
  0
DICTIONARY
  5
52D
102
{ACAD_REACTORS
330
C
102
}
330
C
100
AcDbDictionary
  3
CEPSNTYPE
350
537
  3
DIMSTYLEDATA
350
53B
  3
FINGERPRINTGUID
350
538
  3
HYPERLINKBASE
350
530
  3
INSUNITS
350
536
  3
LAYOUTDICT
350
532
  3
LWETCUNION
350
535
  3
PLOTSETDICT
350
533
  3
PLOTSTYLNAMDICT
350
534
  3
PSVPSCALE
350
53A
  3
PUCSBASE
350
53E
  3
PUCSORGBACK
350
544
  3
PUCSORGBOTTOM
350
540
  3
PUCSORGFRONT
350
543
  3
PUCSORGLEFT
350
541
  3
PUCSORGRIGHT
350
542
  3
PUCSORGTOP
350
53F
  3
PUCSORTHOREF
350
53C
  3
PUCSORTHOVIEW
350
53D
  3
STYLESHEET
350
531
  3
TSTACKALIGN
350
52E
  3
TSTACKSIZE
350
52F
  3
UCSBASE
350
547
  3
UCSORGBACK
350
54D
  3
UCSORGBOTTOM
350
549
  3
UCSORGFRONT
350
54C
  3
UCSORGLEFT
350
54A
  3
UCSORGRIGHT
350
54B
  3
UCSORGTOP
350
548
  3
UCSORTHOREF
350
545
  3
UCSORTHOVIEW
350
546
  3
VERSIONGUID
350
539
  0
DICTIONARY
  5
417
102
{ACAD_REACTORS
330
C
102
}
330
C
100
AcDbDictionary
  3
CTABLESTYLE
350
418
  3
DIMASSOC
350
43C
  3
HIDETEXT
350
43B
  3
PROJECTNAME
350
43D
  0
DICTIONARY
  5
13
102
{ACAD_REACTORS
330
12
102
}
330
12
100
AcDbDictionary
  0
DICTIONARY
  5
14
102
{ACAD_REACTORS
330
12
102
}
330
12
100
AcDbDictionary
1001
ACAD
1000
<All
  0
XRECORD
  5
54E
102
{ACAD_REACTORS
330
3
102
}
330
3
100
AcDbXrecord
340
2
  0
SORTENTSTABLE
  5
412
102
{ACAD_REACTORS
330
3
102
}
330
3
100
AcDbSortentsTable
330
2
  0
XRECORD
  5
54F
102
{ACAD_REACTORS
330
4E0
102
}
330
4E0
100
AcDbXrecord
340
D
  0
MLINESTYLE
  5
2F
102
{ACAD_REACTORS
330
29
102
}
330
29
100
AcDbMlineStyle
  2
STANDARD
 70
     0
  3

 62
   256
 51
90.0
 52
90.0
 71
     2
 49
0.5
 62
   256
  6
BYLAYER
 49
-0.5
 62
   256
  6
BYLAYER
  0
ACDBPLACEHOLDER
  5
7
102
{ACAD_REACTORS
330
2B
102
}
330
0
100
AcDbPlaceHolder
280
     0
  0
ACAD_PROXY_OBJECT
  5
30
102
{ACAD_REACTORS
330
2E
102
}
330
2E
100
AcDbProxyObject
 90
      499
 91
      525
 93
     1841
310
4214DD185B99185C9928B81E85EB51B8AE3F2E07A17AD46E2B8FC02B5E8DC0F42B1CFD028000000C1008070000C3001FDFF8000000C1003FBFF000000182007F7FE00000030400FEFFC00000060801FDFF8000000C1003FBFF00000018200000000000000681FA0B0000001820100E000186003FBFF000000182007F7FE000
310
00030400FEFFC00000060801FDFF8000000C1003FBFF000000182007F7FE000000304000AD7A3703D0AC73F4160000003040201C00030C007F7FE00000030400FEFFC00000060801FDFF8000000C1003FBFF000000182007F7FE00000030400FEFFC000000608018
340
17
340
17
340
17
 94
        0
1001
ACAD
1000
AcadProxyRoundTripData
1071
      524
1071
   851991
1070
     0
  0
XRECORD
  5
537
102
{ACAD_REACTORS
330
52D
102
}
330
52D
100
AcDbXrecord
 90
        0
  0
XRECORD
  5
53B
102
{ACAD_REACTORS
330
52D
102
}
330
52D
100
AcDbXrecord
1000
DSTYLE
1002
{
1070
   277
 70
     5
1070
   341
340
23
1070
   342
340
23
1002
}
  0
XRECORD
  5
538
102
{ACAD_REACTORS
330
52D
102
}
330
52D
100
AcDbXrecord
  1
{93F6E23E-6FC9-4468-8826-D21973FA5708}
  0
XRECORD
  5
530
102
{ACAD_REACTORS
330
52D
102
}
330
52D
100
AcDbXrecord
  1

  0
XRECORD
  5
536
102
{ACAD_REACTORS
330
52D
102
}
330
52D
100
AcDbXrecord
 90
        1
  0
XRECORD
  5
532
102
{ACAD_REACTORS
330
52D
102
}
330
52D
100
AcDbXrecord
340
B
  0
XRECORD
  5
535
102
{ACAD_REACTORS
330
52D
102
}
330
52D
100
AcDbXrecord
 90
    10781
  0
XRECORD
  5
533
102
{ACAD_REACTORS
330
52D
102
}
330
52D
100
AcDbXrecord
340
2A
  0
XRECORD
  5
534
102
{ACAD_REACTORS
330
52D
102
}
330
52D
100
AcDbXrecord
340
2B
  0
XRECORD
  5
53A
102
{ACAD_REACTORS
330
52D
102
}
330
52D
100
AcDbXrecord
 40
0.0
  0
XRECORD
  5
53E
102
{ACAD_REACTORS
330
52D
102
}
330
52D
100
AcDbXrecord
340
0
  0
XRECORD
  5
544
102
{ACAD_REACTORS
330
52D
102
}
330
52D
100
AcDbXrecord
 10
0.0
 20
0.0
 30
0.0
  0
XRECORD
  5
540
102
{ACAD_REACTORS
330
52D
102
}
330
52D
100
AcDbXrecord
 10
0.0
 20
0.0
 30
0.0
  0
XRECORD
  5
543
102
{ACAD_REACTORS
330
52D
102
}
330
52D
100
AcDbXrecord
 10
0.0
 20
0.0
 30
0.0
  0
XRECORD
  5
541
102
{ACAD_REACTORS
330
52D
102
}
330
52D
100
AcDbXrecord
 10
0.0
 20
0.0
 30
0.0
  0
XRECORD
  5
542
102
{ACAD_REACTORS
330
52D
102
}
330
52D
100
AcDbXrecord
 10
0.0
 20
0.0
 30
0.0
  0
XRECORD
  5
53F
102
{ACAD_REACTORS
330
52D
102
}
330
52D
100
AcDbXrecord
 10
0.0
 20
0.0
 30
0.0
  0
XRECORD
  5
53C
102
{ACAD_REACTORS
330
52D
102
}
330
52D
100
AcDbXrecord
340
0
  0
XRECORD
  5
53D
102
{ACAD_REACTORS
330
52D
102
}
330
52D
100
AcDbXrecord
 70
     0
  0
XRECORD
  5
531
102
{ACAD_REACTORS
330
52D
102
}
330
52D
100
AcDbXrecord
  1

  0
XRECORD
  5
52E
102
{ACAD_REACTORS
330
52D
102
}
330
52D
100
AcDbXrecord
 90
        1
  0
XRECORD
  5
52F
102
{ACAD_REACTORS
330
52D
102
}
330
52D
100
AcDbXrecord
 90
       70
  0
XRECORD
  5
547
102
{ACAD_REACTORS
330
52D
102
}
330
52D
100
AcDbXrecord
340
0
  0
XRECORD
  5
54D
102
{ACAD_REACTORS
330
52D
102
}
330
52D
100
AcDbXrecord
 10
0.0
 20
0.0
 30
0.0
  0
XRECORD
  5
549
102
{ACAD_REACTORS
330
52D
102
}
330
52D
100
AcDbXrecord
 10
0.0
 20
0.0
 30
0.0
  0
XRECORD
  5
54C
102
{ACAD_REACTORS
330
52D
102
}
330
52D
100
AcDbXrecord
 10
0.0
 20
0.0
 30
0.0
  0
XRECORD
  5
54A
102
{ACAD_REACTORS
330
52D
102
}
330
52D
100
AcDbXrecord
 10
0.0
 20
0.0
 30
0.0
  0
XRECORD
  5
54B
102
{ACAD_REACTORS
330
52D
102
}
330
52D
100
AcDbXrecord
 10
0.0
 20
0.0
 30
0.0
  0
XRECORD
  5
548
102
{ACAD_REACTORS
330
52D
102
}
330
52D
100
AcDbXrecord
 10
0.0
 20
0.0
 30
0.0
  0
XRECORD
  5
545
102
{ACAD_REACTORS
330
52D
102
}
330
52D
100
AcDbXrecord
340
0
  0
XRECORD
  5
546
102
{ACAD_REACTORS
330
52D
102
}
330
52D
100
AcDbXrecord
 70
     0
  0
XRECORD
  5
539
102
{ACAD_REACTORS
330
52D
102
}
330
52D
100
AcDbXrecord
  1
{C900B8E7-2919-4DDD-A6BF-9E04997831F3}
  0
DICTIONARYVAR
  5
418
102
{ACAD_REACTORS
330
417
102
}
330
417
100
DictionaryVariables
280
     0
  1
STANDARD
  0
DICTIONARYVAR
  5
43C
102
{ACAD_REACTORS
330
417
102
}
330
417
100
DictionaryVariables
280
     0
  1
1
  0
DICTIONARYVAR
  5
43B
102
{ACAD_REACTORS
330
417
102
}
330
417
100
DictionaryVariables
280
     0
  1
1
  0
DICTIONARYVAR
  5
43D
102
{ACAD_REACTORS
330
417
102
}
330
417
100
DictionaryVariables
280
     0
  1

  0
ENDSEC
  0
EOF
