  0
SECTION
  2
HEADER
  9
$ACADVER
  1
AC1014
  9
$ACADMAINTVER
 70
     9
  9
$DWGCODEPAGE
  3
ANSI_1252
  9
$INSBASE
 10
9.726891869629136
 20
1.969160578756456
 30
0.0
  9
$EXTMIN
 10
-9.274267709865299
 20
-16.92085639305247
 30
-0.0015258207003583
  9
$EXTMAX
 10
28.7280516260749
 20
8.740787059277579
 30
0.0000000349246037
  9
$LIMMIN
 10
0.0
 20
0.0
  9
$LIMMAX
 10
17.0
 20
11.0
  9
$ORTHOMODE
 70
     1
  9
$REGENMODE
 70
     1
  9
$FILLMODE
 70
     1
  9
$QTEXTMODE
 70
     0
  9
$MIRRTEXT
 70
     1
  9
$DRAGMODE
 70
     2
  9
$LTSCALE
 40
2.0
  9
$OSMODE
 70
    55
  9
$ATTMODE
 70
     1
  9
$TEXTSIZE
 40
0.2
  9
$TRACEWID
 40
0.05
  9
$TEXTSTYLE
  7
STANDARD
  9
$CLAYER
  8
0
  9
$CELTYPE
  6
BYLAYER
  9
$CECOLOR
 62
   256
  9
$CELTSCALE
 40
1.0
  9
$DELOBJ
 70
     1
  9
$DISPSILH
 70
     0
  9
$DIMSCALE
 40
1.0
  9
$DIMASZ
 40
0.1875
  9
$DIMEXO
 40
0.0625
  9
$DIMDLI
 40
0.38
  9
$DIMRND
 40
0.0
  9
$DIMDLE
 40
0.0
  9
$DIMEXE
 40
0.18
  9
$DIMTP
 40
0.0
  9
$DIMTM
 40
0.0
  9
$DIMTXT
 40
0.125
  9
$DIMCEN
 40
0.09
  9
$DIMTSZ
 40
0.0
  9
$DIMTOL
 70
     0
  9
$DIMLIM
 70
     0
  9
$DIMTIH
 70
     1
  9
$DIMTOH
 70
     1
  9
$DIMSE1
 70
     0
  9
$DIMSE2
 70
     0
  9
$DIMTAD
 70
     0
  9
$DIMZIN
 70
     4
  9
$DIMBLK
  1
_FILLED
  9
$DIMASO
 70
     1
  9
$DIMSHO
 70
     1
  9
$DIMPOST
  1

  9
$DIMAPOST
  1

  9
$DIMALT
 70
     0
  9
$DIMALTD
 70
     2
  9
$DIMALTF
 40
25.4
  9
$DIMLFAC
 40
16.0
  9
$DIMTOFL
 70
     0
  9
$DIMTVP
 40
0.0
  9
$DIMTIX
 70
     0
  9
$DIMSOXD
 70
     0
  9
$DIMSAH
 70
     0
  9
$DIMBLK1
  1
_FILLED
  9
$DIMBLK2
  1
_FILLED
  9
$DIMSTYLE
  2
STANDARD
  9
$DIMCLRD
 70
     0
  9
$DIMCLRE
 70
     0
  9
$DIMCLRT
 70
     0
  9
$DIMTFAC
 40
1.0
  9
$DIMGAP
 40
0.09
  9
$DIMJUST
 70
     0
  9
$DIMSD1
 70
     0
  9
$DIMSD2
 70
     0
  9
$DIMTOLJ
 70
     1
  9
$DIMTZIN
 70
     4
  9
$DIMALTZ
 70
     0
  9
$DIMALTTZ
 70
     0
  9
$DIMFIT
 70
     3
  9
$DIMUPT
 70
     0
  9
$DIMUNIT
 70
     2
  9
$DIMDEC
 70
     0
  9
$DIMTDEC
 70
     0
  9
$DIMALTU
 70
     2
  9
$DIMALTTD
 70
     2
  9
$DIMTXSTY
  7
STANDARD
  9
$DIMAUNIT
 70
     0
  9
$LUNITS
 70
     2
  9
$LUPREC
 70
     4
  9
$SKETCHINC
 40
0.1
  9
$FILLETRAD
 40
0.0
  9
$AUNITS
 70
     0
  9
$AUPREC
 70
     0
  9
$MENU
  1
acad
  9
$ELEVATION
 40
0.0
  9
$PELEVATION
 40
0.0
  9
$THICKNESS
 40
0.0
  9
$LIMCHECK
 70
     0
  9
$BLIPMODE
 70
     0
  9
$CHAMFERA
 40
0.0
  9
$CHAMFERB
 40
0.0
  9
$CHAMFERC
 40
0.0
  9
$CHAMFERD
 40
0.0
  9
$SKPOLY
 70
     0
  9
$TDCREATE
 40
2453676.838151215
  9
$TDUPDATE
 40
2453685.568482870
  9
$TDINDWG
 40
0.0386199884
  9
$TDUSRTIMER
 40
0.0386199884
  9
$USRTIMER
 70
     1
  9
$ANGBASE
 50
0.0
  9
$ANGDIR
 70
     0
  9
$PDMODE
 70
     3
  9
$PDSIZE
 40
0.3125
  9
$PLINEWID
 40
0.0
  9
$COORDS
 70
     1
  9
$SPLFRAME
 70
     0
  9
$SPLINETYPE
 70
     6
  9
$SPLINESEGS
 70
     8
  9
$ATTDIA
 70
     0
  9
$ATTREQ
 70
     1
  9
$HANDLING
 70
 22529
  9
$HANDSEED
  5
411
  9
$SURFTAB1
 70
     6
  9
$SURFTAB2
 70
     6
  9
$SURFTYPE
 70
     6
  9
$SURFU
 70
     6
  9
$SURFV
 70
     6
  9
$UCSNAME
  2

  9
$UCSORG
 10
0.0
 20
0.0
 30
0.0
  9
$UCSXDIR
 10
1.0
 20
0.0
 30
0.0
  9
$UCSYDIR
 10
0.0
 20
1.0
 30
0.0
  9
$PUCSNAME
  2

  9
$PUCSORG
 10
0.0
 20
0.0
 30
0.0
  9
$PUCSXDIR
 10
1.0
 20
0.0
 30
0.0
  9
$PUCSYDIR
 10
0.0
 20
1.0
 30
0.0
  9
$USERI1
 70
     0
  9
$USERI2
 70
     0
  9
$USERI3
 70
     0
  9
$USERI4
 70
     0
  9
$USERI5
 70
     0
  9
$USERR1
 40
0.0
  9
$USERR2
 40
0.0
  9
$USERR3
 40
0.0
  9
$USERR4
 40
0.0
  9
$USERR5
 40
0.0
  9
$WORLDVIEW
 70
     1
  9
$SHADEDGE
 70
     3
  9
$SHADEDIF
 70
    70
  9
$TILEMODE
 70
     1
  9
$MAXACTVP
 70
    16
  9
$PINSBASE
 10
0.0
 20
0.0
 30
0.0
  9
$PLIMCHECK
 70
     0
  9
$PEXTMIN
 10
1.000000000000000E+20
 20
1.000000000000000E+20
 30
1.000000000000000E+20
  9
$PEXTMAX
 10
-1.000000000000000E+20
 20
-1.000000000000000E+20
 30
-1.000000000000000E+20
  9
$PLIMMIN
 10
0.0
 20
0.0
  9
$PLIMMAX
 10
12.0
 20
9.0
  9
$UNITMODE
 70
     0
  9
$VISRETAIN
 70
     0
  9
$PLINEGEN
 70
     1
  9
$PSLTSCALE
 70
     0
  9
$TREEDEPTH
 70
  3020
  9
$PICKSTYLE
 70
     1
  9
$CMLSTYLE
  2
STANDARD
  9
$CMLJUST
 70
     0
  9
$CMLSCALE
 40
1.0
  9
$PROXYGRAPHICS
 70
     0
  9
$MEASUREMENT
 70
     0
  0
ENDSEC
  0
SECTION
  2
CLASSES
  0
CLASS
  1
ACDBDICTIONARYWDFLT
  2
AcDbDictionaryWithDefault
  3
AutoCAD 2000
 90
        0
280
     0
281
     0
  0
CLASS
  1
ACDBPLACEHOLDER
  2
AcDbPlaceHolder
  3
AutoCAD 2000
 90
        0
280
     0
281
     0
  0
CLASS
  1
LAYOUT
  2
AcDbLayout
  3
AutoCAD 2000
 90
        0
280
     0
281
     0
  0
CLASS
  1
LWPOLYLINE
  2
AcDbPolyline
  3
AutoCAD 2000
 90
        0
280
     0
281
     1
  0
CLASS
  1
IMAGE
  2
AcDbRasterImage
  3
ISM
 90
      127
280
     0
281
     1
  0
CLASS
  1
OLE2FRAME
  2
AcDbOle2Frame
  3
AutoCAD 2000
 90
        0
280
     0
281
     1
  0
CLASS
  1
HATCH
  2
AcDbHatch
  3
AutoCAD 2000
 90
        0
280
     0
281
     1
  0
CLASS
  1
DICTIONARYVAR
  2
AcDbDictionaryVar
  3
AutoCAD 2000
 90
        0
280
     0
281
     0
  0
CLASS
  1
RASTERVARIABLES
  2
AcDbRasterVariables
  3
ISM
 90
        0
280
     0
281
     0
  0
CLASS
  1
IMAGEDEF
  2
AcDbRasterImageDef
  3
ISM
 90
        0
280
     0
281
     0
  0
CLASS
  1
IMAGEDEF_REACTOR
  2
AcDbRasterImageDefReactor
  3
ISM
 90
        1
280
     0
281
     0
  0
CLASS
  1
IDBUFFER
  2
AcDbIdBuffer
  3
AutoCAD 2000
 90
        0
280
     0
281
     0
  0
CLASS
  1
SPATIAL_FILTER
  2
AcDbSpatialFilter
  3
AutoCAD 2000
 90
        0
280
     0
281
     0
  0
CLASS
  1
XRECORD
  2
AcDbXrecord
  3
AutoCAD 2000
 90
        0
280
     0
281
     0
  0
CLASS
  1
SORTENTSTABLE
  2
AcDbSortentsTable
  3
AutoCAD 2000
 90
        0
280
     0
281
     0
  0
CLASS
  1
LAYER_INDEX
  2
AcDbLayerIndex
  3
AutoCAD 2000
 90
        0
280
     0
281
     0
  0
CLASS
  1
SPATIAL_INDEX
  2
AcDbSpatialIndex
  3
AutoCAD 2000
 90
        0
280
     0
281
     0
  0
CLASS
  1
OBJECT_PTR
  2
CAseDLPNTableRecord
  3
ASE-LPNTableRecord
 90
        1
280
     0
281
     0
  0
CLASS
  1
PLOTSETTINGS
  2
AcDbPlotSettings
  3
AutoCAD 2000
 90
        0
280
     0
281
     0
  0
CLASS
  1
VBA_PROJECT
  2
AcDbVbaProject
  3
acadvba
 90
        0
280
     0
281
     0
  0
CLASS
  1
WIPEOUT
  2
AcDbWipeout
  3
"WipeOut|Product Desc: Object Enabler for WipeOut entity^I^I^I^I^I^I|Company: Autodesk, Inc.^I^I^I^I^I^I|WEB Address: www.autodesk.com"
 90
      127
280
     0
281
     1
  0
CLASS
  1
WIPEOUTVARIABLES
  2
AcDbWipeoutVariables
  3
"WipeOut|Product Desc:     WipeOut Dbx Application|Company:          Autodesk, Inc.|WEB Address:      www.autodesk.com"
 90
        0
280
     0
281
     0
  0
CLASS
  1
RTEXT
  2
RText
  3
RText|AutoCAD Express Tool|expresstools@autodesk.com
 90
        0
280
     1
281
     1
  0
CLASS
  1
ARCALIGNEDTEXT
  2
AcDbArcAlignedText
  3
ATEXT|AutoCAD Express Tool|expresstools@autodesk.com
 90
        0
280
     1
281
     1
  0
CLASS
  1
TABLESTYLE
  2
AcDbTableStyle
  3
ObjectDBX Classes
 90
     2047
280
     0
281
     0
  0
CLASS
  1
ACAD_PROXY_OBJECT_WRAPPER
  2
AcDbProxyObjectWrapper
  3
AutoCAD 2000
 90
        0
280
     0
281
     0
  0
CLASS
  1
LONG_TRANSACTION
  2
AcDbLongTransaction
  3
AutoCAD 2000
 90
        0
280
     0
281
     0
  0
CLASS
  1
LWPOLYLINE
  2
AcDbPolyline
  3
AutoCAD 2000
 90
        0
280
     0
281
     1
  0
CLASS
  1
HATCH
  2
AcDbHatch
  3
AutoCAD 2000
 90
        0
280
     0
281
     1
  0
CLASS
  1
XRECORD
  2
AcDbXrecord
  3
AutoCAD 2000
 90
        0
280
     0
281
     0
  0
CLASS
  1
LONG_TRANSACTION
  2
AcDbLongTransaction
  3
AutoCAD 2000
 90
        0
280
     0
281
     0
  0
CLASS
  1
LWPOLYLINE
  2
AcDbPolyline
  3
AutoCAD 2000
 90
        0
280
     0
281
     1
  0
CLASS
  1
HATCH
  2
AcDbHatch
  3
AutoCAD 2000
 90
        0
280
     0
281
     1
  0
CLASS
  1
XRECORD
  2
AcDbXrecord
  3
AutoCAD 2000
 90
        0
280
     0
281
     0
  0
CLASS
  1
LONG_TRANSACTION
  2
AcDbLongTransaction
  3
AutoCAD 2000
 90
        0
280
     0
281
     0
  0
CLASS
  1
LWPOLYLINE
  2
AcDbPolyline
  3
AutoCAD 2000
 90
        0
280
     0
281
     1
  0
CLASS
  1
HATCH
  2
AcDbHatch
  3
AutoCAD 2000
 90
        0
280
     0
281
     1
  0
CLASS
  1
XRECORD
  2
AcDbXrecord
  3
AutoCAD 2000
 90
        0
280
     0
281
     0
  0
ENDSEC
  0
SECTION
  2
TABLES
  0
TABLE
  2
VPORT
  5
1E
330
0
100
AcDbSymbolTable
 70
     3
  0
VPORT
  5
3ED
330
1E
100
AcDbSymbolTableRecord
100
AcDbViewportTableRecord
  2
*ACTIVE
 70
     0
 10
0.0
 20
0.0
 11
1.0
 21
1.0
 12
9.726891991711852
 22
-4.090034713820713
 13
0.0
 23
0.0
 14
1.0
 24
1.0
 15
0.0
 25
0.0
 16
0.0
 26
0.0
 36
1.0
 17
0.0
 27
0.0
 37
0.0
 40
32.17999094055321
 41
1.786792452830188
 42
50.0
 43
0.0
 44
0.0
 50
0.0
 51
0.0
 71
     0
 72
   100
 73
     1
 74
     1
 75
     0
 76
     0
 77
     0
 78
     0
  0
ENDTAB
  0
TABLE
  2
LTYPE
  5
19
330
0
100
AcDbSymbolTable
 70
     2
  0
LTYPE
  5
1A
330
19
100
AcDbSymbolTableRecord
100
AcDbLinetypeTableRecord
  2
BYBLOCK
 70
     0
  3

 72
    65
 73
     0
 40
0.0
  0
LTYPE
  5
1B
330
19
100
AcDbSymbolTableRecord
100
AcDbLinetypeTableRecord
  2
BYLAYER
 70
     0
  3

 72
    65
 73
     0
 40
0.0
  0
LTYPE
  5
8
330
19
100
AcDbSymbolTableRecord
100
AcDbLinetypeTableRecord
  2
CONTINUOUS
 70
     0
  3
Solid line
 72
    65
 73
     0
 40
0.0
  0
LTYPE
  5
2FD
330
19
100
AcDbSymbolTableRecord
100
AcDbLinetypeTableRecord
  2
CENTER
 70
     0
  3
____ _ ____ _ ____ _ ____ _ ____ _ ____ _ ____
 72
    65
 73
     4
 40
0.6
 49
0.375
 74
     0
 49
-0.075
 74
     0
 49
0.075
 74
     0
 49
-0.075
 74
     0
  0
ENDTAB
  0
TABLE
  2
LAYER
  5
11
102
{ACAD_XDICTIONARY
360
12
102
}
330
0
100
AcDbSymbolTable
 70
     2
  0
LAYER
  5
6
330
11
100
AcDbSymbolTableRecord
100
AcDbLayerTableRecord
  2
0
 70
     0
 62
     7
  6
CONTINUOUS
  0
LAYER
  5
2FC
330
11
100
AcDbSymbolTableRecord
100
AcDbLayerTableRecord
  2
CENTER
 70
     0
 62
     1
  6
CENTER
1001
ACAECLAYERSTANDARD
1000

1000

  0
ENDTAB
  0
TABLE
  2
STYLE
  5
16
330
0
100
AcDbSymbolTable
 70
     1
  0
STYLE
  5
17
330
16
100
AcDbSymbolTableRecord
100
AcDbTextStyleTableRecord
  2
STANDARD
 70
     0
 40
0.0
 41
0.8
 50
0.0
 71
     0
 42
0.2
  3
txt
  4

  0
ENDTAB
  0
TABLE
  2
VIEW
  5
1C
330
0
100
AcDbSymbolTable
 70
     0
  0
ENDTAB
  0
TABLE
  2
UCS
  5
1D
330
0
100
AcDbSymbolTable
 70
     0
  0
ENDTAB
  0
TABLE
  2
APPID
  5
20
330
0
100
AcDbSymbolTable
 70
     4
  0
APPID
  5
15
330
20
100
AcDbSymbolTableRecord
100
AcDbRegAppTableRecord
  2
ACAD
 70
     0
  0
APPID
  5
2FE
330
20
100
AcDbSymbolTableRecord
100
AcDbRegAppTableRecord
  2
ACAECLAYERSTANDARD
 70
     0
  0
APPID
  5
304
330
20
100
AcDbSymbolTableRecord
100
AcDbRegAppTableRecord
  2
DCO15
 70
     0
  0
APPID
  5
30C
330
20
100
AcDbSymbolTableRecord
100
AcDbRegAppTableRecord
  2
ACAD_DSTYLE_DIMTEXT_FILL
 70
     0
  0
ENDTAB
  0
TABLE
  2
DIMSTYLE
  5
21
330
0
100
AcDbSymbolTable
 70
     1
  0
DIMSTYLE
105
22
330
21
100
AcDbSymbolTableRecord
100
AcDbDimStyleTableRecord
  2
STANDARD
 70
     0
  3

  4

  5
_FILLED
  6
_FILLED
  7
_FILLED
 40
1.0
 41
0.1875
 42
0.0625
 43
0.38
 44
0.18
 45
0.0
 46
0.0
 47
0.0
 48
0.0
140
0.125
141
0.09
142
0.0
143
25.4
144
16.0
145
0.0
146
1.0
147
0.09
 71
     0
 72
     0
 73
     1
 74
     1
 75
     0
 76
     0
 77
     0
 78
     4
170
     0
171
     2
172
     0
173
     0
174
     0
175
     0
176
     0
177
     0
178
     0
270
     2
271
     0
272
     0
273
     2
274
     2
340
17
275
     0
280
     0
281
     0
282
     0
283
     1
284
     4
285
     0
286
     0
287
     3
288
     0
  0
ENDTAB
  0
TABLE
  2
BLOCK_RECORD
  5
1
330
0
100
AcDbSymbolTable
 70
     1
  0
BLOCK_RECORD
  5
2
102
{ACAD_XDICTIONARY
360
3
102
}
330
1
100
AcDbSymbolTableRecord
100
AcDbBlockTableRecord
  2
*MODEL_SPACE
  0
BLOCK_RECORD
  5
D
102
{ACAD_XDICTIONARY
360
365
102
}
330
1
100
AcDbSymbolTableRecord
100
AcDbBlockTableRecord
  2
*PAPER_SPACE
  0
BLOCK_RECORD
  5
23
330
1
100
AcDbSymbolTableRecord
100
AcDbBlockTableRecord
  2
_FILLED
  0
ENDTAB
  0
ENDSEC
  0
SECTION
  2
BLOCKS
  0
BLOCK
  5
5
330
2
100
AcDbEntity
  8
0
100
AcDbBlockBegin
  2
*MODEL_SPACE
 70
     0
 10
0.0
 20
0.0
 30
0.0
  3
*MODEL_SPACE
  1

  0
ENDBLK
  5
9
330
2
100
AcDbEntity
  8
0
100
AcDbBlockEnd
  0
BLOCK
  5
E
330
D
100
AcDbEntity
 67
     1
  8
0
100
AcDbBlockBegin
  2
*PAPER_SPACE
 70
     0
 10
0.0
 20
0.0
 30
0.0
  3
*PAPER_SPACE
  1

  0
ENDBLK
  5
F
330
D
100
AcDbEntity
 67
     1
  8
0
100
AcDbBlockEnd
  0
BLOCK
  5
24
330
23
100
AcDbEntity
  8
0
100
AcDbBlockBegin
  2
_FILLED
 70
     0
 10
0.0
 20
0.0
 30
0.0
  3
_FILLED
  1

  0
SOLID
  5
25
330
23
100
AcDbEntity
  8
0
  6
BYBLOCK
 62
     0
100
AcDbTrace
 10
0.0
 20
0.0
 30
0.0
 11
-1.0
 21
0.1066666667
 31
0.0
 12
-1.0
 22
-0.1066666667
 32
0.0
 13
-1.0
 23
-0.1066666667
 33
0.0
  0
ENDBLK
  5
26
330
23
100
AcDbEntity
  8
0
  6
BYBLOCK
 62
     0
100
AcDbBlockEnd
  0
ENDSEC
  0
SECTION
  2
ENTITIES
  0
LWPOLYLINE
  5
32
330
2
100
AcDbEntity
  8
0
100
AcDbPolyline
 90
      102
 70
     0
 43
0.0
 10
3.882399132029149
 20
-11.49874185171051
 10
3.890164642429141
 20
-11.49847230131052
 10
3.896083975229146
 20
-11.49813498931052
 10
3.903125341629163
 20
-11.49779588051051
 10
3.91032813842915
 20
-11.49741398131052
 10
3.917894141629147
 20
-11.49697693331051
 10
3.926023845629146
 20
-11.49647007571052
 10
3.934916717629135
 20
-11.49587670451051
 10
3.944628253629161
 20
-11.49517636691052
 10
3.955055157629146
 20
-11.4943438885105
 10
3.966130333629138
 20
-11.49335029811052
 10
3.978039277629136
 20
-11.49216967091052
 10
3.991122271229158
 20
-11.49077058291052
 10
4.00562059282916
 20
-11.48910928211051
 10
4.021581404029149
 20
-11.48713503571052
 10
4.039009892029156
 20
-11.48479887091053
 10
4.058025916029151
 20
-11.48203235571053
 10
4.078862997629158
 20
-11.47873701971052
 10
4.101771741629136
 20
-11.47479182451052
 10
4.126953271229155
 20
-11.47006549651052
 10
4.154704479229138
 20
-11.46438340051053
 10
4.185449229629142
 20
-11.45750702611052
 10
4.219642495229152
 20
-11.44914426771051
 10
4.257791668029142
 20
-11.43893549491053
 10
4.300552645629153
 20
-11.42639561651051
 10
4.348763264829159
 20
-11.41086046131052
 10
4.403500904829144
 20
-11.39141812211053
 10
4.434881196029152
 20
-11.37940184691051
 10
4.466046085629159
 20
-11.36683680051052
 10
4.501565495229158
 20
-11.35174515731051
 10
4.536785055229159
 20
-11.33596573651052
 10
4.574285364029151
 20
-11.31826657171051
 10
4.611423336829147
 20
-11.29981898611051
 10
4.64847929042915
 20
-11.28049216531052
 10
4.685153117629141
 20
-11.26044975731053
 10
4.721389304829159
 20
-11.23974149811052
 10
4.757232892029151
 20
-11.2183608405105
 10
4.792708768829157
 20
-11.19630834451051
 10
4.827780828029148
 20
-11.17361917811052
 10
4.862389564029143
 20
-11.15034777651052
 10
4.896587954429151
 20
-11.12647740531053
 10
4.930315575229144
 20
-11.10206966291052
 10
4.963630060029146
 20
-11.07710099571053
 10
4.996423855229153
 20
-11.05167106931053
 10
5.028802540029147
 20
-11.02571465011052
 10
5.060611183229156
 20
-10.99937271731052
 10
5.092000629629154
 20
-10.97253271251053
 10
5.122796365629142
 20
-10.94535727091052
 10
5.15317156402915
 20
-10.91771255891051
 10
5.182966304829136
 20
-10.88976464851051
 10
5.212346173629157
 20
-10.86138092371051
 10
5.269594034429161
 20
-10.80364530291051
 10
5.324941903229159
 20
-10.74463418611053
 10
5.378435892029159
 20
-10.68443951891051
 10
5.430121245629152
 20
-10.62315825491051
 10
5.480384263229154
 20
-10.56052521971053
 10
5.529954194429137
 20
-10.49580269651052
 10
5.579001160829136
 20
-10.42899884051052
 10
5.626987645629156
 20
-10.36139980531052
 10
5.650681290429162
 20
-10.32775313331051
 10
5.673805688829162
 20
-10.29372799731052
 10
5.695979197629156
 20
-10.25967735411051
 10
5.70733972722914
 20
-10.2429884357105
 10
5.719332544829143
 20
-10.22676229171053
 10
5.732028293629156
 20
-10.21107358771052
 10
5.744551800829157
 20
-10.19535229971051
 10
5.750389775229137
 20
-10.18727268851051
 10
5.755781367229161
 20
-10.17888621811052
 10
5.76057471602914
 20
-10.17010910291053
 10
5.764595287229155
 20
-10.16096313331052
 10
5.767840893629141
 20
-10.15118630451052
 10
5.770393036029162
 20
-10.14119210451053
 10
5.774658783229142
 20
-10.12046727411051
 10
5.776825567229138
 20
-10.11019252531053
 10
5.779397877629151
 20
-10.10000405171052
 10
5.782544301629144
 20
-10.09032431091053
 10
5.786615664829156
 20
-10.08101784851052
 10
5.791703861629144
 20
-10.07241195091051
 10
5.797702480829144
 20
-10.06435212211052
 10
5.804438156029164
 20
-10.05666968051053
 10
5.811588620029141
 20
-10.04936252531052
 10
5.826589370429161
 20
-10.03503275411053
 10
5.833951909629149
 20
-10.0278307717105
 10
5.841020016829162
 20
-10.0203465093105
 10
5.847518101629162
 20
-10.01261005011053
 10
5.853581757629143
 20
-10.00452331091053
 10
5.864519463229157
 20
-9.98772597171051
 10
5.874463912829156
 20
-9.970353130110531
 10
5.884045888829149
 20
-9.952803418110526
 10
5.903594304829141
 20
-9.918125566910525
 10
5.922954717629153
 20
-9.883669654910526
 10
5.94114211122914
 20
-9.848931744510529
 10
5.958276381629161
 20
-9.814052670910534
 10
5.990580472829151
 20
-9.744508051710504
 10
6.005969016829141
 20
-9.709632776510538
 10
6.020737031229145
 20
-9.674494867710528
 10
6.03503147122916
 20
-9.638970931710524
 10
6.042397970429163
 20
-9.621160520510521
 10
6.050128703229148
 20
-9.603507741310515
 10
6.061396736829152
 20
-9.579963451710504
 10
6.073484447229162
 20
-9.556818056510529
 10
6.086210991229137
 20
-9.534021546110515
  0
LWPOLYLINE
  5
33
330
2
100
AcDbEntity
  8
0
100
AcDbPolyline
 90
       54
 70
     0
 43
0.0
 10
3.059961604029155
 20
-11.51275358131052
 10
2.940842368829152
 20
-11.51523635091052
 10
2.81690802322916
 20
-11.51818770931051
 10
2.693616636029162
 20
-11.52152500371052
 10
2.573703485629152
 20
-11.52518805811052
 10
2.451427773629148
 20
-11.52939523091051
 10
2.33097969522916
 20
-11.5340822357105
 10
2.217660354429142
 20
-11.53907739091052
 10
2.105333093629155
 20
-11.54471167891051
 10
2.009390764029149
 20
-11.5501926197105
 10
1.918116220029162
 20
-11.55613226771051
 10
1.843128492029137
 20
-11.5616887141105
 10
1.778467036029155
 20
-11.56711719731051
 10
1.720484114429154
 20
-11.57262838611051
 10
1.674203738429156
 20
-11.5775826229105
 10
1.628823271229151
 20
-11.58304531571052
 10
1.584170100029155
 20
-11.58919043571051
 10
1.548767714429146
 20
-11.59480475251051
 10
1.514439687229156
 20
-11.6011425301105
 10
1.498415938429161
 20
-11.6045195925105
 10
1.482470234429143
 20
-11.60824915411051
 10
1.469587296829161
 20
-11.61160827571051
 10
1.456814023229156
 20
-11.61535798931051
 10
1.446562088829153
 20
-11.6187736693105
 10
1.436473639229149
 20
-11.62265538451051
 10
1.428781178429147
 20
-11.62611253811052
 10
1.421364487229141
 20
-11.63010699411051
 10
1.416143133629162
 20
-11.63354716211051
 10
1.411357826429139
 20
-11.63761067731052
 10
1.409137914429152
 20
-11.6400407333105
 10
1.407258831229142
 20
-11.6427201157105
 10
1.405887839229137
 20
-11.6456670373105
 10
1.405104852029154
 20
-11.64955806131052
 10
1.405355823229143
 20
-11.65351513011051
 10
1.406322682429163
 20
-11.65657450451052
 10
1.407835277629146
 20
-11.65943374611051
 10
1.409724157629142
 20
-11.6620837173105
 10
1.413912559229146
 20
-11.66657094611053
 10
1.41860957682914
 20
-11.67048274131053
 10
1.425486066429158
 20
-11.6752286373105
 10
1.432697316029162
 20
-11.67946803891052
 10
1.442087100029141
 20
-11.6843198277105
 10
1.451681336829153
 20
-11.68874436371051
 10
1.463460634429139
 20
-11.6936824581105
 10
1.475380956029141
 20
-11.6982736885105
 10
1.489807421629137
 20
-11.70343792531053
 10
1.50433666962914
 20
-11.70830416211051
 10
1.537393829629138
 20
-11.7184924037105
 10
1.576120325629148
 20
-11.72936678451051
 10
1.617640256829162
 20
-11.74020384531052
 10
1.66464461682915
 20
-11.75182702611049
 10
1.713769274429154
 20
-11.76349821651051
 10
1.76797714802916
 20
-11.77602373171051
 10
1.822587500029158
 20
-11.78842716851053
  0
LWPOLYLINE
  5
34
330
2
100
AcDbEntity
  8
0
100
AcDbPolyline
 90
        5
 70
     0
 43
0.0
 10
3.851891869629156
 20
-11.49958408371053
 10
3.644608664829149
 20
-11.50265633651053
 10
3.451752352829146
 20
-11.5057269573105
 10
3.251128493629153
 20
-11.50917959571051
 10
3.059961604029155
 20
-11.51275358131052
  0
LWPOLYLINE
  5
35
330
2
100
AcDbEntity
  8
0
100
AcDbPolyline
 90
       10
 70
     0
 43
0.0
 10
2.380986252029146
 20
-11.92906686131052
 10
3.299842351229159
 20
-11.92308740371051
 10
3.789029562429163
 20
-11.92029845651051
 10
4.275587224829138
 20
-11.91777972851053
 10
5.301594823229152
 20
-11.91326035411051
 10
6.369136029629146
 20
-11.90963335411051
 10
7.264831135229144
 20
-11.90739202771052
 10
7.469150501629144
 20
-11.90698024531052
 10
8.591816690429141
 20
-11.90536017811052
 10
9.726871888829151
 20
-11.90481757971053
  0
LWPOLYLINE
  5
36
330
2
100
AcDbEntity
  8
0
100
AcDbPolyline
 90
       23
 70
     0
 43
0.0
 10
7.661406300029142
 20
-11.46688179411051
 10
7.528899120829152
 20
-11.46746831251052
 10
7.389456624829136
 20
-11.46811848371051
 10
7.238951212029149
 20
-11.46886087731052
 10
7.072643242429137
 20
-11.4697300437105
 10
6.884944253629157
 20
-11.47077572371051
 10
6.671493799229153
 20
-11.47204877171051
 10
6.428764287229142
 20
-11.47361319091052
 10
6.169323852029151
 20
-11.47543615571051
 10
5.915832407229146
 20
-11.47737940211052
 10
5.660904060029139
 20
-11.47949239731053
 10
5.410746666429162
 20
-11.48171527891053
 10
5.187552671229155
 20
-11.4838257797105
 10
4.992992602429154
 20
-11.48577122291052
 10
4.817397250429138
 20
-11.48761536851053
 10
4.653514204029136
 20
-11.48942324211051
 10
4.503766327229158
 20
-11.49114575571052
 10
4.368378284029148
 20
-11.49276753971053
 10
4.244621879229157
 20
-11.49430501811053
 10
4.131502151229142
 20
-11.4957591365105
 10
4.028945266429161
 20
-11.49712163731052
 10
3.936051978429162
 20
-11.49839469811052
 10
3.851891869629156
 20
-11.49958408371053
  0
LWPOLYLINE
  5
37
330
2
100
AcDbEntity
  8
0
100
AcDbPolyline
 90
        6
 70
     0
 43
0.0
 10
9.526135282429152
 20
-11.46184234451052
 10
9.419418933629145
 20
-11.46195437491052
 10
9.30842723602916
 20
-11.46210175731052
 10
8.818500146429158
 20
-11.46304596211052
 10
8.24546875122914
 20
-11.46467009811052
 10
7.661406330429144
 20
-11.46688182291051
  0
LWPOLYLINE
  5
38
330
2
100
AcDbEntity
  8
0
100
AcDbPolyline
 90
        5
 70
     0
 43
0.0
 10
9.726918306429155
 20
-11.4617439269105
 10
9.723809759229141
 20
-11.46174395091053
 10
9.720802586429158
 20
-11.46174402611051
 10
9.714775493629161
 20
-11.46174433651051
 10
9.526135282429152
 20
-11.46184234451052
  0
LINE
  5
39
330
2
100
AcDbEntity
  8
0
100
AcDbLine
 10
9.729973994429151
 20
-11.46174420051053
 30
0.0
 11
9.726971199229161
 21
-11.46174417811052
 31
0.0
  0
LWPOLYLINE
  5
3A
330
2
100
AcDbEntity
  8
0
100
AcDbPolyline
 90
        3
 70
     0
 43
0.0
 10
9.751113364029151
 20
-11.46174583091052
 10
9.739008248829151
 20
-11.4617445861105
 10
9.729973994429144
 20
-11.46174420051053
  0
LWPOLYLINE
  5
3B
330
2
100
AcDbEntity
  8
0
100
AcDbPolyline
 90
       10
 70
     0
 43
0.0
 10
9.726871888829151
 20
-11.90481758131053
 10
10.86196704722914
 20
-11.90536017811052
 10
11.98463323602914
 20
-11.90698024531052
 10
12.18895260082914
 20
-11.90739202771052
 10
13.08464770482913
 20
-11.90963335411051
 10
14.15218891282916
 20
-11.91326035411051
 10
15.17819650802914
 20
-11.91777972851053
 10
15.66475417202914
 20
-11.92029845651051
 10
16.15394138322915
 20
-11.92308740371051
 10
17.07279747922913
 20
-11.92906686131052
  0
LWPOLYLINE
  5
3C
330
2
100
AcDbEntity
  8
0
100
AcDbPolyline
 90
        8
 70
     0
 43
0.0
 10
11.79237582962915
 20
-11.46688205331053
 10
11.20831452562916
 20
-11.46467033811051
 10
10.63528308562914
 20
-11.46304620851051
 10
10.14535617202915
 20
-11.46210200691051
 10
10.03436454482914
 20
-11.46195462451051
 10
9.927648279229146
 20
-11.46184259411051
 10
9.825163778429157
 20
-11.46176998611053
 10
9.751113364029151
 20
-11.46174583091052
  0
LWPOLYLINE
  5
3D
330
2
100
AcDbEntity
  8
0
100
AcDbPolyline
 90
       17
 70
     0
 43
0.0
 10
11.79237567762913
 20
-11.46688223251052
 10
11.93068895762914
 20
-11.46749466291051
 10
12.07341574162916
 20
-11.46816210931052
 10
12.22708635442916
 20
-11.46892320371051
 10
12.39824301362915
 20
-11.46982276051053
 10
12.59329144562914
 20
-11.47091692051051
 10
12.81506993362916
 20
-11.47225256691051
 10
13.06001119922913
 20
-11.47384961971052
 10
13.31166164562915
 20
-11.4756369717105
 10
13.54781519282914
 20
-11.4774582389105
 10
13.75698761362915
 20
-11.47918551731051
 10
13.94010110802915
 20
-11.48078275891051
 10
14.10196429842915
 20
-11.48226052051051
 10
14.24589633842916
 20
-11.48362829651051
 10
14.37394458482916
 20
-11.48489015731052
 10
14.48780044082914
 20
-11.48604946451052
 10
14.58917847122916
 20
-11.48711184371051
  0
LINE
  5
3E
330
2
100
AcDbEntity
  8
0
100
AcDbLine
 10
14.58917847122916
 20
-11.48711184371051
 30
0.0
 11
14.76100074802915
 21
-11.48898359251051
 31
0.0
  0
LINE
  5
3F
330
2
100
AcDbEntity
  8
0
100
AcDbLine
 10
14.76100074802915
 20
-11.48898359251051
 30
0.0
 11
14.89955128082915
 21
-11.49055702291053
 31
0.0
  0
LINE
  5
40
330
2
100
AcDbEntity
  8
0
100
AcDbLine
 10
14.89955128082915
 20
-11.49055702291053
 30
0.0
 11
15.05944168082914
 21
-11.49245171571052
 31
0.0
  0
LINE
  5
41
330
2
100
AcDbEntity
  8
0
100
AcDbLine
 10
15.05944168082914
 20
-11.49245171571052
 30
0.0
 11
15.18907338482916
 21
-11.49405177171052
 31
0.0
  0
LINE
  5
42
330
2
100
AcDbEntity
  8
0
100
AcDbLine
 10
15.18907338482916
 20
-11.49405177171052
 30
0.0
 11
15.29539170962915
 21
-11.49540900691052
 31
0.0
  0
LINE
  5
43
330
2
100
AcDbEntity
  8
0
100
AcDbLine
 10
15.29539170962915
 20
-11.49540900691052
 30
0.0
 11
15.43317395762915
 21
-11.49723432531052
 31
0.0
  0
LINE
  5
44
330
2
100
AcDbEntity
  8
0
100
AcDbLine
 10
15.43317395762915
 20
-11.49723432531052
 30
0.0
 11
15.55703317682915
 21
-11.49894500531052
 31
0.0
  0
LWPOLYLINE
  5
45
330
2
100
AcDbEntity
  8
0
100
AcDbPolyline
 90
        5
 70
     0
 43
0.0
 10
16.39382213362915
 20
-11.51275358131052
 10
16.20295589682913
 20
-11.50918498611053
 10
16.00241498002915
 20
-11.50573329491052
 10
15.80949685042915
 20
-11.50266127411051
 10
15.55703317682915
 20
-11.49894500531052
  0
LWPOLYLINE
  5
46
330
2
100
AcDbEntity
  8
0
100
AcDbPolyline
 90
       44
 70
     0
 43
0.0
 10
11.79237567762913
 20
-11.46688223251052
 10
11.76262982642916
 20
-11.46468978131053
 10
11.73100535922915
 20
-11.46187598771052
 10
11.71476104242916
 20
-11.45995443731052
 10
11.69863131762915
 20
-11.45729090131052
 10
11.68262985042915
 20
-11.45343622131053
 10
11.67469488082915
 20
-11.45089777651053
 10
11.66692067122915
 20
-11.44790490291051
 10
11.65913338642914
 20
-11.44432217171051
 10
11.65159507282913
 20
-11.44023955731051
 10
11.64400575922914
 20
-11.43545702771052
 10
11.63674574802914
 20
-11.43018806771052
 10
11.62938849522913
 20
-11.42408252851051
 10
11.62242283282916
 20
-11.41753261971052
 10
11.61525293842913
 20
-11.40994925811053
 10
11.60850484242914
 20
-11.40198737171052
 10
11.60148187922914
 20
-11.39281499251051
 10
11.59488094642915
 20
-11.38333375091053
 10
11.58806364402914
 20
-11.3726367109105
 10
11.58165457682915
 20
-11.36169029811053
 10
11.57511204722914
 20
-11.34957743091052
 10
11.56894496882915
 20
-11.33726870131052
 10
11.55672033682915
 20
-11.31031612691051
 10
11.54487354802915
 20
-11.28091866931051
 10
11.53314710962914
 20
-11.24848264531052
 10
11.52132916722914
 20
-11.2124976005105
 10
11.50954077522914
 20
-11.17346573011053
 10
11.49766973202915
 20
-11.13102581971053
 10
11.48652893842916
 20
-11.08838645011052
 10
11.47502683122914
 20
-11.0417115061105
 10
11.46407628242914
 20
-10.99490466931052
 10
11.45259560242914
 20
-10.94354454131052
 10
11.44155548402915
 20
-10.89208783731052
 10
11.42972156082913
 20
-10.83490872211051
 10
11.41761333842916
 20
-10.77454352531051
 10
11.39299692402914
 20
-10.64668884371052
 10
11.36728813842916
 20
-10.50770213331053
 10
11.34161263922914
 20
-10.36519499251053
 10
11.31419084562915
 20
-10.21085760211053
 10
11.28415689682916
 20
-10.04089063891051
 10
11.25093573522914
 20
-9.853480802110532
 10
11.21675418322914
 20
-9.662922968510535
 10
11.18062031922914
 20
-9.464812694910527
 10
11.14225257522915
 20
-9.259439099710526
  0
LWPOLYLINE
  5
47
330
2
100
AcDbEntity
  8
0
100
AcDbPolyline
 90
       49
 70
     0
 43
0.0
 10
9.726891784829149
 20
1.079732076289481
 10
9.722170504829136
 20
1.079667533889484
 10
9.717451242429149
 20
1.079438261889471
 10
9.712744754429138
 20
1.07903063308948
 10
9.708061800829142
 20
1.078431018689464
 10
9.703547256829153
 20
1.077658581889473
 10
9.699063868029156
 20
1.076716455489481
 10
9.694610484029141
 20
1.07562866348946
 10
9.690185952829153
 20
1.074419229889493
 10
9.685722762429151
 20
1.073083717889467
 10
9.681299746429147
 20
1.071628362689473
 10
9.676928501629163
 20
1.070034015489461
 10
9.672620628029136
 20
1.068281527489467
 10
9.66825600562916
 20
1.066295671489463
 10
9.663969556029144
 20
1.064139570689469
 10
9.659759780029162
 20
1.061831383489483
 10
9.655625180029147
 20
1.059389271489472
 10
9.649503967229151
 20
1.055467444289469
 10
9.643555580029158
 20
1.051293284289478
 10
9.637783820029142
 20
1.046880045889487
 10
9.631891959229136
 20
1.04198399308948
 10
9.626194437629152
 20
1.036861068289461
 10
9.620685023229157
 20
1.031535437889495
 10
9.616129530429162
 20
1.026849882689482
 10
9.611701914429147
 20
1.022043860289478
 10
9.607397732029141
 20
1.017126796289467
 10
9.603212541629147
 20
1.012108119489489
 10
9.598529605629153
 20
1.006207914689476
 10
9.593992066429137
 20
1.000195173889473
 10
9.589593087229161
 20
0.9940798730894826
 10
9.585325831229141
 20
0.9878719946894776
 10
9.579454644029141
 20
0.9788756906894846
 10
9.573821071229161
 20
0.9697289930894683
 10
9.568408688829151
 20
0.9604495322894948
 10
9.562316530429143
 20
0.9494094954894833
 10
9.55648653842914
 20
0.9382285770894682
 10
9.550898727229139
 20
0.9269245434894699
 10
9.545787810429146
 20
0.9160664074894739
 10
9.540865586429163
 20
0.9051218218894874
 10
9.536119466429141
 20
0.8940997754894866
 10
9.530727181629146
 20
0.8810008730894836
 10
9.525546253629158
 20
0.8678166682894712
 10
9.520560196029151
 20
0.8545572682894615
 10
9.514925839229135
 20
0.8388801258894957
 10
9.509525197629159
 20
0.8231210458894864
 10
9.504345276029141
 20
0.8072881082894767
 10
9.498536952829141
 20
0.7886585770894854
 10
9.492970557629149
 20
0.769955106689487
 10
9.487602972029151
 20
0.7511940138894673
  0
LWPOLYLINE
  5
48
330
2
100
AcDbEntity
  8
0
100
AcDbPolyline
 90
       12
 70
     0
 43
0.0
 10
1.822587500029158
 20
-11.78842716851053
 10
1.928968932029135
 20
-11.81242854451053
 10
1.980195890429143
 20
-11.82407298451052
 10
2.030849071229141
 20
-11.83571059571053
 10
2.085770237629162
 20
-11.84859693331054
 10
2.142598559229156
 20
-11.86230286131051
 10
2.202638429629161
 20
-11.87741886931052
 10
2.264709157629141
 20
-11.89401186771052
 10
2.294109346429138
 20
-11.90230637171051
 10
2.323414895229149
 20
-11.91092866131051
 10
2.35225819122914
 20
-11.91981540211053
 10
2.380986255229146
 20
-11.92906686131052
  0
LWPOLYLINE
  5
49
330
2
100
AcDbEntity
  8
0
100
AcDbPolyline
 90
       47
 70
     0
 43
0.0
 10
9.726891869629156
 20
1.079732076289481
 10
9.73266302642915
 20
1.079592815489469
 10
9.73841282482914
 20
1.079161514689481
 10
9.744133175229137
 20
1.07845366668949
 10
9.749743704829143
 20
1.077498708289461
 10
9.755309861629143
 20
1.076304217089479
 10
9.760823861629148
 20
1.07488509708947
 10
9.766285647229153
 20
1.073251812289477
 10
9.771680144829161
 20
1.071411143489463
 10
9.777000178429148
 20
1.069366023489472
 10
9.782318296829146
 20
1.067084026689492
 10
9.787545917629159
 20
1.064600911489471
 10
9.792676700029147
 20
1.061923300289471
 10
9.797852596029144
 20
1.058970303489481
 10
9.802915690429159
 20
1.055827823489472
 10
9.807862583229137
 20
1.052505583489484
 10
9.812894140029158
 20
1.048860458689468
 10
9.817795618429158
 20
1.045041940289486
 10
9.822566986429137
 20
1.041061522689467
 10
9.828127725629144
 20
1.036081901889481
 10
9.833506716029148
 20
1.030904319489486
 10
9.838710010429139
 20
1.025547868289471
 10
9.843743663229162
 20
1.020031641089481
 10
9.849052194429162
 20
1.013848482689475
 10
9.854175517629158
 20
1.007512485889471
 10
9.859123362429158
 20
1.001038452289471
 10
9.863905450429143
 20
0.994441185089478
 10
9.868958959229161
 20
0.9870977450894784
 10
9.873835820029142
 20
0.9796360778894737
 10
9.878546180029161
 20
0.9720677610894838
 10
9.883100186429146
 20
0.9644043802894728
 10
9.88790598162916
 20
0.9559398986894862
 10
9.892547272829148
 20
0.9473844970894802
 10
9.897033903229157
 20
0.9387468058894867
 10
9.90137571442915
 20
0.930035457089481
 10
9.907433032829146
 20
0.9172881146894908
 10
9.913227210429141
 20
0.9044191178894678
 10
9.918778933629141
 20
0.8914435450894941
 10
9.924538263229152
 20
0.8772932346894677
 10
9.930056636029149
 20
0.8630473194894889
 10
9.935352976829136
 20
0.8487174122894955
 10
9.940830468029162
 20
0.8331985082894632
 10
9.946087631229147
 20
0.8176035146894733
 10
9.951139842429142
 20
0.801940333889469
 10
9.956346120829152
 20
0.7850811914894749
 10
9.961353447229157
 20
0.768162505089471
 10
9.966180767229161
 20
0.7511940154894959
  0
LWPOLYLINE
  5
4A
330
2
100
AcDbEntity
  8
0
100
AcDbPolyline
 90
       52
 70
     0
 43
0.0
 10
9.726891869629156
 20
2.092584601089477
 10
9.806773344829139
 20
2.083924042689496
 10
9.885952240829141
 20
2.070724495489464
 10
9.963929005629154
 20
2.052947828289468
 10
10.04072492722914
 20
2.030553687489494
 10
10.11547761042913
 20
2.003787828289468
 10
10.18844506322915
 20
1.972514719489488
 10
10.24139652082914
 20
1.946340455489469
 10
10.29308501522913
 20
1.917766535489484
 10
10.34310427602915
 20
1.887083137089469
 10
10.39171809042915
 20
1.854189905089477
 10
10.45361516082914
 20
1.80751899468948
 10
10.51274108882916
 20
1.757342265089484
 10
10.56888290002913
 20
1.703881127489474
 10
10.60855139922915
 20
1.662131537089472
 10
10.64634382162916
 20
1.61869981548947
 10
10.68198758642916
 20
1.573815325889491
 10
10.71553441042914
 20
1.527335439489469
 10
10.74670625042915
 20
1.479449244289476
 10
10.77522570162915
 20
1.429930244289472
 10
10.80046608722915
 20
1.379065829889476
 10
10.82208458642915
 20
1.326603362689475
 10
10.83971018802915
 20
1.272724258689471
 10
10.85381447922915
 20
1.217728940289482
 10
10.86506630962915
 20
1.161978786689481
 10
10.87413452722915
 20
1.105835181889467
 10
10.88803122162914
 20
0.9926325754894733
 10
10.89860667602914
 20
0.8788503850894713
 10
10.91721775442914
 20
0.649539081089479
 10
10.93442038962914
 20
0.420145105089496
 10
10.95161255122914
 20
0.1886511978894774
 10
10.96985439282914
 20
-0.0427665237105188
 10
10.99029549842916
 20
-0.2756332421105228
 10
11.01298716882914
 20
-0.5082920453105189
 10
11.03804115922915
 20
-0.7420395141105232
 10
11.06530767282916
 20
-0.9755388997105214
 10
11.09673853682915
 20
-1.223981749310517
 10
11.13050256562914
 20
-1.472118998910524
 10
11.16707133042913
 20
-1.723993166910524
 10
11.20583309202913
 20
-1.975538899710521
 10
11.24589236402914
 20
-2.221764952510504
 10
11.28793733362914
 20
-2.467659554110518
 10
11.33348059762914
 20
-2.721783424510526
 10
11.38103966642916
 20
-2.975538899710521
 10
11.45379525202915
 20
-3.344281992510524
 10
11.53065095762914
 20
-3.712191734910526
 10
11.61425878322916
 20
-4.091275875710515
 10
11.70355027122914
 20
-4.475538899710521
 10
11.76847658802915
 20
-4.743282168510511
 10
11.83555738002914
 20
-5.010493846910513
 10
11.90574980402914
 20
-5.280560803710521
 10
11.97826192882914
 20
-5.550015278910528
  0
LWPOLYLINE
  5
4B
330
2
100
AcDbEntity
  8
0
100
AcDbPolyline
 90
       54
 70
     0
 43
0.0
 10
13.36762588402913
 20
-9.534018037310538
 10
13.40138470322915
 20
-9.60609691251053
 10
13.43584741362914
 20
-9.677842275710524
 10
13.47024925682916
 20
-9.747474571710533
 10
13.50545015442915
 20
-9.816706507710527
 10
13.54132029202915
 20
-9.885223774910507
 10
13.57804671122915
 20
-9.953285795710534
 10
13.61595735122915
 20
-10.02135174131051
 10
13.65483938162916
 20
-10.08886776051053
 10
13.69463304402916
 20
-10.15559578291051
 10
13.73548633362915
 20
-10.22167901491052
 10
13.77719357202914
 20
-10.2866825749105
 10
13.82009237042913
 20
-10.35097470611051
 10
13.86436271122915
 20
-10.41468507091052
 10
13.90962323282914
 20
-10.47719279251051
 10
13.95554993842915
 20
-10.53795703891051
 10
14.00260965042915
 20
-10.59750772851051
 10
14.05178666002913
 20
-10.65696075571053
 10
14.10236220722916
 20
-10.71522700851053
 10
14.15566340082915
 20
-10.7735782021105
 10
14.21097543922914
 20
-10.83102162131051
 10
14.26792121522913
 20
-10.88698307731052
 10
14.29702816562914
 20
-10.91438102611052
 10
14.32653417522914
 20
-10.9413487077105
 10
14.35646706002916
 20
-10.96790026451051
 10
14.38679422482914
 20
-10.9940007317105
 10
14.41723159122915
 20
-11.01940902931053
 10
14.44805653202914
 20
-11.04434538451052
 10
14.47857098802916
 20
-11.06825226931052
 10
14.50944917522915
 20
-11.0916876581105
 10
14.56981658962914
 20
-11.13540361491052
 10
14.62821494322915
 20
-11.17509179411052
 10
14.68483098002914
 20
-11.21116961971051
 10
14.73868934962914
 20
-11.24340092371053
 10
14.79343169362914
 20
-11.27410367731052
 10
14.84467203762915
 20
-11.30098309331051
 10
14.89288079122914
 20
-11.32468865331053
 10
14.93745801362914
 20
-11.34524530611053
 10
14.97906197202914
 20
-11.3632229685105
 10
15.01725812562915
 20
-11.37874650611052
 10
15.05577620882914
 20
-11.39345396691052
 10
15.08971445522914
 20
-11.40561825651053
 10
15.12388345682916
 20
-11.41711719251053
 10
15.18428883442914
 20
-11.43562192851052
 10
15.23792196082914
 20
-11.45010300691051
 10
15.28572268242913
 20
-11.46146297651051
 10
15.32863518802915
 20
-11.47041455251052
 10
15.36759323922913
 20
-11.47751916531051
 10
15.40309772882915
 20
-11.48314459891053
 10
15.43599473522914
 20
-11.48763550291052
 10
15.46783160882915
 20
-11.49132896371053
 10
15.49970462002915
 20
-11.49436932051053
 10
15.53325586802915
 20
-11.49682273491051
 10
15.57133495762914
 20
-11.49873612211052
  0
LWPOLYLINE
  5
4C
330
2
100
AcDbEntity
  8
0
100
AcDbPolyline
 90
       10
 70
     0
 43
0.0
 10
13.24587417682914
 20
-9.259575536510531
 10
13.25940815922914
 20
-9.291224253310524
 10
13.27304453362916
 20
-9.322829083710523
 10
13.28678363442915
 20
-9.354389437310537
 10
13.30019602322914
 20
-9.384927171710522
 10
13.31371272562916
 20
-9.415418834110532
 10
13.32734129362916
 20
-9.445860667710512
 10
13.34065585042915
 20
-9.475298352510513
 10
13.35408365202914
 20
-9.504684547710517
 10
13.36762589202914
 20
-9.534018043710538
  0
LWPOLYLINE
  5
4D
330
2
100
AcDbEntity
  8
0
100
AcDbPolyline
 90
       19
 70
     0
 43
0.0
 10
11.97826190002913
 20
-5.550015278910528
 10
12.05496701682915
 20
-5.825159803710526
 10
12.13454014322914
 20
-6.100538899710521
 10
12.19592822962914
 20
-6.306426627710514
 10
12.25880983282914
 20
-6.511863434110516
 10
12.32312599602914
 20
-6.716694349310522
 10
12.38891689202915
 20
-6.921056923710516
 10
12.47795571602915
 20
-7.190002354110525
 10
12.56937666322915
 20
-7.458151187710534
 10
12.66299775762914
 20
-7.725538899710521
 10
12.73317622802915
 20
-7.921826950910535
 10
12.80432248242914
 20
-8.11776427571052
 10
12.87548481202915
 20
-8.311102280510532
 10
12.94746229362914
 20
-8.504140173310524
 10
13.01968398002915
 20
-8.69507151091053
 10
13.09333650642915
 20
-8.885452454910527
 10
13.16848192722915
 20
-9.07358969011053
 10
13.21979054642915
 20
-9.197840696510517
 10
13.24587420082915
 20
-9.259575536510531
  0
LWPOLYLINE
  5
4E
330
2
100
AcDbEntity
  8
0
100
AcDbPolyline
 90
        9
 70
     0
 43
0.0
 10
10.95585010002915
 20
-8.278835400510523
 10
10.95086227122914
 20
-8.257066874110527
 10
10.94846146802913
 20
-8.246163341310527
 10
10.94676717362915
 20
-8.237978253310522
 10
10.94517206802913
 20
-8.229772499710513
 10
10.94367886322913
 20
-8.221547691710519
 10
10.94229027442915
 20
-8.213305443710531
 10
10.94100686002914
 20
-8.205075874110512
 10
10.93979489202914
 20
-8.196835346110525
  0
LWPOLYLINE
  5
4F
330
2
100
AcDbEntity
  8
0
100
AcDbPolyline
 90
       11
 70
     0
 43
0.0
 10
10.00193559762914
 20
0.6035858714894929
 10
9.998185671229151
 20
0.6208519706894791
 10
9.994336085629157
 20
0.6380962666894803
 10
9.990383224829145
 20
0.6553171850894799
 10
9.98645955922916
 20
0.6719452746894845
 10
9.982433655229158
 20
0.6885489034894832
 10
9.978303224829147
 20
0.7051269402894676
 10
9.975360511229155
 20
0.716666801089481
 10
9.97236187442914
 20
0.7281922330894944
 10
9.969303300029139
 20
0.7397017866894729
 10
9.966180767229161
 20
0.7511940138894673
  0
LWPOLYLINE
  5
50
330
2
100
AcDbEntity
  8
0
100
AcDbPolyline
 90
        9
 70
     0
 43
0.0
 10
11.14227897362914
 20
-9.259575536510531
 10
11.12998651762916
 20
-9.194992888510505
 10
11.10538568242915
 20
-9.067056166910525
 10
11.06852726002915
 20
-8.877433749310505
 10
11.04406539282914
 20
-8.751933046910515
 10
11.01970017682916
 20
-8.626413688510517
 10
10.99555713042914
 20
-8.500851763710521
 10
10.98099878162915
 20
-8.424260581310527
 10
10.96659815442916
 20
-8.347639264510512
  0
LWPOLYLINE
  5
51
330
2
100
AcDbEntity
  8
0
100
AcDbPolyline
 90
        9
 70
     0
 43
0.0
 10
10.92461839442915
 20
-8.118700426110528
 10
10.90725559122915
 20
-8.021064192510515
 10
10.89020973362915
 20
-7.923372189310519
 10
10.87327906002914
 20
-7.824481739710527
 10
10.85665721202914
 20
-7.725538899710521
 10
10.83914931122916
 20
-7.619277917310505
 10
10.82197430962915
 20
-7.51296257971051
 10
10.80500464242913
 20
-7.405871992510519
 10
10.78834416082915
 20
-7.29873299731053
  0
LWPOLYLINE
  5
52
330
2
100
AcDbEntity
  8
0
100
AcDbPolyline
 90
       11
 70
     0
 43
0.0
 10
10.96662360882913
 20
-8.347738083710531
 10
10.96606836722915
 20
-8.340679189310513
 10
10.96540248082914
 20
-8.333628093310515
 10
10.96461613202916
 20
-8.326589302910512
 10
10.96369950322915
 20
-8.319567323710536
 10
10.96264278162914
 20
-8.312566664510534
 10
10.96147720082913
 20
-8.30578480531053
 10
10.96019254962914
 20
-8.29902405011051
 10
10.95881142162915
 20
-8.292281099710514
 10
10.95735640722915
 20
-8.285552650110524
 10
10.95585010002915
 20
-8.278835400510523
  0
LWPOLYLINE
  5
53
330
2
100
AcDbEntity
  8
0
100
AcDbPolyline
 90
       17
 70
     0
 43
0.0
 10
10.20823469522915
 20
-1.637078163710519
 10
10.18690290162914
 20
-1.295632787710523
 10
10.17601290002914
 20
-1.123027408510516
 10
10.16559948402914
 20
-0.962116544510529
 10
10.15506004562914
 20
-0.8049485829105194
 10
10.14493397042915
 20
-0.6612058053105372
 10
10.13462676882915
 20
-0.521474776510523
 10
10.12464530482915
 20
-0.3950034901105184
 10
10.11441722642913
 20
-0.2725330773105199
 10
10.10115896242913
 20
-0.1266461253105078
 10
10.08722905522915
 20
0.0122912810894675
 10
10.07363577202915
 20
0.1350205242894802
 10
10.05920350642915
 20
0.251274378689466
 10
10.04531410002914
 20
0.3518461210894728
 10
10.03057754002915
 20
0.4466837594894813
 10
10.01664248082914
 20
0.5276214730894893
 10
10.00193559762914
 20
0.6035858714894929
  0
LWPOLYLINE
  5
54
330
2
100
AcDbEntity
  8
0
100
AcDbPolyline
 90
       12
 70
     0
 43
0.0
 10
8.487185656829154
 20
-8.347638878910508
 10
8.487745002429136
 20
-8.340561835710524
 10
8.488414656829149
 20
-8.33349258771053
 10
8.489204751229152
 20
-8.326435693310536
 10
8.490125413629158
 20
-8.319395709310519
 10
8.491186773629152
 20
-8.312377197310517
 10
8.492358818429153
 20
-8.305571654910515
 10
8.493650688829148
 20
-8.298787374910538
 10
8.495039410429143
 20
-8.292020974910535
 10
8.496502012029139
 20
-8.285269072510509
 10
8.498015517629141
 20
-8.278528285310521
 10
8.503011351229162
 20
-8.256722693310528
  0
LWPOLYLINE
  5
55
330
2
100
AcDbEntity
  8
0
100
AcDbPolyline
 90
        9
 70
     0
 43
0.0
 10
10.78725256082915
 20
-7.29162473171052
 10
10.77306054482914
 20
-7.198661672510517
 10
10.75908295602914
 20
-7.105666187710532
 10
10.74526795762915
 20
-7.012336598910529
 10
10.73165407762914
 20
-6.918977438910523
 10
10.71480596242915
 20
-6.801511840510521
 10
10.69825580402914
 20
-6.684003862910508
 10
10.68195972402915
 20
-6.566197910910538
 10
10.66594568242914
 20
-6.44835336211053
  0
LWPOLYLINE
  5
56
330
2
100
AcDbEntity
  8
0
100
AcDbPolyline
 90
       10
 70
     0
 43
0.0
 10
10.93651642002913
 20
-8.173980672510531
 10
10.93554644242914
 20
-8.167627326910512
 10
10.93451328082915
 20
-8.161284869310513
 10
10.93339546162914
 20
-8.154957754110505
 10
10.93217151122914
 20
-8.148650434110514
 10
10.93087206002914
 20
-8.142579166910529
 10
10.92945842162916
 20
-8.136532222910538
 10
10.92793552242915
 20
-8.130511286910511
 10
10.92630828882914
 20
-8.12451804211053
 10
10.92458164562916
 20
-8.118554173310535
  0
LINE
  5
57
330
2
100
AcDbEntity
  8
0
100
AcDbLine
 10
10.93979489202914
 20
-8.196835346110525
 30
0.0
 11
10.93651642002914
 21
-8.173980672510531
 31
0.0
  0
LINE
  5
58
330
2
100
AcDbEntity
  8
0
100
AcDbLine
 10
10.66599995762914
 20
-6.448365155710511
 30
0.0
 11
10.65490347762915
 21
-6.366935587710536
 31
0.0
  0
LWPOLYLINE
  5
59
330
2
100
AcDbEntity
  8
0
100
AcDbPolyline
 90
       22
 70
     0
 43
0.0
 10
10.65490347762914
 20
-6.366935587710536
 10
10.62203702482915
 20
-6.114918518910535
 10
10.59029499602914
 20
-5.862473410110531
 10
10.55966226162914
 20
-5.610530093310522
 10
10.53014772562914
 20
-5.358796965310538
 10
10.50218295122914
 20
-5.111552914110511
 10
10.47529888242914
 20
-4.86516119891052
 10
10.44977790802914
 20
-4.622488106110516
 10
10.42532604242916
 20
-4.38127591411051
 10
10.40047869202914
 20
-4.126536867710505
 10
10.37683626162913
 20
-3.874016736510519
 10
10.35569862802915
 20
-3.638941414910526
 10
10.33561815602914
 20
-3.406378552510538
 10
10.31798360242913
 20
-3.193820158910504
 10
10.30128599602915
 20
-2.984249882110525
 10
10.28534999282914
 20
-2.775711126910515
 10
10.27029525842914
 20
-2.570315763710532
 10
10.25604906962914
 20
-2.368091470910535
 10
10.24247693202914
 20
-2.168189979710511
 10
10.23046291122915
 20
-1.985863874110513
 10
10.21881186322914
 20
-1.804716264510538
 10
10.20823469522915
 20
-1.637078163710519
  0
LWPOLYLINE
  5
5A
330
2
100
AcDbEntity
  8
0
100
AcDbPolyline
 90
       25
 70
     0
 43
0.0
 10
8.798892288829136
 20
-6.366927938110528
 10
8.844700552829152
 20
-6.012888750910512
 10
8.894068620029145
 20
-5.610836750910515
 10
8.944059261629149
 20
-5.179031499710525
 10
8.990097354429138
 20
-4.755688702910525
 10
9.029997221629145
 20
-4.365875142910532
 10
9.065598152829153
 20
-3.996544562110521
 10
9.098185770429154
 20
-3.637803382910526
 10
9.125915132029149
 20
-3.314016258110534
 10
9.155283861629158
 20
-2.948407664510504
 10
9.181120239229159
 20
-2.603134605310508
 10
9.203405898429139
 20
-2.285388571710534
 10
9.225606676029144
 20
-1.950592470910514
 10
9.244181040829147
 20
-1.658888851710507
 10
9.265553439229137
 20
-1.316841117310524
 10
9.28502082002916
 20
-1.010460480510509
 10
9.302669293629151
 20
-0.7481866197105305
 10
9.320102279229161
 20
-0.5095825429105148
 10
9.341687581629145
 20
-0.2461792901105113
 10
9.361935204029151
 20
-0.0320042933105285
 10
9.384420149629136
 20
0.1709098746894782
 10
9.399691546429153
 20
0.2896858218894707
 10
9.41699922162914
 20
0.4081862650894621
 10
9.433261135229145
 20
0.5060986170894708
 10
9.451847837629145
 20
0.603584498689493
  0
LWPOLYLINE
  5
5B
330
2
100
AcDbEntity
  8
0
100
AcDbPolyline
 90
        9
 70
     0
 43
0.0
 10
8.787838056829144
 20
-6.44835336211053
 10
8.771824015229157
 20
-6.566197910910538
 10
8.755527933629139
 20
-6.684003862910508
 10
8.738977775229159
 20
-6.801511840510521
 10
8.722129661629139
 20
-6.918977438910523
 10
8.708515781629159
 20
-7.012336598910529
 10
8.694700781629137
 20
-7.105666186110504
 10
8.680723194429162
 20
-7.198661670910517
 10
8.666531178429153
 20
-7.29162472851052
  0
LINE
  5
5C
330
2
100
AcDbEntity
  8
0
100
AcDbLine
 10
8.798880260029143
 20
-6.366935587710536
 30
0.0
 11
8.787751565629157
 21
-6.448360061310516
 31
0.0
  0
LWPOLYLINE
  5
5D
330
2
100
AcDbEntity
  8
0
100
AcDbPolyline
 90
       10
 70
     0
 43
0.0
 10
8.515218391229154
 20
-8.188257715710527
 10
8.517316661629138
 20
-8.173693728510521
 10
8.518284522429155
 20
-8.167366715710521
 10
8.519315556029141
 20
-8.16105056531051
 10
8.520430844029164
 20
-8.15474965811051
 10
8.521651471229148
 20
-8.148468371710514
 10
8.523276858429142
 20
-8.140965338110525
 10
8.52507624242915
 20
-8.133500514110515
 10
8.527041719229146
 20
-8.126077573310531
 10
8.529165386429156
 20
-8.118700190910537
  0
LWPOLYLINE
  5
5E
330
2
100
AcDbEntity
  8
0
100
AcDbPolyline
 90
        9
 70
     0
 43
0.0
 10
8.665439576829157
 20
-7.29873299731053
 10
8.648779096829144
 20
-7.405871992510519
 10
8.631809429629157
 20
-7.51296257971051
 10
8.614634428029148
 20
-7.619277917310505
 10
8.597126525629136
 20
-7.725538899710521
 10
8.580504688829137
 20
-7.824481680510523
 10
8.563574026429137
 20
-7.923372069310509
 10
8.546528178429156
 20
-8.021064016510528
 10
8.529165386429156
 20
-8.118700190910537
  0
LWPOLYLINE
  5
5F
330
2
100
AcDbEntity
  8
0
100
AcDbPolyline
 90
       43
 70
     0
 43
0.0
 10
8.311531162429162
 20
-9.259439099710526
 10
8.272907015229151
 20
-9.466205352510534
 10
8.235590738429152
 20
-9.670887582910516
 10
8.199537192829154
 20
-9.87207938451052
 10
8.164408085629162
 20
-10.07043172531052
 10
8.132764709629157
 20
-10.24941407891051
 10
8.104129452029155
 20
-10.41011111091051
 10
8.077529714429147
 20
-10.55669076691051
 10
8.051751376829145
 20
-10.69430906611051
 10
8.027586992829156
 20
-10.81755851731053
 10
8.004810824829149
 20
-10.92685304531052
 10
7.994465973629161
 20
-10.97388736531052
 10
7.983708556029142
 20
-11.02082893651051
 10
7.973453181629139
 20
-11.06357054611051
 10
7.962683831229156
 20
-11.10618567411051
 10
7.952216383229142
 20
-11.14528632851053
 10
7.941095412029142
 20
-11.18420565491052
 10
7.930558400829141
 20
-11.21853614291051
 10
7.919207948029139
 20
-11.2526079141105
 10
7.908369848829153
 20
-11.28231094931052
 10
7.89650859602915
 20
-11.31161451251051
 10
7.884567639229146
 20
-11.33784332691052
 10
7.878509709629156
 20
-11.34989854131051
 10
7.872088354429138
 20
-11.3617637877105
 10
7.86575106642914
 20
-11.37258138451053
 10
7.859017146429152
 20
-11.38315679891052
 10
7.852460388029157
 20
-11.39259550611051
 10
7.845487362429139
 20
-11.40173030931051
 10
7.838765730429145
 20
-11.40968860051051
 10
7.831624216829141
 20
-11.41727157491052
 10
7.824674439229141
 20
-11.42383575411053
 10
7.817333440829145
 20
-11.42995801491053
 10
7.810086128829141
 20
-11.4352466309105
 10
7.802508957629157
 20
-11.44005086291053
 10
7.794987944829159
 20
-11.44415277331051
 10
7.787216957629141
 20
-11.44775646451051
 10
7.779469568829142
 20
-11.45076563571051
 10
7.771560023229142
 20
-11.45332051731053
 10
7.755614055229159
 20
-11.45720099091052
 10
7.739513252029155
 20
-11.45988686451053
 10
7.723295472829136
 20
-11.46182241171052
 10
7.691572804029163
 20
-11.46465709971052
 10
7.661406300029142
 20
-11.46688178611051
  0
LWPOLYLINE
  5
60
330
2
100
AcDbEntity
  8
0
100
AcDbPolyline
 90
        9
 70
     0
 43
0.0
 10
8.487185656829154
 20
-8.347638878910508
 10
8.472784992829161
 20
-8.424260389310511
 10
8.458226607229136
 20
-8.500851763710521
 10
8.434083562429151
 20
-8.626413688510517
 10
8.409718344829144
 20
-8.751933046910515
 10
8.385256479229155
 20
-8.877433749310505
 10
8.348398055229154
 20
-9.067056166910525
 10
8.323797220029149
 20
-9.194992888510505
 10
8.311504941629152
 20
-9.259574603710511
  0
LWPOLYLINE
  5
61
330
2
100
AcDbEntity
  8
0
100
AcDbPolyline
 90
       11
 70
     0
 43
0.0
 10
9.451847837629145
 20
0.603584498689493
 10
9.455505628029158
 20
0.6204116378894824
 10
9.459252172029152
 20
0.6372193482894844
 10
9.463095008829156
 20
0.6540052842894753
 10
9.467007405629146
 20
0.6706278234894754
 10
9.471023533629136
 20
0.6872256330894757
 10
9.475145016829145
 20
0.703797703489478
 10
9.478168255229149
 20
0.715670721089488
 10
9.481250020029136
 20
0.7275286538894719
 10
9.484393772029136
 20
0.7393701898894918
 10
9.487602972029151
 20
0.7511940154894959
  0
LWPOLYLINE
  5
62
330
2
100
AcDbEntity
  8
0
100
AcDbPolyline
 90
        9
 70
     0
 43
0.0
 10
8.503011351229162
 20
-8.256722693310528
 10
8.505411807229137
 20
-8.245799773310515
 10
8.507101735229156
 20
-8.237610093310529
 10
8.508691559229163
 20
-8.229399602110525
 10
8.510179298429136
 20
-8.221170054910537
 10
8.511562970429139
 20
-8.212923206910538
 10
8.512839490429144
 20
-8.204710434110516
 10
8.514046279229148
 20
-8.196487027710524
 10
8.515218391229154
 20
-8.188257715710527
  0
LWPOLYLINE
  5
63
330
2
100
AcDbEntity
  8
0
100
AcDbPolyline
 90
       52
 70
     0
 43
0.0
 10
7.475520343229163
 20
-5.550017139710512
 10
7.548032597629145
 20
-5.280562197310523
 10
7.618225130429152
 20
-5.010494768510504
 10
7.685306021629145
 20
-4.74328262611052
 10
7.750232445629137
 20
-4.475538896510521
 10
7.839523957629154
 20
-4.091275875710515
 10
7.923131820029141
 20
-3.712191738110526
 10
7.999987532029138
 20
-3.344281998910524
 10
8.072743047229153
 20
-2.975538896510521
 10
8.120302000829155
 20
-2.721783422910526
 10
8.165845120829146
 20
-2.467659547710518
 10
8.207889948029162
 20
-2.221764944510532
 10
8.24794910642916
 20
-1.975538896510521
 10
8.286710808829155
 20
-1.723993158910523
 10
8.323279562429149
 20
-1.472118997310523
 10
8.357043616829145
 20
-1.223981746110517
 10
8.388474524029163
 20
-0.9755388965105211
 10
8.415741077629149
 20
-0.7420395125105231
 10
8.440795109629164
 20
-0.5082920453105189
 10
8.463486821629146
 20
-0.2756332437105229
 10
8.483927972029135
 20
-0.042766525310519
 10
8.502169860029141
 20
0.1886512026894778
 10
8.519362071229153
 20
0.4201451162894685
 10
8.53656475922915
 20
0.6495391066894812
 10
8.555175892029154
 20
0.8788504266894747
 10
8.565751375229154
 20
0.992632631489478
 10
8.579648104829146
 20
1.105835279489475
 10
8.588716344829151
 20
1.161978935489464
 10
8.599968199229152
 20
1.21772913708947
 10
8.614072517629153
 20
1.272724503489492
 10
8.631698148029158
 20
1.32660365228947
 10
8.653316684029135
 20
1.379066170689476
 10
8.678557109629139
 20
1.429930633089476
 10
8.70707660242914
 20
1.479449674689483
 10
8.738248485629156
 20
1.527335908289479
 10
8.771795349629144
 20
1.573815820289475
 10
8.807439156029147
 20
1.618700333889485
 10
8.845231618429153
 20
1.662132073089487
 10
8.884900159229147
 20
1.703881676289491
 10
8.941042028029158
 20
1.757342831489474
 10
9.000168013629149
 20
1.807519573889472
 10
9.062065144829148
 20
1.854190493889468
 10
9.110679004029151
 20
1.887083729089461
 10
9.16069831122914
 20
1.917767129089476
 10
9.21238685042914
 20
1.946341047489461
 10
9.265338356029161
 20
1.97251530988948
 10
9.338305868029152
 20
2.003788407489487
 10
9.413058608829146
 20
2.030554252289483
 10
9.489854586429146
 20
2.052948373889485
 10
9.567831405629164
 20
2.070725017089479
 10
9.647010349629141
 20
2.083924533889479
 10
9.726891869629156
 20
2.092585058689486
  0
LWPOLYLINE
  5
64
330
2
100
AcDbEntity
  8
0
100
AcDbPolyline
 90
       22
 70
     0
 43
0.0
 10
6.207539956029137
 20
-9.259525400510533
 10
6.253737404029152
 20
-9.150074565310511
 10
6.298890199229163
 20
-9.040187445310515
 10
6.347886924029154
 20
-8.917775874110525
 10
6.395925877629139
 20
-8.79498489651052
 10
6.448248645629149
 20
-8.658750592510521
 10
6.499858194429151
 20
-8.522244715710534
 10
6.612313368829148
 20
-8.21927632691051
 10
6.709960039229144
 20
-7.951568246910532
 10
6.813897960829137
 20
-7.660462782910535
 10
6.870305279229143
 20
-7.499053082110513
 10
6.925907031229144
 20
-7.337363917310533
 10
6.984663732029162
 20
-7.163582450110531
 10
7.042449660029149
 20
-6.989475664510528
 10
7.102336016829156
 20
-6.805323338110518
 10
7.161008890429144
 20
-6.620781259710518
 10
7.218714612029145
 20
-6.434886286910504
 10
7.275209959229158
 20
-6.24861885011051
 10
7.328285648829137
 20
-6.069689723710517
 10
7.380160653629161
 20
-5.890410528510521
 10
7.42814378962916
 20
-5.720299682110514
 10
7.475458448829158
 20
-5.550000808510525
  0
LWPOLYLINE
  5
66
330
2
100
AcDbEntity
  8
0
100
AcDbPolyline
 90
        9
 70
     0
 43
0.0
 10
6.086210983229136
 20
-9.534021552510516
 10
6.106733536829153
 20
-9.489036202110519
 10
6.127065821629145
 20
-9.443964326910524
 10
6.140664168829147
 20
-9.413550182910505
 10
6.154168487229156
 20
-9.383094262910525
 10
6.167562213629139
 20
-9.352589605310519
 10
6.181009839229147
 20
-9.32162059411052
 10
6.194333535229162
 20
-9.290597989310519
 10
6.207539956029137
 20
-9.259525400510533
  0
LWPOLYLINE
  5
67
330
2
100
AcDbEntity
  8
0
100
AcDbPolyline
 90
       71
 70
     0
 43
0.0
 10
17.07279748242913
 20
-11.92906686131052
 10
17.11273539762913
 20
-11.91627308531052
 10
17.15291299762915
 20
-11.9042439621105
 10
17.19990978802914
 20
-11.89101823411052
 10
17.24709205522916
 20
-11.87847274131052
 10
17.30562539762914
 20
-11.86368384531052
 10
17.36430604402914
 20
-11.84948755731053
 10
17.43435498322915
 20
-11.83307846291051
 10
17.50448785202914
 20
-11.81703376531052
 10
17.63706268082916
 20
-11.78709974611052
 10
17.69423833362916
 20
-11.77408840851051
 10
17.75135659602915
 20
-11.76083280211053
 10
17.79843945202915
 20
-11.74957907411052
 10
17.84541093202915
 20
-11.73785376851051
 10
17.88215212882914
 20
-11.7281648133105
 10
17.91870186322916
 20
-11.71781257491053
 10
17.94587906162914
 20
-11.70945209331051
 10
17.97282823282915
 20
-11.70031273171053
 10
17.98564977042914
 20
-11.6955535157105
 10
17.99831413522915
 20
-11.69042315731052
 10
18.01073238002913
 20
-11.68479180531053
 10
18.01887614482913
 20
-11.68065337331051
 10
18.02681579282915
 20
-11.67610051731053
 10
18.03449798962915
 20
-11.67100270131051
 10
18.03796278962914
 20
-11.66838043091052
 10
18.04120347282915
 20
-11.66551397331053
 10
18.04406391442915
 20
-11.66230693171052
 10
18.04638799442915
 20
-11.65866290931051
 10
18.04786535442914
 20
-11.65502252691052
 10
18.04860012562915
 20
-11.65119060531053
 10
18.04839864562916
 20
-11.64739840211051
 10
18.04703962002915
 20
-11.64362892051052
 10
18.04475944722915
 20
-11.64019164531051
 10
18.04191296722913
 20
-11.63711276851051
 10
18.03759890002913
 20
-11.63348119571053
 10
18.03297727602915
 20
-11.63040362291052
 10
18.02813834482916
 20
-11.62771058131053
 10
18.01830525522913
 20
-11.62309054931051
 10
18.00815965362914
 20
-11.61911765171051
 10
17.99553742162913
 20
-11.61490576851053
 10
17.98276290962914
 20
-11.61121956051052
 10
17.96764252082914
 20
-11.60735513011052
 10
17.95242534322915
 20
-11.60387686291053
 10
17.93503123282914
 20
-11.6002835365105
 10
17.91757639762914
 20
-11.59700312371051
 10
17.87873209522913
 20
-11.59056372371053
 10
17.83643827122915
 20
-11.58454112211051
 10
17.79129671602913
 20
-11.57892814131053
 10
17.74393247602915
 20
-11.57371986451052
 10
17.69480356562914
 20
-11.56889470931053
 10
17.64396335602916
 20
-11.56440183251052
 10
17.59126983922914
 20
-11.56018417171053
 10
17.53664086642913
 20
-11.55619959731051
 10
17.48014396562914
 20
-11.55242464691053
 10
17.42194321202916
 20
-11.54884685811051
 10
17.36220801522915
 20
-11.54545628051052
 10
17.30110891602913
 20
-11.54224442291052
 10
17.23881008562915
 20
-11.53920349491053
 10
17.17546071442916
 20
-11.5363259829105
 10
17.11115847602914
 20
-11.53360289651052
 10
17.04594376082914
 20
-11.53102442771051
 10
16.97992565042915
 20
-11.52858472531053
 10
16.91333128242914
 20
-11.52628223571053
 10
16.84646968562915
 20
-11.52411749011053
 10
16.77973313842915
 20
-11.52209352051053
 10
16.71350592562916
 20
-11.52021277491052
 10
16.64798710642915
 20
-11.51847165971053
 10
16.58327390482915
 20
-11.51686354451052
 10
16.51937085842914
 20
-11.51538001171052
 10
16.45624197522914
 20
-11.51401273171051
 10
16.39382213362915
 20
-11.51275358131052
  0
LINE
  5
68
330
2
100
AcDbEntity
  8
0
100
AcDbLine
 10
-9.273108130370836
 20
5.071336100289478
 30
0.0
 11
-9.182813053570832
 21
6.122030463489501
 31
0.0
  0
LWPOLYLINE
  5
6F
330
2
100
AcDbEntity
  8
0
100
AcDbPolyline
 90
        3
 70
     0
 43
0.0
 10
-4.169512411108069
 20
5.071336100289478
 10
-4.03831813997084
 20
3.644785497089493
 10
-3.916964479170843
 20
2.315671135489488
  0
LWPOLYLINE
  5
70
330
2
100
AcDbEntity
  8
0
100
AcDbPolyline
 90
        3
 70
     0
 43
0.0
 10
-3.916965063170863
 20
2.315671106689485
 10
-3.713688799170853
 20
0.0705610778894723
 10
-3.549570215170859
 20
-1.760973197310526
  0
LWPOLYLINE
  5
75
330
2
100
AcDbEntity
  8
0
100
AcDbPolyline
 90
        6
 70
     0
 43
0.0
 10
-1.848573554370858
 20
0.6595967098894917
 10
-1.83127810957086
 20
0.7092207002894853
 10
-1.827797458370838
 20
0.7541974282894799
 10
-1.805876891970854
 20
0.7938592682894879
 10
-1.753250475970844
 20
0.8318279658894951
 10
-1.670237328770838
 20
0.8696526346894941
  0
LINE
  5
76
330
2
100
AcDbEntity
  8
0
100
AcDbLine
 10
4.356346530429171
 20
-14.42866389971052
 30
0.0
 11
15.09743720882915
 21
-14.42866389971052
 31
0.0
  0
LINE
  5
77
330
2
100
AcDbEntity
  8
0
100
AcDbLine
 10
3.337417844029154
 20
-13.5828592277105
 30
0.0
 11
3.37761496082917
 21
-13.60811141171051
 31
0.0
  0
LWPOLYLINE
  5
78
330
2
100
AcDbEntity
  8
0
100
AcDbPolyline
 90
        6
 70
     0
 43
0.0
 10
3.377614960829163
 20
-13.60811141171051
 10
3.415620018429137
 20
-13.63948058451051
 10
3.449748444029154
 20
-13.67625980211053
 10
3.479212988029161
 20
-13.71817623411052
 10
3.503035146429141
 20
-13.76452470291052
 10
3.517631888829157
 20
-13.80474548691051
  0
LWPOLYLINE
  5
79
330
2
100
AcDbEntity
  8
0
100
AcDbPolyline
 90
       17
 70
     0
 43
0.0
 10
0.7377676504291629
 20
-11.14925708371051
 10
0.7273357512291625
 20
-11.13606060371051
 10
0.7169646152291591
 20
-11.12271185651052
 10
0.7066599560291423
 20
-11.1092139429105
 10
0.6964278776291622
 20
-11.09557065331051
 10
0.6862748904291607
 20
-11.08178653171051
 10
0.6762079128291419
 20
-11.0678669445105
 10
0.6662342776291439
 20
-11.05381813331052
 10
0.6563617256291537
 20
-11.0396472901105
 10
0.6465982296291486
 20
-11.0253623573105
 10
0.6369449864291426
 20
-11.01096155251052
 10
0.6274031384291448
 20
-10.9964427125105
 10
0.6179763464291455
 20
-10.98180722611049
 10
0.6086701800291508
 20
-10.96705941491051
 10
0.5994922568291372
 20
-10.95220702611052
 10
0.5904523736291481
 20
-10.93726178611051
 10
0.5815624040291425
 20
-10.92223962931051
  0
LWPOLYLINE
  5
7A
330
2
100
AcDbEntity
  8
0
100
AcDbPolyline
 90
       24
 70
     0
 43
0.0
 10
0.5815624040291425
 20
-10.92223962931051
 10
0.5728262120291561
 20
-10.9071441701105
 10
0.5642526696291555
 20
-10.89198949491051
 10
0.5558638888291512
 20
-10.87681502291052
 10
0.5476830968291609
 20
-10.8616654997105
 10
0.5397338840291468
 20
-10.8465900677105
 10
0.5320401112291507
 20
-10.83164247731053
 10
0.5246257992291419
 20
-10.81688124211051
 10
0.5175154920291618
 20
-10.8023707845105
 10
0.5107367688291618
 20
-10.78818725491051
 10
0.5043145208291549
 20
-10.77440728851052
 10
0.4982718344291471
 20
-10.7611096709105
 10
0.4926302200291559
 20
-10.74837572691051
 10
0.4874092760291547
 20
-10.7362884037105
 10
0.4826262728291511
 20
-10.72493100371053
 10
0.4782956888291495
 20
-10.71438556051051
 10
0.474428693629136
 20
-10.7047308357105
 10
0.4710324968291389
 20
-10.69603966291051
 10
0.4681049352291496
 20
-10.68836332851051
 10
0.4656371352291444
 20
-10.68173573651051
 10
0.4636228776291489
 20
-10.67619715891051
 10
0.4620435064291542
 20
-10.67175229011052
 10
0.4608928520291613
 20
-10.66843907411051
 10
0.4601353704291569
 20
-10.66620709491052
  0
LWPOLYLINE
  5
7B
330
2
100
AcDbEntity
  8
0
100
AcDbPolyline
 90
       12
 70
     0
 43
0.0
 10
-3.549582333570839
 20
-1.76083216691051
 10
-3.525853792770845
 20
-1.939554302910515
 10
-3.472503757570848
 20
-2.160748334910515
 10
-3.389948914370847
 20
-2.380576112510532
 10
-3.280672469570845
 20
-2.590849718910526
 10
-3.14760245517084
 20
-2.788763208510509
 10
-2.994267853570846
 20
-2.972531050110511
 10
-2.823425995970836
 20
-3.142314875710518
 10
-2.637138451970855
 20
-3.298911802110517
 10
-2.436553509570842
 20
-3.443630797310497
 10
-2.223309847170838
 20
-3.577233741310514
 10
-2.01245487597086
 20
-3.693411437310508
  0
LWPOLYLINE
  5
7C
330
2
100
AcDbEntity
  8
0
100
AcDbPolyline
 90
        7
 70
     0
 43
0.0
 10
-1.428291120770836
 20
-3.399530187710517
 10
-1.333808739970862
 20
-4.452566429310529
 10
-1.225498048770845
 20
-5.658571541310514
 10
-1.120242781570851
 20
-6.787785794110497
 10
-1.011603645570858
 20
-7.861226882110507
 10
-0.8912024343708537
 20
-8.898460411710509
 10
-0.7582078359708362
 20
-9.867655750910522
  0
LWPOLYLINE
  5
7D
330
2
100
AcDbEntity
  8
0
100
AcDbPolyline
 90
       18
 70
     0
 43
0.0
 10
-1.428291120770836
 20
-3.399530187710517
 10
-1.434385131970856
 20
-3.272870018110516
 10
-1.430892407170858
 20
-3.158356909310519
 10
-1.419360552770854
 20
-3.045308304510506
 10
-1.40035439277085
 20
-2.933741026110503
 10
-1.37429393837084
 20
-2.823318819710515
 10
-1.341177659970838
 20
-2.712966211710515
 10
-1.302927447170844
 20
-2.607211302910506
 10
-1.264206488770838
 20
-2.51362497971052
 10
-1.226163466370849
 20
-2.429702379710526
 10
-1.188864787970857
 20
-2.352481733310519
 10
-1.15248366157084
 20
-2.280411715710521
 10
-1.117000527170858
 20
-2.212196040510512
 10
-1.082414616770847
 20
-2.146965054910531
 10
-1.048764827970842
 20
-2.084170738110508
 10
-1.016041127170836
 20
-2.023335246910498
 10
-0.9842001943708567
 20
-1.964024462910508
 10
-0.9580921495708594
 20
-1.915059507710502
  0
LWPOLYLINE
  5
80
330
2
100
AcDbEntity
  8
0
100
AcDbPolyline
 90
       18
 70
     0
 43
0.0
 10
-2.291454083970847
 20
1.068801873089491
 10
-2.42532731277086
 20
0.9478315802894954
 10
-2.544825597570849
 20
0.8198664250894935
 10
-2.651091514370847
 20
0.6890874490894774
 10
-2.749781661570835
 20
0.5522653290895008
 10
-2.83685513037085
 20
0.4184119466894814
 10
-2.912925715970857
 20
0.2907094586894985
 10
-2.981567427970844
 20
0.1663282618894826
 10
-3.04225482637085
 20
0.0487258410894995
 10
-3.098310967170846
 20
-0.0667934517105025
 10
-3.149793664770839
 20
-0.1795243269105171
 10
-3.198954568770858
 20
-0.2940157909105139
 10
-3.246051709570849
 20
-0.4110097717105177
 10
-3.294586304770859
 20
-0.5399661589105094
 10
-3.347234375170842
 20
-0.6908001909105153
 10
-3.403442208770854
 20
-0.865957707710514
 10
-3.461698147970849
 20
-1.065165395710515
 10
-3.51892169677086
 20
-1.280577549310514
  0
LINE
  5
81
330
2
100
AcDbEntity
  8
0
100
AcDbLine
 10
17.63135327282916
 20
-11.86663913171053
 30
0.0
 11
17.62016110482915
 21
-11.86980612691052
 31
0.0
  0
LINE
  5
82
330
2
100
AcDbEntity
  8
0
100
AcDbLine
 10
17.64673237362917
 20
-11.86632395251052
 30
0.0
 11
17.65673310642916
 21
-11.86349803731052
 31
0.0
  0
LINE
  5
83
330
2
100
AcDbEntity
  8
0
100
AcDbLine
 10
17.63691693682916
 20
-11.86904604211053
 30
0.0
 11
17.64673237362917
 21
-11.86632395251052
 31
0.0
  0
LINE
  5
84
330
2
100
AcDbEntity
  8
0
100
AcDbLine
 10
17.62016110482915
 20
-11.86980612691052
 30
0.0
 11
17.60926745842915
 21
-11.87282579731052
 31
0.0
  0
LINE
  5
85
330
2
100
AcDbEntity
  8
0
100
AcDbLine
 10
17.62726958002915
 20
-11.87167206291052
 30
0.0
 11
17.63691693682916
 21
-11.86904604211053
 31
0.0
  0
LINE
  5
86
330
2
100
AcDbEntity
  8
0
100
AcDbLine
 10
17.60926745842915
 20
-11.87282579731052
 30
0.0
 11
17.59864839122915
 21
-11.87570987731052
 31
0.0
  0
LINE
  5
87
330
2
100
AcDbEntity
  8
0
100
AcDbLine
 10
17.61777258162914
 20
-11.87420947411052
 30
0.0
 11
17.62726958002915
 21
-11.87167206291052
 31
0.0
  0
LINE
  5
88
330
2
100
AcDbEntity
  8
0
100
AcDbLine
 10
17.59864839122915
 20
-11.87570987731052
 30
0.0
 11
17.58827714482917
 21
-11.8784701445105
 31
0.0
  0
LINE
  5
89
330
2
100
AcDbEntity
  8
0
100
AcDbLine
 10
17.60840808242915
 20
-11.8766653573105
 30
0.0
 11
17.61777258162914
 21
-11.87420947411052
 31
0.0
  0
LINE
  5
8A
330
2
100
AcDbEntity
  8
0
100
AcDbLine
 10
17.58827714482917
 20
-11.8784701445105
 30
0.0
 11
17.57812681202916
 21
-11.88111769971052
 31
0.0
  0
LINE
  5
8B
330
2
100
AcDbEntity
  8
0
100
AcDbLine
 10
17.59915809202914
 20
-11.87904642451052
 30
0.0
 11
17.60840808242915
 21
-11.8766653573105
 31
0.0
  0
LINE
  5
8C
330
2
100
AcDbEntity
  8
0
100
AcDbLine
 10
17.57812681202916
 20
-11.88111769971052
 30
0.0
 11
17.56817513042916
 21
-11.88366179251053
 31
0.0
  0
LINE
  5
8D
330
2
100
AcDbEntity
  8
0
100
AcDbLine
 10
17.59000449682916
 20
-11.88135903571053
 30
0.0
 11
17.59915809202914
 21
-11.87904642451052
 31
0.0
  0
LINE
  5
8E
330
2
100
AcDbEntity
  8
0
100
AcDbLine
 10
17.56817513042916
 20
-11.88366179251053
 30
0.0
 11
17.55840951602915
 21
-11.88610872051051
 31
0.0
  0
LINE
  5
8F
330
2
100
AcDbEntity
  8
0
100
AcDbLine
 10
17.58093224562916
 20
-11.88360841971052
 30
0.0
 11
17.59000449682916
 21
-11.88135903571053
 31
0.0
  0
LINE
  5
90
330
2
100
AcDbEntity
  8
0
100
AcDbLine
 10
17.55840951602915
 20
-11.88610872051051
 30
0.0
 11
17.54881850482915
 21
-11.88846417971051
 31
0.0
  0
LINE
  5
91
330
2
100
AcDbEntity
  8
0
100
AcDbLine
 10
17.56746997042916
 20
-11.88686831251052
 30
0.0
 11
17.58093224562916
 21
-11.88360841971052
 31
0.0
  0
LINE
  5
92
330
2
100
AcDbEntity
  8
0
100
AcDbLine
 10
17.54881850482915
 20
-11.88846417971051
 30
0.0
 11
17.53939055602916
 21
-11.89073358771053
 31
0.0
  0
LINE
  5
93
330
2
100
AcDbEntity
  8
0
100
AcDbLine
 10
17.53939055602916
 20
-11.89073358771053
 30
0.0
 11
17.53011406162915
 21
-11.8929220965105
 31
0.0
  0
LINE
  5
94
330
2
100
AcDbEntity
  8
0
100
AcDbLine
 10
17.55418065682915
 20
-11.88999539411053
 30
0.0
 11
17.56746997042916
 21
-11.88686831251052
 31
0.0
  0
LINE
  5
95
330
2
100
AcDbEntity
  8
0
100
AcDbLine
 10
17.53011406162915
 20
-11.8929220965105
 30
0.0
 11
17.52097735762917
 21
-11.89503460051053
 31
0.0
  0
LINE
  5
96
330
2
100
AcDbEntity
  8
0
100
AcDbLine
 10
13.75053461042916
 20
-13.56479148211052
 30
0.0
 11
13.83092354962915
 21
-13.54646634771051
 31
0.0
  0
LINE
  5
97
330
2
100
AcDbEntity
  8
0
100
AcDbLine
 10
17.54106139122917
 20
-11.89299430291051
 30
0.0
 11
17.55418065682915
 21
-11.88999539411053
 31
0.0
  0
LINE
  5
98
330
2
100
AcDbEntity
  8
0
100
AcDbLine
 10
17.52097735762917
 20
-11.89503460051053
 30
0.0
 11
17.50750874802916
 21
-11.89807093331051
 31
0.0
  0
LINE
  5
99
330
2
100
AcDbEntity
  8
0
100
AcDbLine
 10
17.52810897042915
 20
-11.89586957171052
 30
0.0
 11
17.54106139122917
 21
-11.89299430291051
 31
0.0
  0
LINE
  5
9A
330
2
100
AcDbEntity
  8
0
100
AcDbLine
 10
17.50750874802916
 20
-11.89807093331051
 30
0.0
 11
17.49428849682915
 21
-11.90096129331052
 31
0.0
  0
LINE
  5
9B
330
2
100
AcDbEntity
  8
0
100
AcDbLine
 10
17.51531989842914
 20
-11.89862561811053
 30
0.0
 11
17.52810897042915
 21
-11.89586957171052
 31
0.0
  0
LINE
  5
9C
330
2
100
AcDbEntity
  8
0
100
AcDbLine
 10
17.49428849682915
 20
-11.90096129331052
 30
0.0
 11
17.48127676082916
 21
-11.9037191205105
 31
0.0
  0
LINE
  5
9D
330
2
100
AcDbEntity
  8
0
100
AcDbLine
 10
17.50269039282915
 20
-11.90126675571053
 30
0.0
 11
17.51531989842914
 21
-11.89862561811053
 31
0.0
  0
LINE
  5
9E
330
2
100
AcDbEntity
  8
0
100
AcDbLine
 10
17.48127676082916
 20
-11.9037191205105
 30
0.0
 11
17.46844974642915
 21
-11.9063534389105
 31
0.0
  0
LINE
  5
9F
330
2
100
AcDbEntity
  8
0
100
AcDbLine
 10
17.49021636402916
 20
-11.90379717971051
 30
0.0
 11
17.50269039282915
 21
-11.90126675571053
 31
0.0
  0
LINE
  5
A0
330
2
100
AcDbEntity
  8
0
100
AcDbLine
 10
17.46844974642915
 20
-11.9063534389105
 30
0.0
 11
17.45581167282916
 21
-11.90886707091052
 31
0.0
  0
LINE
  5
A1
330
2
100
AcDbEntity
  8
0
100
AcDbLine
 10
17.47789341202915
 20
-11.90622098131051
 30
0.0
 11
17.49021636402916
 21
-11.90379717971051
 31
0.0
  0
LINE
  5
A2
330
2
100
AcDbEntity
  8
0
100
AcDbLine
 10
17.45581167282916
 20
-11.90886707091052
 30
0.0
 11
17.44336930322917
 21
-11.91126238611053
 31
0.0
  0
LINE
  5
A3
330
2
100
AcDbEntity
  8
0
100
AcDbLine
 10
17.46571681042915
 20
-11.90854213651052
 30
0.0
 11
17.47789341202915
 21
-11.90622098131051
 31
0.0
  0
LINE
  5
A4
330
2
100
AcDbEntity
  8
0
100
AcDbLine
 10
17.44336930322917
 20
-11.91126238611053
 30
0.0
 11
17.43112943442915
 21
-11.91354182611052
 31
0.0
  0
LINE
  5
A5
330
2
100
AcDbEntity
  8
0
100
AcDbLine
 10
17.45368148242915
 20
-11.91076451731051
 30
0.0
 11
17.46571681042915
 21
-11.90854213651052
 31
0.0
  0
LINE
  5
A6
330
2
100
AcDbEntity
  8
0
100
AcDbLine
 10
17.43112943442915
 20
-11.91354182611052
 30
0.0
 11
17.41909891442916
 21
-11.91570791091052
 31
0.0
  0
LINE
  5
A7
330
2
100
AcDbEntity
  8
0
100
AcDbLine
 10
17.44178198962917
 20
-11.91289188531052
 30
0.0
 11
17.45368148242915
 21
-11.91076451731051
 31
0.0
  0
LINE
  5
A8
330
2
100
AcDbEntity
  8
0
100
AcDbLine
 10
17.41909891442916
 20
-11.91570791091052
 30
0.0
 11
17.40728502642915
 21
-11.91776314131052
 31
0.0
  0
LINE
  5
A9
330
2
100
AcDbEntity
  8
0
100
AcDbLine
 10
17.43001251922914
 20
-11.91492789651052
 30
0.0
 11
17.44178198962917
 21
-11.91289188531052
 31
0.0
  0
LINE
  5
AA
330
2
100
AcDbEntity
  8
0
100
AcDbLine
 10
17.40728502642915
 20
-11.91776314131052
 30
0.0
 11
17.39569465522917
 21
-11.91971010611052
 31
0.0
  0
LINE
  5
AB
330
2
100
AcDbEntity
  8
0
100
AcDbLine
 10
17.41836699282917
 20
-11.91687607091051
 30
0.0
 11
17.43001251922914
 21
-11.91492789651052
 31
0.0
  0
LINE
  5
AC
330
2
100
AcDbEntity
  8
0
100
AcDbLine
 10
17.39569465522917
 20
-11.91971010611052
 30
0.0
 11
17.38436150002915
 21
-11.92154716051052
 31
0.0
  0
LINE
  5
AD
330
2
100
AcDbEntity
  8
0
100
AcDbLine
 10
17.40684552722914
 20
-11.91873877491053
 30
0.0
 11
17.41836699282917
 21
-11.91687607091051
 31
0.0
  0
LINE
  5
AE
330
2
100
AcDbEntity
  8
0
100
AcDbLine
 10
17.39548170002914
 20
-11.92051321811052
 30
0.0
 11
17.40684552722914
 21
-11.91873877491053
 31
0.0
  0
LINE
  5
AF
330
2
100
AcDbEntity
  8
0
100
AcDbLine
 10
17.38436150002915
 20
-11.92154716051052
 30
0.0
 11
17.37334406002916
 21
-11.92326928691053
 31
0.0
  0
LINE
  5
B0
330
2
100
AcDbEntity
  8
0
100
AcDbLine
 10
17.38431755282915
 20
-11.92219606451052
 30
0.0
 11
17.39548170002914
 21
-11.92051321811052
 31
0.0
  0
LINE
  5
B1
330
2
100
AcDbEntity
  8
0
100
AcDbLine
 10
17.37334406002916
 20
-11.92326928691053
 30
0.0
 11
17.36270103922914
 21
-11.92487252371051
 31
0.0
  0
LINE
  5
B2
330
2
100
AcDbEntity
  8
0
100
AcDbLine
 10
17.36270103922914
 20
-11.92487252371051
 30
0.0
 11
17.35584885842914
 21
-11.92587295251052
 31
0.0
  0
LINE
  5
B3
330
2
100
AcDbEntity
  8
0
100
AcDbLine
 10
17.37339235922915
 20
-11.92378523411053
 30
0.0
 11
17.38431755282915
 21
-11.92219606451052
 31
0.0
  0
LWPOLYLINE
  5
B4
330
2
100
AcDbEntity
  8
0
100
AcDbPolyline
 90
        3
 70
     0
 43
0.0
 10
16.36192914642916
 20
-13.53526950931051
 10
16.34054662962916
 20
-13.53671797171051
 10
16.24260963762915
 20
-13.54040931891051
  0
LINE
  5
B5
330
2
100
AcDbEntity
  8
0
100
AcDbLine
 10
16.35723856082916
 20
-13.5358203413105
 30
0.0
 11
16.35432746322914
 21
-13.53600296851052
 31
0.0
  0
LINE
  5
B6
330
2
100
AcDbEntity
  8
0
100
AcDbLine
 10
16.35432746322914
 20
-13.53600296851052
 30
0.0
 11
16.35076071442916
 21
-13.53620193491053
 31
0.0
  0
LINE
  5
B7
330
2
100
AcDbEntity
  8
0
100
AcDbLine
 10
16.35076071442916
 20
-13.53620193491053
 30
0.0
 11
16.34419616882914
 21
-13.53653059251052
 31
0.0
  0
LINE
  5
B8
330
2
100
AcDbEntity
  8
0
100
AcDbLine
 10
16.34419616882914
 20
-13.53653059251052
 30
0.0
 11
16.33094504242917
 21
-13.53712059091051
 31
0.0
  0
LINE
  5
B9
330
2
100
AcDbEntity
  8
0
100
AcDbLine
 10
16.33094504242917
 20
-13.53712059091051
 30
0.0
 11
16.31075618962916
 21
-13.5379304837105
 31
0.0
  0
LWPOLYLINE
  5
BA
330
2
100
AcDbEntity
  8
0
100
AcDbPolyline
 90
        3
 70
     0
 43
0.0
 10
16.24026711122914
 20
-13.50922118291051
 10
16.34830568402915
 20
-13.5050557093105
 10
16.36033875442913
 20
-13.50405298131053
  0
LINE
  5
BB
330
2
100
AcDbEntity
  8
0
100
AcDbLine
 10
16.31075618962916
 20
-13.5379304837105
 30
0.0
 11
16.28029932082916
 21
-13.53905551091053
 31
0.0
  0
LINE
  5
BC
330
2
100
AcDbEntity
  8
0
100
AcDbLine
 10
16.28029932082916
 20
-13.53905551091053
 30
0.0
 11
16.26259761682914
 21
-13.53967851091052
 31
0.0
  0
LINE
  5
BD
330
2
100
AcDbEntity
  8
0
100
AcDbLine
 10
16.25633862482914
 20
-13.53989490931052
 30
0.0
 11
16.21097183122916
 21
-13.54141870291052
 31
0.0
  0
LINE
  5
BE
330
2
100
AcDbEntity
  8
0
100
AcDbLine
 10
16.24260963762916
 20
-13.54040931891051
 30
0.0
 11
16.07450437042914
 21
-13.54576318771051
 31
0.0
  0
LINE
  5
BF
330
2
100
AcDbEntity
  8
0
100
AcDbLine
 10
5.533300600829143
 20
-13.54503710131051
 30
0.0
 11
5.541854668029152
 21
-13.54476468851051
 31
0.0
  0
LINE
  5
C0
330
2
100
AcDbEntity
  8
0
100
AcDbLine
 10
16.04943370482915
 20
-13.51525836531052
 30
0.0
 11
16.24026711122915
 21
-13.50922118291051
 31
0.0
  0
LWPOLYLINE
  5
C1
330
2
100
AcDbEntity
  8
0
100
AcDbPolyline
 90
       33
 70
     0
 43
0.0
 10
16.01205837042914
 20
-13.42262303411052
 10
16.16925671602913
 20
-13.41766748051053
 10
16.33391115122916
 20
-13.41195475251051
 10
16.49185492082915
 20
-13.40576664211052
 10
16.63747852562915
 20
-13.39917331411052
 10
16.76764817042914
 20
-13.39222294931053
 10
16.88166511122915
 20
-13.38491573331051
 10
16.98062737522914
 20
-13.37722549491052
 10
17.06801595282914
 20
-13.36898952051051
 10
17.14831532722914
 20
-13.35982542451051
 10
17.22563181842915
 20
-13.34914365811052
 10
17.30372522962915
 20
-13.33605012851051
 10
17.38567754962915
 20
-13.31932491571051
 10
17.47491673842915
 20
-13.29709398451051
 10
17.57274083922914
 20
-13.26729957971053
 10
17.67822246002916
 20
-13.2280583237105
 10
17.78946592562914
 20
-13.17773753011052
 10
17.90230710162916
 20
-13.11614689971053
 10
18.01493365682915
 20
-13.04239011411052
 10
18.12278778802914
 20
-12.9581628629105
 10
18.22094764882914
 20
-12.86729966131053
 10
18.30660495442916
 20
-12.77412235571051
 10
18.37680600082916
 20
-12.68531404211051
 10
18.43143664082916
 20
-12.60613846771053
 10
18.47139997362916
 20
-12.54110200851052
 10
18.50592003122915
 20
-12.47877066771052
 10
18.53786969682914
 20
-12.41457561331051
 10
18.56754631122913
 20
-12.34765278931052
 10
18.59493349042915
 20
-12.27743381491051
 10
18.61940800562914
 20
-12.20483476851051
 10
18.64075538162916
 20
-12.12994935731051
 10
18.65864614002916
 20
-12.05352070131052
 10
18.66334236882915
 20
-12.03020913171052
  0
LINE
  5
C2
330
2
100
AcDbEntity
  8
0
100
AcDbLine
 10
16.10927791282916
 20
-13.54465673971051
 30
0.0
 11
15.97974624882915
 21
-13.54858767411053
 31
0.0
  0
LINE
  5
C3
330
2
100
AcDbEntity
  8
0
100
AcDbLine
 10
11.69141562482915
 20
-13.42936767891051
 30
0.0
 11
11.67907969522915
 21
-13.42975764531052
 31
0.0
  0
LINE
  5
C4
330
2
100
AcDbEntity
  8
0
100
AcDbLine
 10
15.93549899122914
 20
-13.42488404211052
 30
0.0
 11
16.01201025522914
 21
-13.4226245365105
 31
0.0
  0
LINE
  5
C5
330
2
100
AcDbEntity
  8
0
100
AcDbLine
 10
16.07450437042914
 20
-13.54576318771051
 30
0.0
 11
15.84593089682915
 21
-13.55248375731053
 31
0.0
  0
LINE
  5
C6
330
2
100
AcDbEntity
  8
0
100
AcDbLine
 10
15.80426743282917
 20
-13.52240729171051
 30
0.0
 11
16.04943370482915
 21
-13.51525836531052
 31
0.0
  0
LINE
  5
C7
330
2
100
AcDbEntity
  8
0
100
AcDbLine
 10
15.97974624882915
 20
-13.54858767411053
 30
0.0
 11
15.86060408082915
 21
-13.55208924051051
 31
0.0
  0
LINE
  5
C8
330
2
100
AcDbEntity
  8
0
100
AcDbLine
 10
15.84593089682915
 20
-13.55248375731053
 30
0.0
 11
15.72280397202914
 21
-13.55603155731051
 31
0.0
  0
LINE
  5
C9
330
2
100
AcDbEntity
  8
0
100
AcDbLine
 10
15.77275658002916
 20
-13.42947908211052
 30
0.0
 11
15.92364940562917
 21
-13.42522954611052
 31
0.0
  0
LINE
  5
CA
330
2
100
AcDbEntity
  8
0
100
AcDbLine
 10
15.84593089682915
 20
-13.55248375731053
 30
0.0
 11
15.56929105362915
 21
-13.5601920533105
 31
0.0
  0
LINE
  5
CB
330
2
100
AcDbEntity
  8
0
100
AcDbLine
 10
15.72280397202914
 20
-13.55603155731051
 30
0.0
 11
15.60449364402916
 21
-13.55932756531051
 31
0.0
  0
LINE
  5
CC
330
2
100
AcDbEntity
  8
0
100
AcDbLine
 10
15.51310024562915
 20
-13.53045099891053
 30
0.0
 11
15.80426743282917
 21
-13.52240729171051
 31
0.0
  0
LINE
  5
CD
330
2
100
AcDbEntity
  8
0
100
AcDbLine
 10
15.60449364402916
 20
-13.55932756531051
 30
0.0
 11
15.48030230642914
 21
-13.56269859411053
 31
0.0
  0
LINE
  5
CE
330
2
100
AcDbEntity
  8
0
100
AcDbLine
 10
15.59229220882915
 20
-13.43440802291052
 30
0.0
 11
15.77275658002916
 21
-13.42947908211052
 31
0.0
  0
LWPOLYLINE
  5
CF
330
2
100
AcDbEntity
  8
0
100
AcDbPolyline
 90
        5
 70
     0
 43
0.0
 10
15.56929105362914
 20
-13.5601920533105
 10
15.26077957842915
 20
-13.56834602771052
 10
14.93690434802914
 20
-13.57631223891052
 10
14.61586506482913
 20
-13.58339448211051
 10
14.31838576082915
 20
-13.58900907091051
  0
LINE
  5
D0
330
2
100
AcDbEntity
  8
0
100
AcDbLine
 10
15.48030230642914
 20
-13.56269859411053
 30
0.0
 11
15.38401712082916
 21
-13.56524759091052
 31
0.0
  0
LINE
  5
D1
330
2
100
AcDbEntity
  8
0
100
AcDbLine
 10
15.18067456402915
 20
-13.53911985011051
 30
0.0
 11
15.51310024562915
 21
-13.53045099891053
 31
0.0
  0
LINE
  5
D2
330
2
100
AcDbEntity
  8
0
100
AcDbLine
 10
15.38363279602917
 20
-13.43989051091051
 30
0.0
 11
15.59229220882915
 21
-13.43440802291052
 31
0.0
  0
LINE
  5
D3
330
2
100
AcDbEntity
  8
0
100
AcDbLine
 10
15.38401712082916
 20
-13.56524759091052
 30
0.0
 11
15.28559833682914
 21
-13.56779214131051
 31
0.0
  0
LINE
  5
D4
330
2
100
AcDbEntity
  8
0
100
AcDbLine
 10
15.28559833682914
 20
-13.56779214131051
 30
0.0
 11
15.18554929842915
 21
-13.57031225011052
 31
0.0
  0
LINE
  5
D5
330
2
100
AcDbEntity
  8
0
100
AcDbLine
 10
15.19064505202914
 20
-13.44474649011052
 30
0.0
 11
15.38363279602917
 21
-13.43989051091051
 31
0.0
  0
LINE
  5
D6
330
2
100
AcDbEntity
  8
0
100
AcDbLine
 10
15.18554929842915
 20
-13.57031225011052
 30
0.0
 11
15.08437334962915
 21
-13.57278792851053
 31
0.0
  0
LINE
  5
D7
330
2
100
AcDbEntity
  8
0
100
AcDbLine
 10
15.08437334962915
 20
-13.57278792851053
 30
0.0
 11
15.00113280082914
 21
-13.57476604691052
 31
0.0
  0
LINE
  5
D8
330
2
100
AcDbEntity
  8
0
100
AcDbLine
 10
14.97743196562914
 20
-13.44986281011051
 30
0.0
 11
15.19064505202914
 21
-13.44474649011052
 31
0.0
  0
LWPOLYLINE
  5
D9
330
2
100
AcDbEntity
  8
0
100
AcDbPolyline
 90
        4
 70
     0
 43
0.0
 10
11.67907969522914
 20
-13.42975764531052
 10
11.65730677522915
 20
-13.43029586291051
 10
11.64113487122915
 20
-13.43062525171051
 10
11.62171494162913
 20
-13.43096990451052
  0
LINE
  5
DA
330
2
100
AcDbEntity
  8
0
100
AcDbLine
 10
14.94940587282915
 20
-13.57596807571052
 30
0.0
 11
14.84151649682915
 21
-13.57840929491052
 31
0.0
  0
LINE
  5
DB
330
2
100
AcDbEntity
  8
0
100
AcDbLine
 10
14.75422514962915
 20
-13.45493179571052
 30
0.0
 11
14.97743196562914
 21
-13.44986281011051
 31
0.0
  0
LINE
  5
DC
330
2
100
AcDbEntity
  8
0
100
AcDbLine
 10
14.54906929362915
 20
-13.4593297573105
 30
0.0
 11
14.75422514962915
 21
-13.45493179571052
 31
0.0
  0
LINE
  5
DD
330
2
100
AcDbEntity
  8
0
100
AcDbLine
 10
14.73459238322915
 20
-13.58074100051052
 30
0.0
 11
14.62939758162915
 21
-13.58294796371051
 31
0.0
  0
LINE
  5
DE
330
2
100
AcDbEntity
  8
0
100
AcDbLine
 10
14.50893771922916
 20
-13.46016218451051
 30
0.0
 11
14.54906929362915
 21
-13.4593297573105
 31
0.0
  0
LWPOLYLINE
  5
DF
330
2
100
AcDbEntity
  8
0
100
AcDbPolyline
 90
        3
 70
     0
 43
0.0
 10
3.093444983229147
 20
-13.50405298131053
 10
3.112163167229141
 20
-13.50366945011051
 10
3.243364484029143
 20
-13.50551112371052
  0
LWPOLYLINE
  5
E0
330
2
100
AcDbEntity
  8
0
100
AcDbPolyline
 90
        3
 70
     0
 43
0.0
 10
15.90765931762914
 20
-13.51163193651051
 10
15.31554056402916
 20
-13.52351022131051
 10
14.65806329682914
 20
-13.53474885491052
  0
LINE
  5
E1
330
2
100
AcDbEntity
  8
0
100
AcDbLine
 10
14.40872168082916
 20
-13.46220422611053
 30
0.0
 11
14.50893771922916
 21
-13.46016218451051
 31
0.0
  0
LINE
  5
E2
330
2
100
AcDbEntity
  8
0
100
AcDbLine
 10
14.62939758162915
 20
-13.58294796371051
 30
0.0
 11
14.52669614162915
 21
-13.58501495731052
 31
0.0
  0
LINE
  5
E3
330
2
100
AcDbEntity
  8
0
100
AcDbLine
 10
14.52669614162915
 20
-13.58501495731052
 30
0.0
 11
14.42725211282914
 21
-13.58692675251051
 31
0.0
  0
LINE
  5
E4
330
2
100
AcDbEntity
  8
0
100
AcDbLine
 10
14.15898693682914
 20
-13.46705405971052
 30
0.0
 11
14.40872168082916
 21
-13.46220422611053
 31
0.0
  0
LINE
  5
E5
330
2
100
AcDbEntity
  8
0
100
AcDbLine
 10
14.40298961362916
 20
-13.58737866771053
 30
0.0
 11
14.30869179442914
 21
-13.58907504691051
 31
0.0
  0
LINE
  5
E6
330
2
100
AcDbEntity
  8
0
100
AcDbLine
 10
13.98087547922916
 20
-13.47029617011053
 30
0.0
 11
14.15898693682914
 21
-13.46705405971052
 31
0.0
  0
LINE
  5
E7
330
2
100
AcDbEntity
  8
0
100
AcDbLine
 10
13.86029643122916
 20
-13.47238510611051
 30
0.0
 11
13.98087547922916
 21
-13.47029617011053
 31
0.0
  0
LINE
  5
E8
330
2
100
AcDbEntity
  8
0
100
AcDbLine
 10
14.30869179442914
 20
-13.58907504691051
 30
0.0
 11
14.22586223122915
 21
-13.59047614611051
 31
0.0
  0
LINE
  5
E9
330
2
100
AcDbEntity
  8
0
100
AcDbLine
 10
13.74461962482914
 20
-13.47430692851053
 30
0.0
 11
13.86029643122916
 21
-13.47238510611051
 31
0.0
  0
LWPOLYLINE
  5
EA
330
2
100
AcDbEntity
  8
0
100
AcDbPolyline
 90
        4
 70
     0
 43
0.0
 10
14.06486419922916
 20
-13.56163289811052
 10
14.42402927282915
 20
-13.55587907251051
 10
14.80790902162914
 20
-13.5480117157105
 10
15.18067456402914
 20
-13.53911985011051
  0
LINE
  5
EB
330
2
100
AcDbEntity
  8
0
100
AcDbLine
 10
13.63386229682914
 20
-13.47607056051051
 30
0.0
 11
13.74461962482914
 21
-13.47430692851053
 31
0.0
  0
LINE
  5
EC
330
2
100
AcDbEntity
  8
0
100
AcDbLine
 10
14.22586223122915
 20
-13.59047614611051
 30
0.0
 11
14.15400543762914
 21
-13.59161058131052
 31
0.0
  0
LINE
  5
ED
330
2
100
AcDbEntity
  8
0
100
AcDbLine
 10
14.31838576082916
 20
-13.58900907091051
 30
0.0
 11
14.06540221682915
 21
-13.59287798131051
 31
0.0
  0
LINE
  5
EE
330
2
100
AcDbEntity
  8
0
100
AcDbLine
 10
13.54879554322915
 20
-13.47737435731053
 30
0.0
 11
13.63386229682914
 21
-13.47607056051051
 31
0.0
  0
LINE
  5
EF
330
2
100
AcDbEntity
  8
0
100
AcDbLine
 10
13.48706200402916
 20
-13.47829304691051
 30
0.0
 11
13.54879554322915
 21
-13.47737435731053
 31
0.0
  0
LINE
  5
F0
330
2
100
AcDbEntity
  8
0
100
AcDbLine
 10
14.65806329682914
 20
-13.53474885491052
 30
0.0
 11
13.98202386962916
 21
-13.54456177491052
 31
0.0
  0
LINE
  5
F1
330
2
100
AcDbEntity
  8
0
100
AcDbLine
 10
13.42708411602917
 20
-13.47916357331052
 30
0.0
 11
13.48706200402916
 21
-13.47829304691051
 31
0.0
  0
LINE
  5
F2
330
2
100
AcDbEntity
  8
0
100
AcDbLine
 10
14.15400543762914
 20
-13.59161058131052
 30
0.0
 11
14.08672875602915
 21
-13.59258844051051
 31
0.0
  0
LINE
  5
F3
330
2
100
AcDbEntity
  8
0
100
AcDbLine
 10
13.36876310322916
 20
-13.47998933011052
 30
0.0
 11
13.42708411602917
 21
-13.47916357331052
 31
0.0
  0
LINE
  5
F4
330
2
100
AcDbEntity
  8
0
100
AcDbLine
 10
11.62171494162914
 20
-13.43096990451052
 30
0.0
 11
11.57549931282915
 21
-13.43165159411051
 31
0.0
  0
LINE
  5
F5
330
2
100
AcDbEntity
  8
0
100
AcDbLine
 10
13.31196721362915
 20
-13.48077396371052
 30
0.0
 11
13.36876310322916
 21
-13.47998933011052
 31
0.0
  0
LINE
  5
F6
330
2
100
AcDbEntity
  8
0
100
AcDbLine
 10
13.25657119442914
 20
-13.48152081011053
 30
0.0
 11
13.31196721362915
 21
-13.48077396371052
 31
0.0
  0
LINE
  5
F7
330
2
100
AcDbEntity
  8
0
100
AcDbLine
 10
13.22035734002916
 20
-13.48199925491052
 30
0.0
 11
13.25657119442914
 21
-13.48152081011053
 31
0.0
  0
LINE
  5
F8
330
2
100
AcDbEntity
  8
0
100
AcDbLine
 10
13.16702205042916
 20
-13.48268990131051
 30
0.0
 11
13.22035734002916
 21
-13.48199925491052
 31
0.0
  0
LINE
  5
F9
330
2
100
AcDbEntity
  8
0
100
AcDbLine
 10
13.13207072082915
 20
-13.48313349811052
 30
0.0
 11
13.16702205042916
 21
-13.48268990131051
 31
0.0
  0
LWPOLYLINE
  5
FA
330
2
100
AcDbEntity
  8
0
100
AcDbPolyline
 90
        3
 70
     0
 43
0.0
 10
14.06540221682914
 20
-13.59287798131051
 10
13.82119650482914
 20
-13.59590182611051
 10
13.57694646802914
 20
-13.59857551091052
  0
LINE
  5
FB
330
2
100
AcDbEntity
  8
0
100
AcDbLine
 10
13.08046539442916
 20
-13.48377554291052
 30
0.0
 11
13.13207072082915
 21
-13.48313349811052
 31
0.0
  0
LINE
  5
FC
330
2
100
AcDbEntity
  8
0
100
AcDbLine
 10
13.04656260722917
 20
-13.48418901011052
 30
0.0
 11
13.08046539442916
 21
-13.48377554291052
 31
0.0
  0
LINE
  5
FD
330
2
100
AcDbEntity
  8
0
100
AcDbLine
 10
13.01305081522915
 20
-13.48459126291052
 30
0.0
 11
13.04656260722917
 21
-13.48418901011052
 31
0.0
  0
LINE
  5
FE
330
2
100
AcDbEntity
  8
0
100
AcDbLine
 10
12.97994259442917
 20
-13.48498241491051
 30
0.0
 11
13.01305081522915
 21
-13.48459126291052
 31
0.0
  0
LWPOLYLINE
  5
FF
330
2
100
AcDbEntity
  8
0
100
AcDbPolyline
 90
        4
 70
     0
 43
0.0
 10
14.06540221682914
 20
-13.59287798131051
 10
13.56518376402914
 20
-13.59869502611052
 10
13.06482578482913
 20
-13.60338734291053
 10
12.56435162642915
 20
-13.60738200051053
  0
LINE
  5
100
330
2
100
AcDbEntity
  8
0
100
AcDbLine
 10
12.94726906482916
 20
-13.48536237331051
 30
0.0
 11
12.97994259442917
 21
-13.48498241491051
 31
0.0
  0
LINE
  5
101
330
2
100
AcDbEntity
  8
0
100
AcDbLine
 10
9.621670044029151
 20
-13.42796489811052
 30
0.0
 11
9.532191088829144
 21
-13.42905447411052
 31
0.0
  0
LINE
  5
102
330
2
100
AcDbEntity
  8
0
100
AcDbLine
 10
12.91505354802917
 20
-13.48573114291053
 30
0.0
 11
12.94726906482916
 21
-13.48536237331051
 31
0.0
  0
LINE
  5
103
330
2
100
AcDbEntity
  8
0
100
AcDbLine
 10
11.57549931282915
 20
-13.43165159411051
 30
0.0
 11
11.52020387762915
 21
-13.43230940051051
 31
0.0
  0
LINE
  5
104
330
2
100
AcDbEntity
  8
0
100
AcDbLine
 10
13.43224350162916
 20
-13.56877441331052
 30
0.0
 11
14.06486419922917
 21
-13.56163289811052
 31
0.0
  0
LINE
  5
105
330
2
100
AcDbEntity
  8
0
100
AcDbLine
 10
12.88331170962914
 20
-13.48608882931051
 30
0.0
 11
12.91505354802917
 21
-13.48573114291053
 31
0.0
  0
LINE
  5
106
330
2
100
AcDbEntity
  8
0
100
AcDbLine
 10
12.85205992722917
 20
-13.48643553171052
 30
0.0
 11
12.88331170962914
 21
-13.48608882931051
 31
0.0
  0
LWPOLYLINE
  5
107
330
2
100
AcDbEntity
  8
0
100
AcDbPolyline
 90
        3
 70
     0
 43
0.0
 10
13.98202386962916
 20
-13.54456177491052
 10
13.94454467282915
 20
-13.54496800531051
 10
13.92048313682914
 20
-13.54503710131051
  0
LINE
  5
108
330
2
100
AcDbEntity
  8
0
100
AcDbLine
 10
12.82131527922914
 20
-13.48677134771053
 30
0.0
 11
12.85205992722917
 21
-13.48643553171052
 31
0.0
  0
LINE
  5
109
330
2
100
AcDbEntity
  8
0
100
AcDbLine
 10
12.79109552402915
 20
-13.48709636851051
 30
0.0
 11
12.82131527922914
 21
-13.48677134771053
 31
0.0
  0
LINE
  5
10A
330
2
100
AcDbEntity
  8
0
100
AcDbLine
 10
9.532191088829144
 20
-13.42905447411052
 30
0.0
 11
9.503058024829165
 21
-13.42936419091051
 31
0.0
  0
LINE
  5
10B
330
2
100
AcDbEntity
  8
0
100
AcDbLine
 10
12.76141952722915
 20
-13.48741068211051
 30
0.0
 11
12.79109552402915
 21
-13.48709636851051
 31
0.0
  0
LINE
  5
10C
330
2
100
AcDbEntity
  8
0
100
AcDbLine
 10
12.73231165842916
 20
-13.48771432531051
 30
0.0
 11
12.76141952722915
 21
-13.48741068211051
 31
0.0
  0
LWPOLYLINE
  5
10D
330
2
100
AcDbEntity
  8
0
100
AcDbPolyline
 90
        3
 70
     0
 43
0.0
 10
12.68976017202914
 20
-13.48814996051052
 10
12.70379270002914
 20
-13.48800737651051
 10
12.73231165842915
 20
-13.48771432531051
  0
LWPOLYLINE
  5
10E
330
2
100
AcDbEntity
  8
0
100
AcDbPolyline
 90
        3
 70
     0
 43
0.0
 10
13.56518376402914
 20
-13.59869502611052
 10
13.27303538802914
 20
-13.60159599091053
 10
12.98141746162914
 20
-13.60420716691052
  0
LINE
  5
10F
330
2
100
AcDbEntity
  8
0
100
AcDbLine
 10
12.66214381202915
 20
-13.48842748211051
 30
0.0
 11
12.68976017202914
 21
-13.48814996051052
 31
0.0
  0
LINE
  5
110
330
2
100
AcDbEntity
  8
0
100
AcDbLine
 10
12.63508172242917
 20
-13.48869547571052
 30
0.0
 11
12.66214381202915
 21
-13.48842748211051
 31
0.0
  0
LWPOLYLINE
  5
111
330
2
100
AcDbEntity
  8
0
100
AcDbPolyline
 90
        3
 70
     0
 43
0.0
 10
12.59540866482913
 20
-13.48908131251052
 10
12.60851937362915
 20
-13.48895472851051
 10
12.63508172242916
 20
-13.48869547571052
  0
LWPOLYLINE
  5
112
330
2
100
AcDbEntity
  8
0
100
AcDbPolyline
 90
        3
 70
     0
 43
0.0
 10
12.55668600722916
 20
-13.48944987411052
 10
12.56949602002916
 20
-13.48932882291051
 10
12.59540866482913
 20
-13.48908131251052
  0
LINE
  5
113
330
2
100
AcDbEntity
  8
0
100
AcDbLine
 10
11.52020387762915
 20
-13.43230940051051
 30
0.0
 11
11.46667173042914
 21
-13.43283857971052
 31
0.0
  0
LINE
  5
114
330
2
100
AcDbEntity
  8
0
100
AcDbLine
 10
12.53134539602914
 20
-13.48968679411052
 30
0.0
 11
12.55668600722916
 21
-13.48944987411052
 31
0.0
  0
LWPOLYLINE
  5
115
330
2
100
AcDbEntity
  8
0
100
AcDbPolyline
 90
        3
 70
     0
 43
0.0
 10
12.49399474002913
 20
-13.49002987091051
 10
12.50636029042914
 20
-13.48991709651053
 10
12.53134539602913
 20
-13.48968679411052
  0
LWPOLYLINE
  5
116
330
2
100
AcDbEntity
  8
0
100
AcDbPolyline
 90
        3
 70
     0
 43
0.0
 10
12.45737859282914
 20
-13.49035914291052
 10
12.46950535922914
 20
-13.49025086451052
 10
12.49399474002913
 20
-13.49002987091051
  0
LWPOLYLINE
  5
117
330
2
100
AcDbEntity
  8
0
100
AcDbPolyline
 90
        3
 70
     0
 43
0.0
 10
12.42144662802914
 20
-13.49067550131052
 10
12.43335174802914
 20
-13.49057142451052
 10
12.45737859282914
 20
-13.49035914291052
  0
LINE
  5
118
330
2
100
AcDbEntity
  8
0
100
AcDbLine
 10
9.653183688829166
 20
-13.42766491571051
 30
0.0
 11
9.621670044029151
 21
-13.42796489811052
 31
0.0
  0
LINE
  5
119
330
2
100
AcDbEntity
  8
0
100
AcDbLine
 10
12.39784054322914
 20
-13.49087970291051
 30
0.0
 11
12.42144662802915
 21
-13.49067550131052
 31
0.0
  0
LWPOLYLINE
  5
11A
330
2
100
AcDbEntity
  8
0
100
AcDbPolyline
 90
        3
 70
     0
 43
0.0
 10
12.36290501042915
 20
-13.49117663731052
 10
12.37449028402915
 20
-13.49107886451053
 10
12.39784054322913
 20
-13.49087970291051
  0
LINE
  5
11B
330
2
100
AcDbEntity
  8
0
100
AcDbLine
 10
12.98141746162915
 20
-13.60420716691052
 30
0.0
 11
12.79908581362915
 21
-13.60569862931051
 31
0.0
  0
LWPOLYLINE
  5
11C
330
2
100
AcDbEntity
  8
0
100
AcDbPolyline
 90
        3
 70
     0
 43
0.0
 10
12.32847981042914
 20
-13.49146309651052
 10
12.33990215602915
 20
-13.49136872371053
 10
12.36290501042915
 20
-13.49117663731052
  0
LINE
  5
11D
330
2
100
AcDbEntity
  8
0
100
AcDbLine
 10
9.503058024829165
 20
-13.42936419091051
 30
0.0
 11
9.43452624722915
 21
-13.42995889171052
 31
0.0
  0
LWPOLYLINE
  5
11E
330
2
100
AcDbEntity
  8
0
100
AcDbPolyline
 90
        3
 70
     0
 43
0.0
 10
12.29450077362915
 20
-13.49173988531051
 10
12.30578146482915
 20
-13.49164865011052
 10
12.32847981042914
 20
-13.49146309651052
  0
LWPOLYLINE
  5
11F
330
2
100
AcDbEntity
  8
0
100
AcDbPolyline
 90
        3
 70
     0
 43
0.0
 10
12.26090470322915
 20
-13.49200775251051
 10
12.27206470802914
 20
-13.4919194117105
 10
12.29450077362915
 20
-13.49173988531051
  0
LINE
  5
120
330
2
100
AcDbEntity
  8
0
100
AcDbLine
 10
12.79908581362915
 20
-13.60569862931051
 30
0.0
 11
12.67125254642915
 21
-13.60668014291052
 31
0.0
  0
LWPOLYLINE
  5
121
330
2
100
AcDbEntity
  8
0
100
AcDbPolyline
 90
        4
 70
     0
 43
0.0
 10
12.21659795762914
 20
-13.49235221971053
 10
12.22762922322914
 20
-13.49226738931053
 10
12.23868925042916
 20
-13.49218171731052
 10
12.26090470322915
 20
-13.49200775251051
  0
LINE
  5
122
330
2
100
AcDbEntity
  8
0
100
AcDbLine
 10
11.46667173042914
 20
-13.43283857971052
 30
0.0
 11
11.40007223122916
 21
-13.43338990611052
 31
0.0
  0
LWPOLYLINE
  5
123
330
2
100
AcDbEntity
  8
0
100
AcDbPolyline
 90
        3
 70
     0
 43
0.0
 10
12.18365405522914
 20
-13.49260187411052
 10
12.19461263282914
 20
-13.49251943891052
 10
12.21659795762914
 20
-13.49235221971053
  0
LWPOLYLINE
  5
124
330
2
100
AcDbEntity
  8
0
100
AcDbPolyline
 90
        3
 70
     0
 43
0.0
 10
12.15088650802914
 20
-13.49284472851052
 10
12.16179380722914
 20
-13.49276449491053
 10
12.18365405522914
 20
-13.49260187411052
  0
LINE
  5
125
330
2
100
AcDbEntity
  8
0
100
AcDbLine
 10
12.67125254642915
 20
-13.60668014291052
 30
0.0
 11
12.50486161842915
 21
-13.60787908691053
 31
0.0
  0
LWPOLYLINE
  5
126
330
2
100
AcDbEntity
  8
0
100
AcDbPolyline
 90
        3
 70
     0
 43
0.0
 10
12.11802481042914
 20
-13.49308281811053
 10
12.12900717842916
 20
-13.49300385651053
 10
12.15088650802914
 20
-13.49284472851052
  0
LWPOLYLINE
  5
127
330
2
100
AcDbEntity
  8
0
100
AcDbPolyline
 90
        3
 70
     0
 43
0.0
 10
12.08492843602914
 20
-13.49331708691053
 10
12.09598364402916
 20
-13.49323945011053
 10
12.11802481042914
 20
-13.49308281811053
  0
LWPOLYLINE
  5
128
330
2
100
AcDbEntity
  8
0
100
AcDbPolyline
 90
        3
 70
     0
 43
0.0
 10
12.06354152242914
 20
-13.57938305651051
 10
12.76518598482914
 20
-13.57460584851053
 10
13.43224350162915
 20
-13.56877441331052
  0
LWPOLYLINE
  5
129
330
2
100
AcDbEntity
  8
0
100
AcDbPolyline
 90
        3
 70
     0
 43
0.0
 10
12.05164596562914
 20
-13.49354709171051
 10
12.06275773362915
 20
-13.49347092371052
 10
12.08492843602914
 20
-13.49331708691053
  0
LINE
  5
12A
330
2
100
AcDbEntity
  8
0
100
AcDbLine
 10
9.43452624722915
 20
-13.42995889171052
 30
0.0
 11
9.168586879229145
 21
-13.43181598131052
 31
0.0
  0
LINE
  5
12B
330
2
100
AcDbEntity
  8
0
100
AcDbLine
 10
12.50486161842915
 20
-13.60787908691053
 30
0.0
 11
12.28432204562916
 21
-13.60933229171052
 31
0.0
  0
LWPOLYLINE
  5
12C
330
2
100
AcDbEntity
  8
0
100
AcDbPolyline
 90
        3
 70
     0
 43
0.0
 10
12.01831535282914
 20
-13.49377179251052
 10
12.02940602002914
 20
-13.49369765811052
 10
12.05164596562914
 20
-13.49354709171051
  0
LINE
  5
12D
330
2
100
AcDbEntity
  8
0
100
AcDbLine
 10
12.56435162642916
 20
-13.60738200051053
 30
0.0
 11
12.06375944082916
 21
-13.61063219891053
 31
0.0
  0
LWPOLYLINE
  5
12E
330
2
100
AcDbEntity
  8
0
100
AcDbPolyline
 90
        3
 70
     0
 43
0.0
 10
11.98517929202916
 20
-13.49398946291051
 10
11.99620102482916
 20
-13.49391770291051
 10
12.01831535282914
 20
-13.49377179251052
  0
LWPOLYLINE
  5
12F
330
2
100
AcDbEntity
  8
0
100
AcDbPolyline
 90
        3
 70
     0
 43
0.0
 10
11.95226546322913
 20
-13.49419989171052
 10
11.96321079122915
 20
-13.4941305621105
 10
11.98517929202916
 20
-13.49398946291051
  0
LINE
  5
130
330
2
100
AcDbEntity
  8
0
100
AcDbLine
 10
11.40007223122916
 20
-13.43338990611052
 30
0.0
 11
11.33275903122916
 21
-13.43385314611051
 31
0.0
  0
LWPOLYLINE
  5
131
330
2
100
AcDbEntity
  8
0
100
AcDbPolyline
 90
        3
 70
     0
 43
0.0
 10
11.91959293842916
 20
-13.4944029637105
 10
11.93045592242916
 20
-13.49433609651051
 10
11.95226546322913
 20
-13.49419989171052
  0
LINE
  5
132
330
2
100
AcDbEntity
  8
0
100
AcDbLine
 10
9.168586879229145
 20
-13.43181598131052
 30
0.0
 11
9.05934442162917
 21
-13.43250972371051
 31
0.0
  0
LWPOLYLINE
  5
133
330
2
100
AcDbEntity
  8
0
100
AcDbPolyline
 90
        3
 70
     0
 43
0.0
 10
11.88717823282914
 20
-13.49459860051052
 10
11.89795350482916
 20
-13.4945342181105
 10
11.91959293842916
 20
-13.4944029637105
  0
LWPOLYLINE
  5
134
330
2
100
AcDbEntity
  8
0
100
AcDbPolyline
 90
        3
 70
     0
 43
0.0
 10
11.85503735602915
 20
-13.49478675891051
 10
11.86571954962914
 20
-13.49472487251051
 10
11.88717823282914
 20
-13.49459860051052
  0
LWPOLYLINE
  5
135
330
2
100
AcDbEntity
  8
0
100
AcDbPolyline
 90
        3
 70
     0
 43
0.0
 10
11.82323288722915
 20
-13.49496713971051
 10
11.83378282642914
 20
-13.49490795411053
 10
11.85503735602915
 20
-13.49478675891051
  0
LINE
  5
136
330
2
100
AcDbEntity
  8
0
100
AcDbLine
 10
11.80239542002915
 20
-13.4950821045105
 30
0.0
 11
11.82323288722916
 21
-13.49496713971051
 31
0.0
  0
LINE
  5
137
330
2
100
AcDbEntity
  8
0
100
AcDbLine
 10
12.28432204562916
 20
-13.60933229171052
 30
0.0
 11
11.99971280082915
 21
-13.61097594131052
 31
0.0
  0
LWPOLYLINE
  5
138
330
2
100
AcDbEntity
  8
0
100
AcDbPolyline
 90
        3
 70
     0
 43
0.0
 10
11.77175794162914
 20
-13.49524637811051
 10
11.78189117362916
 20
-13.4951926805105
 10
11.80239542002914
 20
-13.4950821045105
  0
LINE
  5
139
330
2
100
AcDbEntity
  8
0
100
AcDbLine
 10
9.05934442162917
 20
-13.43250972371051
 30
0.0
 11
8.945085764029165
 21
-13.43313385651051
 31
0.0
  0
LWPOLYLINE
  5
13A
330
2
100
AcDbEntity
  8
0
100
AcDbPolyline
 90
        3
 70
     0
 43
0.0
 10
11.74180763762913
 20
-13.49540135891052
 10
11.75171816402914
 20
-13.49535069811053
 10
11.77175794162914
 20
-13.49524637811051
  0
LINE
  5
13B
330
2
100
AcDbEntity
  8
0
100
AcDbLine
 10
11.33275903122916
 20
-13.43385314611051
 30
0.0
 11
11.26482556082914
 21
-13.43423768691052
 31
0.0
  0
LINE
  5
13C
330
2
100
AcDbEntity
  8
0
100
AcDbLine
 10
11.87696665042916
 20
-13.5803131797105
 30
0.0
 11
12.06354152242915
 21
-13.57938305651051
 31
0.0
  0
LWPOLYLINE
  5
13D
330
2
100
AcDbEntity
  8
0
100
AcDbPolyline
 90
        3
 70
     0
 43
0.0
 10
11.71236714002915
 20
-13.4955481925105
 10
11.72216672402913
 20
-13.49549992531051
 10
11.74180763762913
 20
-13.49540135891052
  0
LINE
  5
13E
330
2
100
AcDbEntity
  8
0
100
AcDbLine
 10
11.69276266002916
 20
-13.49564294131052
 30
0.0
 11
11.71236714002916
 21
-13.4955481925105
 31
0.0
  0
LINE
  5
13F
330
2
100
AcDbEntity
  8
0
100
AcDbLine
 10
11.26482556082914
 20
-13.43423768691052
 30
0.0
 11
11.24847497842916
 21
-13.43431784211053
 31
0.0
  0
LINE
  5
140
330
2
100
AcDbEntity
  8
0
100
AcDbLine
 10
12.06375944082916
 20
-13.61063219891053
 30
0.0
 11
11.77584639602915
 21
-13.61197188051053
 31
0.0
  0
LINE
  5
141
330
2
100
AcDbEntity
  8
0
100
AcDbLine
 10
11.99971280082915
 20
-13.61097594131052
 30
0.0
 11
11.87801557842915
 21
-13.61156120211051
 31
0.0
  0
LINE
  5
142
330
2
100
AcDbEntity
  8
0
100
AcDbLine
 10
11.24847497842916
 20
-13.43431784211053
 30
0.0
 11
11.22833310642915
 21
-13.43441013811053
 31
0.0
  0
LINE
  5
143
330
2
100
AcDbEntity
  8
0
100
AcDbLine
 10
8.945085764029165
 20
-13.43313385651051
 30
0.0
 11
8.838308823229148
 21
-13.43362451411052
 31
0.0
  0
LINE
  5
144
330
2
100
AcDbEntity
  8
0
100
AcDbLine
 10
9.692078375229165
 20
-13.42743546771051
 30
0.0
 11
9.653183688829166
 21
-13.42766491571051
 31
0.0
  0
LINE
  5
145
330
2
100
AcDbEntity
  8
0
100
AcDbLine
 10
11.53437408082914
 20
-13.49632330611052
 30
0.0
 11
11.69276266002916
 21
-13.49564294131052
 31
0.0
  0
LINE
  5
146
330
2
100
AcDbEntity
  8
0
100
AcDbLine
 10
11.87801557842915
 20
-13.61156120211051
 30
0.0
 11
11.79261214642915
 21
-13.61191295731051
 31
0.0
  0
LINE
  5
147
330
2
100
AcDbEntity
  8
0
100
AcDbLine
 10
8.838308823229148
 20
-13.43362451411052
 30
0.0
 11
8.731627991229153
 21
-13.43402294131052
 31
0.0
  0
LINE
  5
148
330
2
100
AcDbEntity
  8
0
100
AcDbLine
 10
11.77584639602915
 20
-13.61197188051053
 30
0.0
 11
11.68701166642916
 21
-13.61226938291053
 31
0.0
  0
LINE
  5
149
330
2
100
AcDbEntity
  8
0
100
AcDbLine
 10
11.77584639602915
 20
-13.61197188051053
 30
0.0
 11
11.54273145042916
 21
-13.61257583891051
 31
0.0
  0
LWPOLYLINE
  5
14A
330
2
100
AcDbEntity
  8
0
100
AcDbPolyline
 90
        3
 70
     0
 43
0.0
 10
11.56807831442915
 20
-13.5812893845105
 10
11.71126471442914
 20
-13.5809418133105
 10
11.87696665042915
 20
-13.5803131797105
  0
LINE
  5
14B
330
2
100
AcDbEntity
  8
0
100
AcDbLine
 10
11.39282664562916
 20
-13.49676570931051
 30
0.0
 11
11.52838909202916
 21
-13.49634629971051
 31
0.0
  0
LINE
  5
14C
330
2
100
AcDbEntity
  8
0
100
AcDbLine
 10
8.731627991229153
 20
-13.43402294131052
 30
0.0
 11
8.628810618429163
 21
-13.43431233491053
 31
0.0
  0
LWPOLYLINE
  5
14D
330
2
100
AcDbEntity
  8
0
100
AcDbPolyline
 90
        3
 70
     0
 43
0.0
 10
11.68701166642915
 20
-13.61226938291053
 10
11.59137181042913
 20
-13.61250134291051
 10
11.56908317842914
 20
-13.61254042131053
  0
LINE
  5
14E
330
2
100
AcDbEntity
  8
0
100
AcDbLine
 10
8.628810618429163
 20
-13.43431233491053
 30
0.0
 11
8.543315336829159
 21
-13.43447764371051
 31
0.0
  0
LINE
  5
14F
330
2
100
AcDbEntity
  8
0
100
AcDbLine
 10
11.27857716242915
 20
-13.49697017011052
 30
0.0
 11
11.39282664562916
 21
-13.49676570931051
 31
0.0
  0
LINE
  5
150
330
2
100
AcDbEntity
  8
0
100
AcDbLine
 10
11.22833310642915
 20
-13.43441013811053
 30
0.0
 11
11.19323971442916
 21
-13.43454327091051
 31
0.0
  0
LINE
  5
151
330
2
100
AcDbEntity
  8
0
100
AcDbLine
 10
11.54273145042916
 20
-13.61257583891051
 30
0.0
 11
11.50624711282916
 21
-13.61261341811052
 31
0.0
  0
LINE
  5
152
330
2
100
AcDbEntity
  8
0
100
AcDbLine
 10
11.53763371762915
 20
-13.58131039891053
 30
0.0
 11
11.56807831442916
 21
-13.5812893845105
 31
0.0
  0
LINE
  5
153
330
2
100
AcDbEntity
  8
0
100
AcDbLine
 10
11.12624323762916
 20
-13.49709435731051
 30
0.0
 11
11.27325659762915
 21
-13.49697671731052
 31
0.0
  0
LINE
  5
154
330
2
100
AcDbEntity
  8
0
100
AcDbLine
 10
8.543315336829159
 20
-13.43447764371051
 30
0.0
 11
8.45059941682917
 21
-13.43458032531051
 31
0.0
  0
LINE
  5
155
330
2
100
AcDbEntity
  8
0
100
AcDbLine
 10
11.19323971442916
 20
-13.43454327091051
 30
0.0
 11
11.13799168242915
 21
-13.43458838931052
 31
0.0
  0
LINE
  5
156
330
2
100
AcDbEntity
  8
0
100
AcDbLine
 10
9.726870575229163
 20
-13.42737126131051
 30
0.0
 11
9.692078375229165
 21
-13.42743546771051
 31
0.0
  0
LINE
  5
157
330
2
100
AcDbEntity
  8
0
100
AcDbLine
 10
7.911052288829161
 20
-13.61257583891051
 30
0.0
 11
7.947399520829158
 21
-13.61255989971052
 31
0.0
  0
LINE
  5
158
330
2
100
AcDbEntity
  8
0
100
AcDbLine
 10
11.13799168242915
 20
-13.43458838931052
 30
0.0
 11
11.11820571122914
 21
-13.43459769491053
 31
0.0
  0
LINE
  5
159
330
2
100
AcDbEntity
  8
0
100
AcDbLine
 10
8.455445260029144
 20
-13.99116389971052
 30
0.0
 11
10.99833847922915
 21
-13.99116389971052
 31
0.0
  0
LINE
  5
15A
330
2
100
AcDbEntity
  8
0
100
AcDbLine
 10
11.11820571122914
 20
-13.43459769491053
 30
0.0
 11
11.08018673362915
 21
-13.43460543091051
 31
0.0
  0
LINE
  5
15B
330
2
100
AcDbEntity
  8
0
100
AcDbLine
 10
8.45059941682917
 20
-13.43458032531051
 30
0.0
 11
8.353652244029156
 21
-13.43460303571051
 31
0.0
  0
LINE
  5
15C
330
2
100
AcDbEntity
  8
0
100
AcDbLine
 10
11.54273145042916
 20
-13.61257583891051
 30
0.0
 11
11.50638421682916
 21
-13.61255989971052
 31
0.0
  0
LINE
  5
15D
330
2
100
AcDbEntity
  8
0
100
AcDbLine
 10
11.08018673362915
 20
-13.43460543091051
 30
0.0
 11
10.98218712882914
 21
-13.43456401331052
 31
0.0
  0
LINE
  5
15E
330
2
100
AcDbEntity
  8
0
100
AcDbLine
 10
8.353652244029156
 20
-13.43460303571051
 30
0.0
 11
8.258479770429154
 21
-13.43454083891051
 31
0.0
  0
LINE
  5
15F
330
2
100
AcDbEntity
  8
0
100
AcDbLine
 10
10.98218712882914
 20
-13.43456401331052
 30
0.0
 11
10.88767303762916
 21
-13.43444022291051
 31
0.0
  0
LINE
  5
160
330
2
100
AcDbEntity
  8
0
100
AcDbLine
 10
7.916150020029171
 20
-13.58131039891053
 30
0.0
 11
7.880580058429167
 21
-13.58127694291052
 31
0.0
  0
LWPOLYLINE
  5
161
330
2
100
AcDbEntity
  8
0
100
AcDbPolyline
 90
        3
 70
     0
 43
0.0
 10
7.88058005842916
 20
-13.58127694291052
 10
7.742519023229164
 20
-13.5809418133105
 10
7.576817087229159
 20
-13.5803131797105
  0
LINE
  5
162
330
2
100
AcDbEntity
  8
0
100
AcDbLine
 10
10.88767303762916
 20
-13.43444022291051
 30
0.0
 11
10.79856002962916
 21
-13.43424744691051
 31
0.0
  0
LINE
  5
163
330
2
100
AcDbEntity
  8
0
100
AcDbLine
 10
7.677937341629167
 20
-13.61197188051053
 30
0.0
 11
7.911052288829161
 21
-13.61257583891051
 31
0.0
  0
LINE
  5
164
330
2
100
AcDbEntity
  8
0
100
AcDbLine
 10
9.76219575762915
 20
-13.42743731411052
 30
0.0
 11
9.726870575229163
 21
-13.42737122131051
 31
0.0
  0
LINE
  5
165
330
2
100
AcDbEntity
  8
0
100
AcDbLine
 10
10.79856002962916
 20
-13.43424744691051
 30
0.0
 11
10.69313852722914
 21
-13.43392409811053
 31
0.0
  0
LINE
  5
166
330
2
100
AcDbEntity
  8
0
100
AcDbLine
 10
10.69313852722914
 20
-13.43392409811053
 30
0.0
 11
10.58621713842917
 21
-13.43349880851052
 31
0.0
  0
LINE
  5
167
330
2
100
AcDbEntity
  8
0
100
AcDbLine
 10
7.39002429682916
 20
-13.61063219891053
 30
0.0
 11
7.677937341629167
 21
-13.61197188051053
 31
0.0
  0
LINE
  5
168
330
2
100
AcDbEntity
  8
0
100
AcDbLine
 10
8.258479770429154
 20
-13.43454083891051
 30
0.0
 11
8.194585498429155
 21
-13.43426581651052
 31
0.0
  0
LINE
  5
169
330
2
100
AcDbEntity
  8
0
100
AcDbLine
 10
7.576817087229166
 20
-13.5803131797105
 30
0.0
 11
7.390242215229143
 21
-13.57938305651051
 31
0.0
  0
LINE
  5
16A
330
2
100
AcDbEntity
  8
0
100
AcDbLine
 10
10.58621713842917
 20
-13.43349880851052
 30
0.0
 11
10.47835632242917
 21
-13.43297843571053
 31
0.0
  0
LINE
  5
16B
330
2
100
AcDbEntity
  8
0
100
AcDbLine
 10
8.194585498429155
 20
-13.43426581651052
 30
0.0
 11
8.133763397629145
 21
-13.43393146611051
 31
0.0
  0
LINE
  5
16C
330
2
100
AcDbEntity
  8
0
100
AcDbLine
 10
10.47835632242917
 20
-13.43297843571053
 30
0.0
 11
10.36250563762914
 21
-13.43231588691053
 31
0.0
  0
LINE
  5
16D
330
2
100
AcDbEntity
  8
0
100
AcDbLine
 10
9.78761751602915
 20
-13.42756983411052
 30
0.0
 11
9.76219575762915
 21
-13.42743731411052
 31
0.0
  0
LINE
  5
16E
330
2
100
AcDbEntity
  8
0
100
AcDbLine
 10
6.889432111229162
 20
-13.60738200051053
 30
0.0
 11
7.39002429682916
 21
-13.61063219891053
 31
0.0
  0
LWPOLYLINE
  5
16F
330
2
100
AcDbEntity
  8
0
100
AcDbPolyline
 90
        3
 70
     0
 43
0.0
 10
7.390242215229136
 20
-13.57938305651051
 10
6.688597752829139
 20
-13.57460584851053
 10
6.021540237629153
 20
-13.56877441331052
  0
LINE
  5
170
330
2
100
AcDbEntity
  8
0
100
AcDbLine
 10
10.36250563762914
 20
-13.43231588691053
 30
0.0
 11
10.21012807122915
 21
-13.43130176051053
 31
0.0
  0
LINE
  5
171
330
2
100
AcDbEntity
  8
0
100
AcDbLine
 10
8.133763397629145
 20
-13.43393146611051
 30
0.0
 11
8.063201090429153
 21
-13.43346046291054
 31
0.0
  0
LINE
  5
172
330
2
100
AcDbEntity
  8
0
100
AcDbLine
 10
10.21012807122915
 20
-13.43130176051053
 30
0.0
 11
10.03165956562916
 21
-13.43005364851051
 31
0.0
  0
LINE
  5
173
330
2
100
AcDbEntity
  8
0
100
AcDbLine
 10
8.063201090429153
 20
-13.43346046291054
 30
0.0
 11
7.993123096829158
 21
-13.43289276371051
 31
0.0
  0
LWPOLYLINE
  5
174
330
2
100
AcDbEntity
  8
0
100
AcDbPolyline
 90
        3
 70
     0
 43
0.0
 10
10.03165956562915
 20
-13.43005364851051
 10
9.958351783229147
 20
-13.42943833011053
 10
9.927399885629142
 20
-13.42911995731051
  0
LINE
  5
175
330
2
100
AcDbEntity
  8
0
100
AcDbLine
 10
9.81662363922917
 20
-13.42780613171052
 30
0.0
 11
9.78761751602915
 21
-13.42756983411052
 31
0.0
  0
LINE
  5
176
330
2
100
AcDbEntity
  8
0
100
AcDbLine
 10
6.974614031229158
 20
-13.49016402451052
 30
0.0
 11
8.327568564029157
 21
-13.49709437011051
 31
0.0
  0
LINE
  5
177
330
2
100
AcDbEntity
  8
0
100
AcDbLine
 10
6.781429655229153
 20
-13.48832535411053
 30
0.0
 11
6.974614031229158
 21
-13.49016402451052
 31
0.0
  0
LINE
  5
178
330
2
100
AcDbEntity
  8
0
100
AcDbLine
 10
7.993123096829158
 20
-13.43289276371051
 30
0.0
 11
7.936769362429153
 21
-13.43234352691052
 31
0.0
  0
LWPOLYLINE
  5
179
330
2
100
AcDbEntity
  8
0
100
AcDbPolyline
 90
        3
 70
     0
 43
0.0
 10
5.471759868029153
 20
-13.54456177491052
 10
5.509239066429159
 20
-13.54496800531051
 10
5.533300600829136
 20
-13.54503710131051
  0
LINE
  5
17A
330
2
100
AcDbEntity
  8
0
100
AcDbLine
 10
6.02154023762916
 20
-13.56877441331052
 30
0.0
 11
5.388919538429156
 21
-13.56163289811052
 31
0.0
  0
LINE
  5
17B
330
2
100
AcDbEntity
  8
0
100
AcDbLine
 10
6.554784117629147
 20
-13.48591274931052
 30
0.0
 11
6.781429655229153
 21
-13.48832535411053
 31
0.0
  0
LWPOLYLINE
  5
17C
330
2
100
AcDbEntity
  8
0
100
AcDbPolyline
 90
        4
 70
     0
 43
0.0
 10
5.388381522429142
 20
-13.59287798131051
 10
5.888599975229141
 20
-13.59869502611052
 10
6.388957952829144
 20
-13.60338734291053
 10
6.889432111229154
 20
-13.60738200051053
  0
LINE
  5
17D
330
2
100
AcDbEntity
  8
0
100
AcDbLine
 10
9.853069063229163
 20
-13.42820695091051
 30
0.0
 11
9.81662363922917
 21
-13.42780613171052
 31
0.0
  0
LINE
  5
17E
330
2
100
AcDbEntity
  8
0
100
AcDbLine
 10
7.936769362429153
 20
-13.43234352691052
 30
0.0
 11
7.880480999229156
 21
-13.43168048051051
 31
0.0
  0
LINE
  5
17F
330
2
100
AcDbEntity
  8
0
100
AcDbLine
 10
6.331734324029163
 20
-13.48325937971053
 30
0.0
 11
6.554784117629147
 21
-13.48591274931052
 31
0.0
  0
LINE
  5
180
330
2
100
AcDbEntity
  8
0
100
AcDbLine
 10
9.927399885629149
 20
-13.42911995731051
 30
0.0
 11
9.853069063229163
 21
-13.42820695091051
 31
0.0
  0
LINE
  5
181
330
2
100
AcDbEntity
  8
0
100
AcDbLine
 10
6.121653653629159
 20
-13.48049761331051
 30
0.0
 11
6.331734324029163
 21
-13.48325937971053
 31
0.0
  0
LINE
  5
182
330
2
100
AcDbEntity
  8
0
100
AcDbLine
 10
4.79572044242915
 20
-13.53474885491052
 30
0.0
 11
5.47175986802916
 21
-13.54456177491052
 31
0.0
  0
LINE
  5
183
330
2
100
AcDbEntity
  8
0
100
AcDbLine
 10
5.94585136882916
 20
-13.47798504371052
 30
0.0
 11
6.121653653629159
 21
-13.48049761331051
 31
0.0
  0
LINE
  5
184
330
2
100
AcDbEntity
  8
0
100
AcDbLine
 10
5.13539797682916
 20
-13.58900907091051
 30
0.0
 11
5.388381522429149
 21
-13.59287798131051
 31
0.0
  0
LINE
  5
185
330
2
100
AcDbEntity
  8
0
100
AcDbLine
 10
7.880480999229156
 20
-13.43168048051051
 30
0.0
 11
7.834142925629159
 21
-13.43100419571052
 31
0.0
  0
LINE
  5
186
330
2
100
AcDbEntity
  8
0
100
AcDbLine
 10
5.774397564029165
 20
-13.47535473171051
 30
0.0
 11
5.94585136882916
 21
-13.47798504371052
 31
0.0
  0
LWPOLYLINE
  5
187
330
2
100
AcDbEntity
  8
0
100
AcDbPolyline
 90
        4
 70
     0
 43
0.0
 10
5.388919538429149
 20
-13.56163289811052
 10
5.029754464829153
 20
-13.55587907251051
 10
4.64587471602914
 20
-13.5480117157105
 10
4.273109175229137
 20
-13.53911985011051
  0
LINE
  5
188
330
2
100
AcDbEntity
  8
0
100
AcDbLine
 10
5.631468752829142
 20
-13.47302506611051
 30
0.0
 11
5.774397564029165
 21
-13.47535473171051
 31
0.0
  0
LINE
  5
189
330
2
100
AcDbEntity
  8
0
100
AcDbLine
 10
5.458729904829148
 20
-13.47004486931052
 30
0.0
 11
5.631468752829142
 21
-13.47302506611051
 31
0.0
  0
LINE
  5
18A
330
2
100
AcDbEntity
  8
0
100
AcDbLine
 10
5.277126981629159
 20
-13.46672242931051
 30
0.0
 11
5.458729904829148
 21
-13.47004486931052
 31
0.0
  0
LINE
  5
18B
330
2
100
AcDbEntity
  8
0
100
AcDbLine
 10
5.153947376829144
 20
-13.46436146931051
 30
0.0
 11
5.277126981629159
 21
-13.46672242931051
 31
0.0
  0
LINE
  5
18C
330
2
100
AcDbEntity
  8
0
100
AcDbLine
 10
7.834142925629159
 20
-13.43100419571052
 30
0.0
 11
7.799814069629157
 21
-13.43036779411053
 31
0.0
  0
LWPOLYLINE
  5
18D
330
2
100
AcDbEntity
  8
0
100
AcDbPolyline
 90
        3
 70
     0
 43
0.0
 10
3.546124420029144
 20
-13.51163193651051
 10
4.138243173629149
 20
-13.52351022131051
 10
4.795720442429143
 20
-13.53474885491052
  0
LINE
  5
18E
330
2
100
AcDbEntity
  8
0
100
AcDbLine
 10
4.993643901629162
 20
-13.46116315571051
 30
0.0
 11
5.153947376829144
 21
-13.46436146931051
 31
0.0
  0
LWPOLYLINE
  5
18F
330
2
100
AcDbEntity
  8
0
100
AcDbPolyline
 90
        3
 70
     0
 43
0.0
 10
16.36033875442913
 20
-13.50405298131053
 10
16.34162057202914
 20
-13.50366945011051
 10
16.21041925522914
 20
-13.50551112371052
  0
LINE
  5
190
330
2
100
AcDbEntity
  8
0
100
AcDbLine
 10
4.864528162429145
 20
-13.45848758291051
 30
0.0
 11
4.993643901629162
 21
-13.46116315571051
 31
0.0
  0
LINE
  5
191
330
2
100
AcDbEntity
  8
0
100
AcDbLine
 10
4.640277144829163
 20
-13.45361447571053
 30
0.0
 11
4.864528162429145
 21
-13.45848758291051
 31
0.0
  0
LINE
  5
192
330
2
100
AcDbEntity
  8
0
100
AcDbLine
 10
4.443572548029159
 20
-13.44909351571052
 30
0.0
 11
4.640277144829163
 21
-13.45361447571053
 31
0.0
  0
LINE
  5
193
330
2
100
AcDbEntity
  8
0
100
AcDbLine
 10
4.264282400829166
 20
-13.44477463891052
 30
0.0
 11
4.443572548029159
 21
-13.44909351571052
 31
0.0
  0
LINE
  5
194
330
2
100
AcDbEntity
  8
0
100
AcDbLine
 10
7.799814069629157
 20
-13.43036779411053
 30
0.0
 11
7.778500084029168
 21
-13.42986208051052
 31
0.0
  0
LINE
  5
195
330
2
100
AcDbEntity
  8
0
100
AcDbLine
 10
4.071038290429164
 20
-13.43991331731052
 30
0.0
 11
4.264282400829166
 21
-13.44477463891052
 31
0.0
  0
LINE
  5
196
330
2
100
AcDbEntity
  8
0
100
AcDbLine
 10
4.273109175229144
 20
-13.53911985011051
 30
0.0
 11
3.940683492029144
 21
-13.53045099891053
 31
0.0
  0
LWPOLYLINE
  5
197
330
2
100
AcDbEntity
  8
0
100
AcDbPolyline
 90
        5
 70
     0
 43
0.0
 10
3.88449268562914
 20
-13.5601920533105
 10
4.193004159229161
 20
-13.56834602771052
 10
4.516879389629139
 20
-13.57631223891052
 10
4.837918672829147
 20
-13.58339448211051
 10
5.135397976829153
 20
-13.58900907091051
  0
LINE
  5
198
330
2
100
AcDbEntity
  8
0
100
AcDbLine
 10
3.905284356029149
 20
-13.43557822291051
 30
0.0
 11
4.071038290429164
 21
-13.43991331731052
 31
0.0
  0
LINE
  5
199
330
2
100
AcDbEntity
  8
0
100
AcDbLine
 10
3.727763194429151
 20
-13.43077183411053
 30
0.0
 11
3.905284356029149
 21
-13.43557822291051
 31
0.0
  0
LINE
  5
19A
330
2
100
AcDbEntity
  8
0
100
AcDbLine
 10
3.940683492029144
 20
-13.53045099891053
 30
0.0
 11
3.649516304829155
 21
-13.52240729171051
 31
0.0
  0
LINE
  5
19B
330
2
100
AcDbEntity
  8
0
100
AcDbLine
 10
3.607852840829146
 20
-13.55248375731053
 30
0.0
 11
3.884492685629147
 21
-13.5601920533105
 31
0.0
  0
LINE
  5
19C
330
2
100
AcDbEntity
  8
0
100
AcDbLine
 10
3.530134706429159
 20
-13.42522955731052
 30
0.0
 11
3.727763194429151
 21
-13.43077183411053
 31
0.0
  0
LINE
  5
19D
330
2
100
AcDbEntity
  8
0
100
AcDbLine
 10
3.649516304829155
 20
-13.52240729171051
 30
0.0
 11
3.40435003282915
 21
-13.51525836531052
 31
0.0
  0
LINE
  5
19E
330
2
100
AcDbEntity
  8
0
100
AcDbLine
 10
3.379279367229152
 20
-13.54576318771051
 30
0.0
 11
3.607852840829146
 21
-13.55248375731053
 31
0.0
  0
LINE
  5
19F
330
2
100
AcDbEntity
  8
0
100
AcDbLine
 10
3.441741133629143
 20
-13.42262355731053
 30
0.0
 11
3.529357773629165
 21
-13.42520150771053
 31
0.0
  0
LWPOLYLINE
  5
1A0
330
2
100
AcDbEntity
  8
0
100
AcDbPolyline
 90
        9
 70
     0
 43
0.0
 10
7.778500084029161
 20
-13.42986208051052
 10
7.765702124029161
 20
-13.42948287251052
 10
7.761056864829157
 20
-13.42931950771053
 10
7.757260204029137
 20
-13.42916581331052
 10
7.754220671229148
 20
-13.42901638291052
 10
7.751872532029153
 20
-13.42886615411051
 10
7.75019297202914
 20
-13.42871187571051
 10
7.749171906429154
 20
-13.42855598611051
 10
7.748767490429145
 20
-13.42840753971051
  0
LINE
  5
1A1
330
2
100
AcDbEntity
  8
0
100
AcDbLine
 10
3.40435003282915
 20
-13.51525836531052
 30
0.0
 11
3.213516628029147
 21
-13.50922118291051
 31
0.0
  0
LINE
  5
1A2
330
2
100
AcDbEntity
  8
0
100
AcDbLine
 10
3.211174100029161
 20
-13.54040931891051
 30
0.0
 11
3.379279367229152
 21
-13.54576318771051
 31
0.0
  0
LINE
  5
1A3
330
2
100
AcDbEntity
  8
0
100
AcDbLine
 10
13.92048313682915
 20
-13.54503710131051
 30
0.0
 11
13.91192906962914
 21
-13.54476468851051
 31
0.0
  0
LWPOLYLINE
  5
1A4
330
2
100
AcDbEntity
  8
0
100
AcDbPolyline
 90
        3
 70
     0
 43
0.0
 10
3.21351662802914
 20
-13.50922118291051
 10
3.105478053629155
 20
-13.5050557093105
 10
3.093444983229147
 20
-13.50405298131053
  0
LWPOLYLINE
  5
1A5
330
2
100
AcDbEntity
  8
0
100
AcDbPolyline
 90
        3
 70
     0
 43
0.0
 10
3.09185459122915
 20
-13.53526950931051
 10
3.113237109629153
 20
-13.53671797171051
 10
3.211174100029154
 20
-13.54040931891051
  0
LWPOLYLINE
  5
1A6
330
2
100
AcDbEntity
  8
0
100
AcDbPolyline
 90
        5
 70
     0
 43
0.0
 10
3.201368303229145
 20
-13.54003972851051
 10
3.22191876402914
 20
-13.54283972851052
 10
3.25800302642915
 20
-13.55086233651052
 10
3.296991389629141
 20
-13.56392891091052
 10
3.337417844029147
 20
-13.5828592277105
  0
LINE
  5
1A7
330
2
100
AcDbEntity
  8
0
100
AcDbLine
 10
2.066176546429154
 20
-11.92170639891053
 30
0.0
 11
2.077334612029154
 21
-11.92334632691051
 31
0.0
  0
LINE
  5
1A8
330
2
100
AcDbEntity
  8
0
100
AcDbLine
 10
2.09820923602917
 20
-11.92591248531052
 30
0.0
 11
2.087749592829148
 21
-11.92437685971051
 31
0.0
  0
LINE
  5
1A9
330
2
100
AcDbEntity
  8
0
100
AcDbLine
 10
2.054751410429169
 20
-11.91996547091053
 30
0.0
 11
2.066176546429154
 21
-11.92170639891053
 31
0.0
  0
LINE
  5
1AA
330
2
100
AcDbEntity
  8
0
100
AcDbLine
 10
2.087749592829148
 20
-11.92437685971051
 30
0.0
 11
2.076856096829153
 21
-11.92271607891051
 31
0.0
  0
LINE
  5
1AB
330
2
100
AcDbEntity
  8
0
100
AcDbLine
 10
2.043133452029145
 20
-11.91813075091052
 30
0.0
 11
2.054751410429169
 21
-11.91996547091053
 31
0.0
  0
LINE
  5
1AC
330
2
100
AcDbEntity
  8
0
100
AcDbLine
 10
2.076856096829153
 20
-11.92271607891051
 30
0.0
 11
2.065606917629146
 21
-11.92093610451052
 31
0.0
  0
LINE
  5
1AD
330
2
100
AcDbEntity
  8
0
100
AcDbLine
 10
2.031393036029164
 20
-11.91621039731051
 30
0.0
 11
2.043133452029145
 21
-11.91813075091052
 31
0.0
  0
LINE
  5
1AE
330
2
100
AcDbEntity
  8
0
100
AcDbLine
 10
2.065606917629146
 20
-11.92093610451052
 30
0.0
 11
2.054052544829154
 21
-11.91903985491051
 31
0.0
  0
LINE
  5
1AF
330
2
100
AcDbEntity
  8
0
100
AcDbLine
 10
2.019547957629164
 20
-11.91420508531052
 30
0.0
 11
2.031393036029164
 21
-11.91621039731051
 31
0.0
  0
LINE
  5
1B0
330
2
100
AcDbEntity
  8
0
100
AcDbLine
 10
2.054052544829154
 20
-11.91903985491051
 30
0.0
 11
2.042258479229168
 21
-11.91703368051053
 31
0.0
  0
LINE
  5
1B1
330
2
100
AcDbEntity
  8
0
100
AcDbLine
 10
2.007590532029162
 20
-11.91211134771051
 30
0.0
 11
2.019547957629164
 21
-11.91420508531052
 31
0.0
  0
LINE
  5
1B2
330
2
100
AcDbEntity
  8
0
100
AcDbLine
 10
2.042258479229168
 20
-11.91703368051053
 30
0.0
 11
2.030242231229159
 21
-11.91491661651053
 31
0.0
  0
LINE
  5
1B3
330
2
100
AcDbEntity
  8
0
100
AcDbLine
 10
1.995513202429158
 20
-11.90992553171053
 30
0.0
 11
2.007590532029162
 21
-11.91211134771051
 31
0.0
  0
LINE
  5
1B4
330
2
100
AcDbEntity
  8
0
100
AcDbLine
 10
2.030242231229159
 20
-11.91491661651053
 30
0.0
 11
2.018011922429145
 21
-11.9126862517105
 31
0.0
  0
LINE
  5
1B5
330
2
100
AcDbEntity
  8
0
100
AcDbLine
 10
1.983308775229154
 20
-11.90764383731052
 30
0.0
 11
1.995513202429158
 21
-11.90992553171053
 31
0.0
  0
LINE
  5
1B6
330
2
100
AcDbEntity
  8
0
100
AcDbLine
 10
2.018011922429145
 20
-11.9126862517105
 30
0.0
 11
2.005575519229161
 21
-11.91034019411051
 31
0.0
  0
LINE
  5
1B7
330
2
100
AcDbEntity
  8
0
100
AcDbLine
 10
1.970970464829157
 20
-11.90526232851052
 30
0.0
 11
1.983308775229154
 21
-11.90764383731052
 31
0.0
  0
LINE
  5
1B8
330
2
100
AcDbEntity
  8
0
100
AcDbLine
 10
2.005575519229161
 20
-11.91034019411051
 30
0.0
 11
1.992940736829162
 21
-11.90787610771052
 31
0.0
  0
LINE
  5
1B9
330
2
100
AcDbEntity
  8
0
100
AcDbLine
 10
1.958491872829149
 20
-11.90277694291051
 30
0.0
 11
1.970970464829157
 21
-11.90526232851052
 31
0.0
  0
LINE
  5
1BA
330
2
100
AcDbEntity
  8
0
100
AcDbLine
 10
1.992940736829162
 20
-11.90787610771052
 30
0.0
 11
1.980115242429157
 21
-11.90529175411051
 31
0.0
  0
LINE
  5
1BB
330
2
100
AcDbEntity
  8
0
100
AcDbLine
 10
1.945866967229143
 20
-11.90018347411051
 30
0.0
 11
1.958491872829149
 21
-11.90277694291051
 31
0.0
  0
LINE
  5
1BC
330
2
100
AcDbEntity
  8
0
100
AcDbLine
 10
1.980115242429157
 20
-11.90529175411051
 30
0.0
 11
1.967106724029157
 21
-11.90258500691051
 31
0.0
  0
LINE
  5
1BD
330
2
100
AcDbEntity
  8
0
100
AcDbLine
 10
1.93309005042915
 20
-11.89747758291053
 30
0.0
 11
1.945866967229143
 21
-11.90018347411051
 31
0.0
  0
LINE
  5
1BE
330
2
100
AcDbEntity
  8
0
100
AcDbLine
 10
1.967106724029157
 20
-11.90258500691051
 30
0.0
 11
1.953912303229152
 21
-11.89975155411053
 31
0.0
  0
LWPOLYLINE
  5
1BF
330
2
100
AcDbEntity
  8
0
100
AcDbPolyline
 90
       10
 70
     0
 43
0.0
 10
7.790003090429138
 20
-13.49577861331052
 10
7.79246238642915
 20
-13.49631476691052
 10
7.802520144829145
 20
-13.49903635411052
 10
7.814155687229145
 20
-13.50295911731051
 10
7.826638629629144
 20
-13.50817497971052
 10
7.839424184829141
 20
-13.51469664851051
 10
7.852165556029149
 20
-13.52249684371053
 10
7.864564404029152
 20
-13.53151242291053
 10
7.876324756029163
 20
-13.54162766771053
 10
7.880666136829148
 20
-13.54582651251052
  0
LINE
  5
1C0
330
2
100
AcDbEntity
  8
0
100
AcDbLine
 10
1.920155752829153
 20
-11.89465478291051
 30
0.0
 11
1.93309005042915
 21
-11.89747758291053
 31
0.0
  0
LINE
  5
1C1
330
2
100
AcDbEntity
  8
0
100
AcDbLine
 10
1.953912303229152
 20
-11.89975155411053
 30
0.0
 11
1.940496607229142
 21
-11.8967796069105
 31
0.0
  0
LINE
  5
1C2
330
2
100
AcDbEntity
  8
0
100
AcDbLine
 10
1.907059018429158
 20
-11.89171044851053
 30
0.0
 11
1.920155752829153
 21
-11.89465478291051
 31
0.0
  0
LINE
  5
1C3
330
2
100
AcDbEntity
  8
0
100
AcDbLine
 10
5.703249128829163
 20
-13.56479148211052
 30
0.0
 11
5.622860188029143
 21
-13.54646634771051
 31
0.0
  0
LINE
  5
1C4
330
2
100
AcDbEntity
  8
0
100
AcDbLine
 10
1.940496607229142
 20
-11.8967796069105
 30
0.0
 11
1.931409690429156
 21
-11.8947144325105
 31
0.0
  0
LINE
  5
1C5
330
2
100
AcDbEntity
  8
0
100
AcDbLine
 10
1.931409690429156
 20
-11.8947144325105
 30
0.0
 11
1.922194213629161
 21
-11.89257695091051
 31
0.0
  0
LINE
  5
1C6
330
2
100
AcDbEntity
  8
0
100
AcDbLine
 10
1.893795095229144
 20
-11.88863981171052
 30
0.0
 11
1.907059018429158
 21
-11.89171044851053
 31
0.0
  0
LINE
  5
1C7
330
2
100
AcDbEntity
  8
0
100
AcDbLine
 10
1.922194213629161
 20
-11.89257695091051
 30
0.0
 11
1.912838178429161
 21
-11.89036241971052
 31
0.0
  0
LINE
  5
1C8
330
2
100
AcDbEntity
  8
0
100
AcDbLine
 10
1.880359536829168
 20
-11.88543795731052
 30
0.0
 11
1.893795095229144
 21
-11.88863981171052
 31
0.0
  0
LINE
  5
1C9
330
2
100
AcDbEntity
  8
0
100
AcDbLine
 10
1.912838178429161
 20
-11.89036241971052
 30
0.0
 11
1.903329647229163
 21
-11.88806583571052
 31
0.0
  0
LINE
  5
1CA
330
2
100
AcDbEntity
  8
0
100
AcDbLine
 10
1.871305088829167
 20
-11.88322800051053
 30
0.0
 11
1.880359536829168
 21
-11.88543795731052
 31
0.0
  0
LINE
  5
1CB
330
2
100
AcDbEntity
  8
0
100
AcDbLine
 10
1.903329647229163
 20
-11.88806583571052
 30
0.0
 11
1.893656744829151
 21
-11.88568193491053
 31
0.0
  0
LINE
  5
1CC
330
2
100
AcDbEntity
  8
0
100
AcDbLine
 10
1.862171362429144
 20
-11.88095594931052
 30
0.0
 11
1.871305088829167
 21
-11.88322800051053
 31
0.0
  0
LINE
  5
1CD
330
2
100
AcDbEntity
  8
0
100
AcDbLine
 10
1.893656744829151
 20
-11.88568193491053
 30
0.0
 11
1.88380766322917
 21
-11.88320517491052
 31
0.0
  0
LINE
  5
1CE
330
2
100
AcDbEntity
  8
0
100
AcDbLine
 10
1.852956426429166
 20
-11.87862002931051
 30
0.0
 11
1.862171362429144
 21
-11.88095594931052
 31
0.0
  0
LINE
  5
1CF
330
2
100
AcDbEntity
  8
0
100
AcDbLine
 10
1.88380766322917
 20
-11.88320517491052
 30
0.0
 11
1.873770668029159
 21
-11.8806297269105
 31
0.0
  0
LINE
  5
1D0
330
2
100
AcDbEntity
  8
0
100
AcDbLine
 10
1.843646858429146
 20
-11.87621541011051
 30
0.0
 11
1.852956426429166
 21
-11.87862002931051
 31
0.0
  0
LINE
  5
1D1
330
2
100
AcDbEntity
  8
0
100
AcDbLine
 10
1.873770668029159
 20
-11.8806297269105
 30
0.0
 11
1.863532336829145
 21
-11.87794899891053
 31
0.0
  0
LINE
  5
1D2
330
2
100
AcDbEntity
  8
0
100
AcDbLine
 10
1.834221308029164
 20
-11.87373486931053
 30
0.0
 11
1.843646858429146
 21
-11.87621541011051
 31
0.0
  0
LINE
  5
1D3
330
2
100
AcDbEntity
  8
0
100
AcDbLine
 10
1.863532336829145
 20
-11.87794899891053
 30
0.0
 11
1.853064546429159
 21
-11.87515205971052
 31
0.0
  0
LINE
  5
1D4
330
2
100
AcDbEntity
  8
0
100
AcDbLine
 10
1.82465843442916
 20
-11.87117073011051
 30
0.0
 11
1.834221308029164
 21
-11.87373486931053
 31
0.0
  0
LINE
  5
1D5
330
2
100
AcDbEntity
  8
0
100
AcDbLine
 10
1.853064546429159
 20
-11.87515205971052
 30
0.0
 11
1.84233197522915
 21
-11.87222527731051
 31
0.0
  0
LINE
  5
1D6
330
2
100
AcDbEntity
  8
0
100
AcDbLine
 10
1.814937044029143
 20
-11.86851488211052
 30
0.0
 11
1.82465843442916
 21
-11.87117073011051
 31
0.0
  0
LINE
  5
1D7
330
2
100
AcDbEntity
  8
0
100
AcDbLine
 10
1.805036100029163
 20
-11.86575876211053
 30
0.0
 11
1.814937044029143
 21
-11.86851488211052
 31
0.0
  0
LINE
  5
1D8
330
2
100
AcDbEntity
  8
0
100
AcDbLine
 10
1.84233197522915
 20
-11.87222527731051
 30
0.0
 11
1.831299482429166
 21
-11.86915414611052
 31
0.0
  0
LINE
  5
1D9
330
2
100
AcDbEntity
  8
0
100
AcDbLine
 10
1.794936063229165
 20
-11.86289372051052
 30
0.0
 11
1.805036100029163
 21
-11.86575876211053
 31
0.0
  0
LINE
  5
1DA
330
2
100
AcDbEntity
  8
0
100
AcDbLine
 10
1.831299482429166
 20
-11.86915414611052
 30
0.0
 11
1.819939775229165
 21
-11.86592542611051
 31
0.0
  0
LINE
  5
1DB
330
2
100
AcDbEntity
  8
0
100
AcDbLine
 10
1.784632992829166
 20
-11.85991514451051
 30
0.0
 11
1.794936063229165
 21
-11.86289372051052
 31
0.0
  0
LINE
  5
1DC
330
2
100
AcDbEntity
  8
0
100
AcDbLine
 10
1.819939775229165
 20
-11.86592542611051
 30
0.0
 11
1.808265303229156
 21
-11.86253667571053
 31
0.0
  0
LINE
  5
1DD
330
2
100
AcDbEntity
  8
0
100
AcDbLine
 10
1.774132999229159
 20
-11.85682121971051
 30
0.0
 11
1.784632992829166
 21
-11.85991514451051
 31
0.0
  0
LINE
  5
1DE
330
2
100
AcDbEntity
  8
0
100
AcDbLine
 10
1.808265303229156
 20
-11.86253667571053
 30
0.0
 11
1.796301349629153
 21
-11.85898937651051
 31
0.0
  0
LINE
  5
1DF
330
2
100
AcDbEntity
  8
0
100
AcDbLine
 10
1.763442380029154
 20
-11.85361022611052
 30
0.0
 11
1.774132999229159
 21
-11.85682121971051
 31
0.0
  0
LINE
  5
1E0
330
2
100
AcDbEntity
  8
0
100
AcDbLine
 10
1.796301349629153
 20
-11.85898937651051
 30
0.0
 11
1.784073144829143
 21
-11.85528542931052
 31
0.0
  0
LINE
  5
1E1
330
2
100
AcDbEntity
  8
0
100
AcDbLine
 10
1.752567464829162
 20
-11.85028048851051
 30
0.0
 11
1.763442380029154
 21
-11.85361022611052
 31
0.0
  0
LINE
  5
1E2
330
2
100
AcDbEntity
  8
0
100
AcDbLine
 10
1.784073144829143
 20
-11.85528542931052
 30
0.0
 11
1.77160584242916
 21
-11.85142717651052
 31
0.0
  0
LINE
  5
1E3
330
2
100
AcDbEntity
  8
0
100
AcDbLine
 10
1.74151460722917
 20
-11.84683039251051
 30
0.0
 11
1.752567464829162
 21
-11.85028048851051
 31
0.0
  0
LINE
  5
1E4
330
2
100
AcDbEntity
  8
0
100
AcDbLine
 10
1.77160584242916
 20
-11.85142717651052
 30
0.0
 11
1.758924500029145
 21
-11.84741742931051
 31
0.0
  0
LINE
  5
1E5
330
2
100
AcDbEntity
  8
0
100
AcDbLine
 10
1.730290186429165
 20
-11.84325837971052
 30
0.0
 11
1.74151460722917
 21
-11.84683039251051
 31
0.0
  0
LINE
  5
1E6
330
2
100
AcDbEntity
  8
0
100
AcDbLine
 10
1.758924500029145
 20
-11.84741742931051
 30
0.0
 11
1.746054002429168
 21
-11.84325947091053
 31
0.0
  0
LINE
  5
1E7
330
2
100
AcDbEntity
  8
0
100
AcDbLine
 10
1.718900605629166
 20
-11.83956296051052
 30
0.0
 11
1.730290186429165
 21
-11.84325837971052
 31
0.0
  0
LINE
  5
1E8
330
2
100
AcDbEntity
  8
0
100
AcDbLine
 10
1.709899213629149
 20
-11.83659162131052
 30
0.0
 11
1.718900605629166
 21
-11.83956296051052
 31
0.0
  0
LWPOLYLINE
  5
1E9
330
2
100
AcDbEntity
  8
0
100
AcDbPolyline
 90
        3
 70
     0
 43
0.0
 10
1.746054002429161
 20
-11.84325947091053
 10
1.733007314429158
 20
-11.83895316211052
 10
1.72641421042914
 20
-11.83674178611052
  0
LINE
  5
1EA
330
2
100
AcDbEntity
  8
0
100
AcDbLine
 10
1.726414210429147
 20
-11.83674178611052
 30
0.0
 11
1.711603261629143
 21
-11.83168529171052
 31
0.0
  0
LINE
  5
1EB
330
2
100
AcDbEntity
  8
0
100
AcDbLine
 10
1.711603261629143
 20
-11.83168529171052
 30
0.0
 11
1.699531236029152
 21
-11.8274785301105
 31
0.0
  0
LINE
  5
1EC
330
2
100
AcDbEntity
  8
0
100
AcDbLine
 10
1.699531236029152
 20
-11.8274785301105
 30
0.0
 11
1.685756477629162
 21
-11.8225773717105
 31
0.0
  0
LINE
  5
1ED
330
2
100
AcDbEntity
  8
0
100
AcDbLine
 10
1.685756477629162
 20
-11.8225773717105
 30
0.0
 11
1.67173779922917
 21
-11.8174807941105
 31
0.0
  0
LINE
  5
1EE
330
2
100
AcDbEntity
  8
0
100
AcDbLine
 10
1.67173779922917
 20
-11.8174807941105
 30
0.0
 11
1.65745899602917
 21
-11.81217638611052
 31
0.0
  0
LINE
  5
1EF
330
2
100
AcDbEntity
  8
0
100
AcDbLine
 10
1.65745899602917
 20
-11.81217638611052
 30
0.0
 11
1.642904892029157
 21
-11.80665143411049
 31
0.0
  0
LINE
  5
1F0
330
2
100
AcDbEntity
  8
0
100
AcDbLine
 10
1.642904892029157
 20
-11.80665143411049
 30
0.0
 11
1.628060636029154
 21
-11.80089261491053
 31
0.0
  0
LINE
  5
1F1
330
2
100
AcDbEntity
  8
0
100
AcDbLine
 10
1.628060636029154
 20
-11.80089261491053
 30
0.0
 11
1.612915432829147
 21
-11.79488745651052
 31
0.0
  0
LINE
  5
1F2
330
2
100
AcDbEntity
  8
0
100
AcDbLine
 10
1.612915432829147
 20
-11.79488745651052
 30
0.0
 11
1.59746302322916
 21
-11.7886246613105
 31
0.0
  0
LINE
  5
1F3
330
2
100
AcDbEntity
  8
0
100
AcDbLine
 10
1.59746302322916
 20
-11.7886246613105
 30
0.0
 11
1.581697559229162
 21
-11.78209255411052
 31
0.0
  0
LINE
  5
1F4
330
2
100
AcDbEntity
  8
0
100
AcDbLine
 10
1.581697559229162
 20
-11.78209255411052
 30
0.0
 11
1.565613408829143
 21
-11.77527896851051
 31
0.0
  0
LWPOLYLINE
  5
1F5
330
2
100
AcDbEntity
  8
0
100
AcDbPolyline
 90
       81
 70
     0
 43
0.0
 10
1.565613408829136
 20
-11.77527896851051
 10
1.549205256829139
 20
-11.76817126771052
 10
1.54087871282914
 20
-11.76450331091052
 10
1.532470648829161
 20
-11.76075746291052
 10
1.523981239229158
 20
-11.75693235891051
 10
1.515410684029149
 20
-11.7530266229105
 10
1.506759207229151
 20
-11.7490388549105
 10
1.498027068029159
 20
-11.7449676485105
 10
1.489214557629139
 20
-11.74081157811053
 10
1.480321997629147
 20
-11.73656921011052
 10
1.471349751229155
 20
-11.7322390949105
 10
1.46229821682914
 20
-11.72781977491052
 10
1.453167837629138
 20
-11.72330977971051
 10
1.44395909522916
 20
-11.71870763411052
 10
1.434672514429138
 20
-11.71401184851051
 10
1.425308668029146
 20
-11.70922092851051
 10
1.415868237629155
 20
-11.70433340851052
 10
1.406352624829139
 20
-11.6993481701105
 10
1.396763647229136
 20
-11.6942643061105
 10
1.387103165629156
 20
-11.68908093011051
 10
1.377373084029159
 20
-11.68379717811051
 10
1.367575343229162
 20
-11.67841220371052
 10
1.35771191922916
 20
-11.67292518931051
 10
1.347784824829147
 20
-11.66733533171051
 10
1.337796104829152
 20
-11.66164185331052
 10
1.327747836029146
 20
-11.6558439989105
 10
1.317642124029163
 20
-11.64994103411052
 10
1.30748109842915
 20
-11.64393224691053
 10
1.297266916029144
 20
-11.63781694771051
 10
1.287001716029152
 20
-11.63159444371052
 10
1.276687300029152
 20
-11.6252638421105
 10
1.266325375229143
 20
-11.6188241893105
 10
1.255917680829156
 20
-11.6122745413105
 10
1.245465973629137
 20
-11.6056139653105
 10
1.234972031229148
 20
-11.59884153651051
 10
1.224437652029138
 20
-11.59195633491051
 10
1.213864647229144
 20
-11.58495744851051
 10
1.203254853629147
 20
-11.5778439765105
 10
1.192610124029158
 20
-11.5706150229105
 10
1.181932328829162
 20
-11.56326970131052
 10
1.171223356029145
 20
-11.55580713491053
 10
1.16048511602915
 20
-11.54822645491051
 10
1.149719535229138
 20
-11.54052680211051
 10
1.138928559229157
 20
-11.53270733011051
 10
1.128114154429141
 20
-11.52476719891051
 10
1.117278308029142
 20
-11.51670558291052
 10
1.106423023229154
 20
-11.5085216677105
 10
1.095550328829148
 20
-11.50021465011052
 10
1.084662272829149
 20
-11.4917837397105
 10
1.073760924029159
 20
-11.48322816371051
 10
1.062848375229151
 20
-11.47454715891051
 10
1.051926743229159
 20
-11.46573998131051
 10
1.040997794429159
 20
-11.45680561491053
 10
1.03006220882915
 20
-11.4477422421105
 10
1.01912101842916
 20
-11.43854835731053
 10
1.00817534162914
 20
-11.42922248211052
 10
0.9972263624291599
 20
-11.4197631461105
 10
0.9862753256291512
 20
-11.41016889491051
 10
0.9753235416291374
 20
-11.4004382837105
 10
0.9643723976291482
 20
-11.39056989171052
 10
0.9534233496291619
 20
-11.38056231571049
 10
0.9424779288291631
 20
-11.37041418451053
 10
0.9315377544291436
 20
-11.36012415571052
 10
0.9206045240291587
 20
-11.3496909285105
 10
0.9096800248291572
 20
-11.33911324371052
 10
0.898766141629153
 20
-11.3283898901105
 10
0.8878648552291394
 20
-11.31751971891051
 10
0.876978250429147
 20
-11.30650164531049
 10
0.8661085224291582
 20
-11.29533466131049
 10
0.8552579848291372
 20
-11.28401784851052
 10
0.8444290728291434
 20
-11.2725503813105
 10
0.8336243544291619
 20
-11.26093155411052
 10
0.8228443096291471
 20
-11.24915833171052
 10
0.8120890984291406
 20
-11.2372271461105
 10
0.8013615064291457
 20
-11.22513719731051
 10
0.7906645928291596
 20
-11.21288795731052
 10
0.7800016920291455
 20
-11.20047919571052
 10
0.7693764392291485
 20
-11.18791102451051
 10
0.7587927800291539
 20
-11.17518393171052
 10
0.7482549800291452
 20
-11.1622988245105
 10
0.7377676504291629
 20
-11.14925708371051
  0
LWPOLYLINE
  5
1F6
330
2
100
AcDbEntity
  8
0
100
AcDbPolyline
 90
       17
 70
     0
 43
0.0
 10
0.4024404248291376
 20
-10.69065176371051
 10
0.400682456829145
 20
-10.68550294771051
 10
0.4006907432291485
 20
-10.68555703891052
 10
0.40295914642914
 20
-10.69290993011051
 10
0.4074576088291622
 20
-10.70813551411051
 10
0.4141954712291636
 20
-10.73190997491052
 10
0.4232214344291379
 20
-10.76502064851052
 10
0.4346068088291588
 20
-10.8083047413105
 10
0.4483695176291463
 20
-10.86233233011051
 10
0.4643857208291422
 20
-10.9270104469105
 10
0.4825216136291602
 20
-11.00214483411053
 10
0.5026996728291522
 20
-11.0876885477105
 10
0.5248216536291466
 20
-11.18341672371052
 10
0.5488540632291575
 20
-11.2892986645105
 10
0.5749249432291493
 20
-11.4059391653105
 10
0.6031696328291503
 20
-11.53381857651051
 10
0.6337807896291566
 20
-11.6734809029105
  0
LWPOLYLINE
  5
1F7
330
2
100
AcDbEntity
  8
0
100
AcDbPolyline
 90
       33
 70
     0
 43
0.0
 10
0.4601353704291569
 20
-10.66620709491052
 10
0.4598945496291549
 20
-10.66548227411052
 10
0.4600604552291543
 20
-10.6659962933105
 10
0.4606808920291599
 20
-10.66795401811051
 10
0.4617647032291359
 20
-10.67144644211051
 10
0.4633205720291472
 20
-10.67656610291052
 10
0.4653542168291552
 20
-10.68339713011049
 10
0.4678652168291535
 20
-10.69200287091052
 10
0.4708488456291491
 20
-10.7024297925105
 10
0.4742969016291454
 20
-10.71470864371053
 10
0.4781983272291371
 20
-10.7288552133105
 10
0.4825397048291507
 20
-10.74487097491051
 10
0.4873056072291604
 20
-10.76274349971051
 10
0.4924813800291475
 20
-10.7824564261105
 10
0.4980648488291593
 20
-10.80403525011052
 10
0.5040600232291581
 20
-10.82752574771051
 10
0.5104721832291546
 20
-10.85297561811051
 10
0.5172867912291395
 20
-10.88035304531052
 10
0.5245057400291558
 20
-10.9096943669105
 10
0.5321399320291392
 20
-10.94107219571051
 10
0.5401942840291554
 20
-10.97453404211051
 10
0.548669680829164
 20
-11.01010897971053
 10
0.5575666168291491
 20
-11.04782226131052
 10
0.5668849864291588
 20
-11.08769414131051
 10
0.5766238280291418
 20
-11.12973858131049
 10
0.5867809176291417
 20
-11.1739611365105
 10
0.5973587208291633
 20
-11.22038481491051
 10
0.6083634664291538
 20
-11.26904653651052
 10
0.6198023160291371
 20
-11.3199843333105
 10
0.6316847464291584
 20
-11.37323735571052
 10
0.6440136632291456
 20
-11.42880513011049
 10
0.656789628029145
 20
-11.4866688853105
 10
0.6700192488291635
 20
-11.54682817331052
  0
LWPOLYLINE
  5
1F9
330
2
100
AcDbEntity
  8
0
100
AcDbPolyline
 90
       11
 70
     0
 43
0.0
 10
0.6632287704291571
 20
-11.80843214771049
 10
0.6693264136291362
 20
-11.83502513491051
 10
0.6818486280291438
 20
-11.8836457509105
 10
0.6971008456291373
 20
-11.9357014725105
 10
0.7153195912291608
 20
-11.99054189971052
 10
0.7368603928291578
 20
-12.04789383091053
 10
0.7618829752291561
 20
-12.10711723091051
 10
0.7904894552291637
 20
-12.16758352531052
 10
0.8226133608291377
 20
-12.2284585205105
 10
0.8583741560291571
 20
-12.28941196371049
 10
0.8712255752291468
 20
-12.3091653045105
  0
LINE
  5
1FA
330
2
100
AcDbEntity
  8
0
100
AcDbLine
 10
0.6700192488291706
 20
-11.54682817331052
 30
0.0
 11
0.6979226280291542
 21
-11.67424050931051
 31
0.0
  0
LINE
  5
1FB
330
2
100
AcDbEntity
  8
0
100
AcDbLine
 10
0.6337807896291637
 20
-11.6734809029105
 30
0.0
 11
0.6631154264291652
 21
-11.8079184085105
 31
0.0
  0
LINE
  5
1FC
330
2
100
AcDbEntity
  8
0
100
AcDbLine
 10
0.6979226280291542
 20
-11.67424050931051
 30
0.0
 11
0.7241809048291615
 21
-11.79460774291052
 31
0.0
  0
LWPOLYLINE
  5
1FD
330
2
100
AcDbEntity
  8
0
100
AcDbPolyline
 90
       37
 70
     0
 43
0.0
 10
0.7904425896291514
 20
-12.0302154277105
 10
0.7925371656291418
 20
-12.04082873811051
 10
0.8079578984291515
 20
-12.1098889029105
 10
0.8278084200291573
 20
-12.18319367091051
 10
0.8520568936291397
 20
-12.25838245811052
 10
0.8803578264291616
 20
-12.3333590245105
 10
0.9112175576291576
 20
-12.4045057301105
 10
0.9431836136291451
 20
-12.46979676051051
 10
0.9748875832291616
 20
-12.52810186771051
 10
1.006379716029158
 20
-12.58096353011051
 10
1.044653703229158
 20
-12.6396895845105
 10
1.093937578429148
 20
-12.70797620051052
 10
1.155264284029158
 20
-12.78356688211049
 10
1.228439892029143
 20
-12.86286097331051
 10
1.31094752562916
 20
-12.94080895731053
 10
1.400263744829146
 20
-13.01392000051051
 10
1.494135796029155
 20
-13.08025255731052
 10
1.589093093629145
 20
-13.13795216531053
 10
1.683786016829145
 20
-13.1872509925105
 10
1.777181092029138
 20
-13.22872097171051
 10
1.866426327229163
 20
-13.26232108211052
 10
1.950476341629155
 20
-13.28905897331053
 10
2.028449188029156
 20
-13.30999381331053
 10
2.100581215229141
 20
-13.32634920531051
 10
2.168252082429148
 20
-13.33933165491051
 10
2.233711645629142
 20
-13.34998209171052
 10
2.298646250429158
 20
-13.35896260211051
 10
2.365383703229156
 20
-13.36682493811053
 10
2.436630439229162
 20
-13.37397321011052
 10
2.515007636029139
 20
-13.38066104211053
 10
2.603706807229144
 20
-13.38708293651051
 10
2.70490280082916
 20
-13.39330352211052
 10
2.820451354429138
 20
-13.39937611251053
 10
2.951781580029148
 20
-13.4053387061105
 10
3.099749647229145
 20
-13.41121023251053
 10
3.264885436029146
 20
-13.41701757491051
 10
3.441722941629137
 20
-13.42262296051051
  0
LWPOLYLINE
  5
1FE
330
2
100
AcDbEntity
  8
0
100
AcDbPolyline
 90
       20
 70
     0
 43
0.0
 10
-0.7582146487708599
 20
-9.867592040510508
 10
-0.7305277047708501
 20
-10.01707108691049
 10
-0.6887296359708444
 20
-10.17731113971051
 10
-0.6351336615708476
 20
-10.3336091093105
 10
-0.5706510935708593
 20
-10.48409331571053
 10
-0.4966856567708362
 20
-10.6267508629105
 10
-0.414870352770862
 20
-10.76013768851051
 10
-0.3273385463708394
 20
-10.8829027221105
 10
-0.2363827863708536
 20
-10.99402500691052
 10
-0.1442087447708502
 20
-11.09323539411052
 10
-0.0533119431708542
 20
-11.18028903091052
 10
0.0345697528291567
 20
-11.25578722931052
 10
0.1198801032291499
 20
-11.3219920821105
 10
0.2030229112291408
 20
-11.38058702771052
 10
0.2842909176291641
 20
-11.4327600245105
 10
0.3633259800291455
 20
-11.47906560211051
 10
0.4396648520291535
 20
-11.51996876531051
 10
0.5124224248291398
 20
-11.55573426611049
 10
0.5807549672291544
 20
-11.58667193971052
 10
0.6181915784291619
 20
-11.60235567571052
  0
LWPOLYLINE
  5
1FF
330
2
100
AcDbEntity
  8
0
100
AcDbPolyline
 90
       35
 70
     0
 43
0.0
 10
0.796294284029159
 20
-11.87421947891049
 10
0.7600807496291396
 20
-11.67289989331052
 10
0.7282268792291405
 20
-11.49444128851052
 10
0.6949936296291526
 20
-11.30674404371051
 10
0.6608111208291519
 20
-11.1119127701105
 10
0.6260980968291392
 20
-10.91202305331051
 10
0.5910832856291393
 20
-10.70809168531052
 10
0.5558486184291383
 20
-10.50028325331052
 10
0.5204652744291423
 20
-10.28867720211052
 10
0.4850073560291435
 20
-10.07334500371052
 10
0.4495596952291408
 20
-9.85439735891051
 10
0.4142183784291547
 20
-9.631990382910508
 10
0.3790159400291486
 20
-9.405844248510497
 10
0.343936885629148
 20
-9.175294046910515
 10
0.3089920456291395
 20
-8.939737776510519
 10
0.2741331304291634
 20
-8.698185059710503
 10
0.2392425112291505
 20
-8.449492774910531
 10
0.2042370056291531
 20
-8.192771715710527
 10
0.1690518072291525
 20
-7.927221330110505
 10
0.1336242120291615
 20
-7.652029355710503
 10
0.0979023672291533
 20
-7.366458706110499
 10
0.0618921432291586
 20
-7.070271242110514
 10
0.0256072312291451
 20
-6.76339574131051
 10
-0.0109564663708568
 20
-6.445747274110509
 10
-0.0478267447708447
 20
-6.117194317310513
 10
-0.0850666855708369
 20
-5.77747153651051
 10
-0.1227661831708531
 20
-5.426274678910509
 10
-0.1610420359708371
 20
-5.063292611710515
 10
-0.2000425383708375
 20
-4.688204379710519
 10
-0.2399277975708571
 20
-4.300843269310512
 10
-0.2807746407708578
 20
-3.901195253310497
 10
-0.3226993351708529
 20
-3.488294158910512
 10
-0.3658329143708556
 20
-3.06108702771052
 10
-0.4103170471708495
 20
-2.618511136510498
 10
-0.456305943170861
 20
-2.159502536510522
  0
LWPOLYLINE
  5
202
330
2
100
AcDbEntity
  8
0
100
AcDbPolyline
 90
        3
 70
     0
 43
0.0
 10
-0.456305943170861
 20
-2.159502536510522
 10
-0.553485066370854
 20
-1.188021394110528
 10
-0.5883582407708446
 20
-0.839877550910522
  0
LWPOLYLINE
  5
203
330
2
100
AcDbEntity
  8
0
100
AcDbPolyline
 90
       17
 70
     0
 43
0.0
 10
-0.9580921495708594
 20
-1.915059507710502
 10
-0.9531859559708379
 20
-1.905858069310504
 10
-0.9230868215708483
 20
-1.848769454910517
 10
-0.8940429959708637
 20
-1.792832830910519
 10
-0.8654519111708509
 20
-1.736697611710518
 10
-0.8359185959708383
 20
-1.677379234110524
 10
-0.8046938439708526
 20
-1.612955570110521
 10
-0.7711947447708383
 20
-1.54146007091051
 10
-0.7342589031708542
 20
-1.458870610110515
 10
-0.6939617639708616
 20
-1.362177498110519
 10
-0.6542600471708511
 20
-1.255542370110497
 10
-0.6251140631708552
 20
-1.163070614910502
 10
-0.6062955431708588
 20
-1.088715510910525
 10
-0.5948145671708574
 20
-1.028334459710514
 10
-0.5880152487708586
 20
-0.9738416117105188
 10
-0.5849980967708462
 20
-0.9124118869105117
 10
-0.5883391751708587
 20
-0.8400679861105047
  0
LINE
  5
204
330
2
100
AcDbEntity
  8
0
100
AcDbLine
 10
17.35584885842914
 20
-11.92587295251052
 30
0.0
 11
17.34599139282915
 21
-11.92726789651052
 31
0.0
  0
LINE
  5
205
330
2
100
AcDbEntity
  8
0
100
AcDbLine
 10
17.36274261362914
 20
-11.92527978611052
 30
0.0
 11
17.37339235922915
 21
-11.92378523411053
 31
0.0
  0
LINE
  5
206
330
2
100
AcDbEntity
  8
0
100
AcDbLine
 10
17.34599139282915
 20
-11.92726789651052
 30
0.0
 11
17.33671186642914
 21
-11.92853254291053
 31
0.0
  0
LINE
  5
207
330
2
100
AcDbEntity
  8
0
100
AcDbLine
 10
17.35240239602917
 20
-11.92667976051051
 30
0.0
 11
17.36274261362914
 21
-11.92527978611052
 31
0.0
  0
LINE
  5
208
330
2
100
AcDbEntity
  8
0
100
AcDbLine
 10
17.33671186642914
 20
-11.92853254291053
 30
0.0
 11
17.32808796082915
 21
-11.92966469651053
 31
0.0
  0
LINE
  5
209
330
2
100
AcDbEntity
  8
0
100
AcDbLine
 10
17.34243636242914
 20
-11.9279818613105
 30
0.0
 11
17.35240239602917
 21
-11.92667976051051
 31
0.0
  0
LINE
  5
20A
330
2
100
AcDbEntity
  8
0
100
AcDbLine
 10
17.32808796082915
 20
-11.92966469651053
 30
0.0
 11
17.32020706482916
 21
-11.9306618869105
 31
0.0
  0
LINE
  5
20B
330
2
100
AcDbEntity
  8
0
100
AcDbLine
 10
17.32994278962915
 20
-11.92954973171051
 30
0.0
 11
17.34243636242914
 21
-11.9279818613105
 31
0.0
  0
LINE
  5
20C
330
2
100
AcDbEntity
  8
0
100
AcDbLine
 10
17.32020706482916
 20
-11.9306618869105
 30
0.0
 11
17.31114781202917
 21
-11.93176193811051
 31
0.0
  0
LINE
  5
20D
330
2
100
AcDbEntity
  8
0
100
AcDbLine
 10
17.31861876402914
 20
-11.93091054611053
 30
0.0
 11
17.32994278962915
 21
-11.92954973171051
 31
0.0
  0
LWPOLYLINE
  5
20E
330
2
100
AcDbEntity
  8
0
100
AcDbPolyline
 90
        4
 70
     0
 43
0.0
 10
17.31861876402914
 20
-11.93091054611053
 10
17.30469130162916
 20
-11.93251254611052
 10
17.30497878322916
 20
-11.9324800357105
 10
17.30733168242915
 20
-11.93221379891053
  0
LINE
  5
20F
330
2
100
AcDbEntity
  8
0
100
AcDbLine
 10
2.134583858429159
 20
-11.93084206451052
 30
0.0
 11
2.14908239442915
 21
-11.93251141011051
 31
0.0
  0
LINE
  5
210
330
2
100
AcDbEntity
  8
0
100
AcDbLine
 10
2.144944524029149
 20
-11.93203385331053
 30
0.0
 11
2.136458984829154
 21
-11.93101739091053
 31
0.0
  0
LINE
  5
211
330
2
100
AcDbEntity
  8
0
100
AcDbLine
 10
2.123709109629153
 20
-11.92953355411051
 30
0.0
 11
2.134583858429159
 21
-11.93084206451052
 31
0.0
  0
LINE
  5
212
330
2
100
AcDbEntity
  8
0
100
AcDbLine
 10
2.136458984829154
 20
-11.93101739091053
 30
0.0
 11
2.128856450429147
 21
-11.9300689877105
 31
0.0
  0
LINE
  5
213
330
2
100
AcDbEntity
  8
0
100
AcDbLine
 10
2.111680413629166
 20
-11.92802458131051
 30
0.0
 11
2.123709109629153
 21
-11.92953355411051
 31
0.0
  0
LINE
  5
214
330
2
100
AcDbEntity
  8
0
100
AcDbLine
 10
2.128856450429147
 20
-11.9300689877105
 30
0.0
 11
2.120450634429154
 21
-11.9289811237105
 31
0.0
  0
LINE
  5
215
330
2
100
AcDbEntity
  8
0
100
AcDbLine
 10
2.101936237629168
 20
-11.9267534741105
 30
0.0
 11
2.111680413629166
 21
-11.92802458131051
 31
0.0
  0
LINE
  5
216
330
2
100
AcDbEntity
  8
0
100
AcDbLine
 10
2.120450634429154
 20
-11.9289811237105
 30
0.0
 11
2.11133478002916
 21
-11.92775627731051
 31
0.0
  0
LINE
  5
217
330
2
100
AcDbEntity
  8
0
100
AcDbLine
 10
2.091674204029153
 20
-11.92536694291052
 30
0.0
 11
2.101936237629168
 21
-11.9267534741105
 31
0.0
  0
LWPOLYLINE
  5
218
330
2
100
AcDbEntity
  8
0
100
AcDbPolyline
 90
        3
 70
     0
 43
0.0
 10
2.111334780029153
 20
-11.92775627731051
 10
2.101585117629156
 20
-11.92639562771051
 10
2.098209236029163
 20
-11.92591248531052
  0
LWPOLYLINE
  5
219
330
2
100
AcDbEntity
  8
0
100
AcDbPolyline
 90
        3
 70
     0
 43
0.0
 10
2.077334612029147
 20
-11.92334632691051
 10
2.080982250429144
 20
-11.92386956371051
 10
2.091674204029146
 20
-11.92536694291052
  0
LINE
  5
21A
330
2
100
AcDbEntity
  8
0
100
AcDbLine
 10
8.234474391229163
 20
-13.89963476851053
 30
0.0
 11
7.880666111229153
 21
-13.54582649011052
 31
0.0
  0
LINE
  5
21C
330
2
100
AcDbEntity
  8
0
100
AcDbLine
 10
5.529137832829157
 20
-13.52518432851052
 30
0.0
 11
5.541854668029152
 21
-13.54476468851051
 31
0.0
  0
LINE
  5
21D
330
2
100
AcDbEntity
  8
0
100
AcDbLine
 10
3.830281557629156
 20
-13.43356679251052
 30
0.0
 11
3.866021634429166
 21
-13.51804928051051
 31
0.0
  0
LWPOLYLINE
  5
21F
330
2
100
AcDbEntity
  8
0
100
AcDbPolyline
 90
       18
 70
     0
 43
0.0
 10
-0.5883582407708446
 20
-0.839877550910522
 10
-0.599581034370857
 20
-0.7675996709105207
 10
-0.6147882519708503
 20
-0.7080906021105236
 10
-0.6310202551708528
 20
-0.6596742885105229
 10
-0.647768763970845
 20
-0.6176435909105109
 10
-0.6656349319708568
 20
-0.5780929509105235
 10
-0.6848623719708371
 20
-0.5395696421105001
 10
-0.7061253063708364
 20
-0.500407238910519
 10
-0.7307520871708562
 20
-0.4583682085105281
 10
-0.759830989570844
 20
-0.4121931749105201
 10
-0.7945838743708578
 20
-0.3607655109105039
 10
-0.837614487170839
 20
-0.3014291349104994
 10
-0.8910614967708454
 20
-0.2328338469105162
 10
-0.9553849079708527
 20
-0.1559206005105054
 10
-1.022216074370845
 20
-0.0807501333105094
 10
-1.077527938370849
 20
-0.0210123285105155
 10
-1.122910349570844
 20
0.0270198298894755
 10
-1.161586901570842
 20
0.0677427834894857
  0
LWPOLYLINE
  5
220
330
2
100
AcDbEntity
  8
0
100
AcDbPolyline
 90
        6
 70
     0
 43
0.0
 10
-1.928320738370842
 20
1.265711756289483
 10
-2.009770064770862
 20
1.226901549889483
 10
-2.089084519170853
 20
1.19355626508949
 10
-2.162194245570844
 20
1.15933860588948
 10
-2.22863384237084
 20
1.11955835468948
 10
-2.291454083970847
 20
1.068801873089491
  0
LINE
  5
221
330
2
100
AcDbEntity
  8
0
100
AcDbLine
 10
11.47288672242914
 20
-13.64605739411052
 30
0.0
 11
11.52328619282915
 21
-13.67397541651052
 31
0.0
  0
LINE
  5
222
330
2
100
AcDbEntity
  8
0
100
AcDbLine
 10
11.58545119282914
 20
-13.72650584051052
 30
0.0
 11
11.47148897682917
 21
-13.64745513971052
 31
0.0
  0
LWPOLYLINE
  5
223
330
2
100
AcDbEntity
  8
0
100
AcDbPolyline
 90
        3
 70
     0
 43
0.0
 10
11.52328619282914
 20
-13.67397541651052
 10
11.57723333042915
 20
-13.7181382677105
 10
11.62370070802916
 20
-13.77390269011052
  0
LINE
  5
225
330
2
100
AcDbEntity
  8
0
100
AcDbLine
 10
3.092644711229162
 20
-13.5040293445105
 30
0.0
 11
3.091720935229155
 21
-13.53526556211053
 31
0.0
  0
LWPOLYLINE
  5
226
330
2
100
AcDbEntity
  8
0
100
AcDbPolyline
 90
       21
 70
     0
 43
0.0
 10
-1.670238555970854
 20
0.8696523450894986
 10
-1.594408618370863
 20
0.895260495489488
 10
-1.505179863170837
 20
0.9188178250894978
 10
-1.404690509570855
 20
0.940366951489473
 10
-1.294828535170836
 20
0.9599630042894844
 10
-1.177610488770852
 20
0.9776504090894846
 10
-1.054519872770839
 20
0.9936200794894958
 10
-0.9237063495708639
 20
1.008417447489485
 10
-0.78607563277086
 20
1.022021196289479
 10
-0.6423725943708405
 20
1.034570351489499
 10
-0.492280483970859
 20
1.046420868289494
 10
-0.3341698647708426
 20
1.057972508289488
 10
-0.1646690167708584
 20
1.069557727489502
 10
0.0172040664291444
 20
1.080911642689478
 10
0.2121944392291368
 20
1.091794025089491
 10
0.4216660536291386
 20
1.102062612289479
 10
0.6476412440291597
 20
1.111545108289483
 10
0.8925628120291548
 20
1.119996412289488
 10
1.158005250429141
 20
1.12720602028947
 10
1.44583656242915
 20
1.133111997889479
 10
1.757899706429157
 20
1.137702849089471
  0
LWPOLYLINE
  5
227
330
2
100
AcDbEntity
  8
0
100
AcDbPolyline
 90
        4
 70
     0
 43
0.0
 10
-2.005026061570845
 20
-3.697192778110512
 10
-1.748202267970839
 20
-3.821942656510508
 10
-1.461198483970861
 20
-3.95340630611053
 10
-1.37524522797085
 20
-3.990741952510511
  0
LINE
  5
228
330
2
100
AcDbEntity
  8
0
100
AcDbLine
 10
-2.00503145997083
 20
-3.6971916005105
 30
0.0
 11
-2.012454875970853
 21
-3.693411437310508
 31
0.0
  0
LWPOLYLINE
  5
229
330
2
100
AcDbEntity
  8
0
100
AcDbPolyline
 90
        3
 70
     0
 43
0.0
 10
-1.355122123970858
 20
0.4520103178894957
 10
-1.324458149570858
 20
0.4190465738894958
 10
-1.318595693570841
 20
0.4122323610894867
  0
LWPOLYLINE
  5
22A
330
2
100
AcDbEntity
  8
0
100
AcDbPolyline
 90
       16
 70
     0
 43
0.0
 10
-1.427391946370846
 20
0.53423485708948
 10
-1.426267269570843
 20
0.5328546906894829
 10
-1.423669987970839
 20
0.5295280874895028
 10
-1.419777431170842
 20
0.5242721866894798
 10
-1.414799522370856
 20
0.5171247834894715
 10
-1.409040483970841
 20
0.5082619274894924
 10
-1.402867560770857
 20
0.4980179050894904
 10
-1.396394461570849
 20
0.4863736122894764
 10
-1.389652869570852
 20
0.4731367978894881
 10
-1.382642120770839
 20
0.4579729674894751
 10
-1.375483181570842
 20
0.4407255418894991
 10
-1.368331111170846
 20
0.4212861210894872
 10
-1.361293019970844
 20
0.3993711594894833
 10
-1.354459768770851
 20
0.3745169898894929
 10
-1.347928440770857
 20
0.3459949914894835
 10
-1.343675979970839
 20
0.3236761946894902
  0
LWPOLYLINE
  5
22B
330
2
100
AcDbEntity
  8
0
100
AcDbPolyline
 90
        7
 70
     0
 43
0.0
 10
-1.318595693570841
 20
0.4122323610894867
 10
-1.283602090370862
 20
0.3674320218894778
 10
-1.24805079757084
 20
0.3126430874894837
 10
-1.217698931970858
 20
0.2544949386894828
 10
-1.19295412557085
 20
0.1936567066894739
 10
-1.174206623170846
 20
0.1310940602894917
 10
-1.161588095170856
 20
0.0677425194894923
  0
LINE
  5
22D
330
2
100
AcDbEntity
  8
0
100
AcDbLine
 10
5.531321725629148
 20
-13.47131865651052
 30
0.0
 11
5.531801023229157
 21
-13.48789172211052
 31
0.0
  0
LWPOLYLINE
  5
230
330
2
100
AcDbEntity
  8
0
100
AcDbPolyline
 90
        3
 70
     0
 43
0.0
 10
-1.399619440770862
 20
0.492174945089495
 10
-1.370232416770846
 20
0.4667896634894717
 10
-1.355122123970858
 20
0.4520103178894957
  0
LINE
  5
232
330
2
100
AcDbEntity
  8
0
100
AcDbLine
 10
11.66029953682915
 20
-13.8417353621105
 30
0.0
 11
11.58545119282914
 21
-13.72650584051052
 31
0.0
  0
LINE
  5
233
330
2
100
AcDbEntity
  8
0
100
AcDbLine
 10
5.945135072829152
 20
-13.56759954291052
 30
0.0
 11
5.938185976829153
 21
-13.52818926451052
 31
0.0
  0
LINE
  5
234
330
2
100
AcDbEntity
  8
0
100
AcDbLine
 10
5.531801023229157
 20
-13.48789172211052
 30
0.0
 11
5.529137832829157
 21
-13.52518432851052
 31
0.0
  0
LWPOLYLINE
  5
235
330
2
100
AcDbEntity
  8
0
100
AcDbPolyline
 90
        3
 70
     0
 43
0.0
 10
-1.473493024770846
 20
0.547846281089484
 10
-1.420002487170847
 20
0.5097823546894987
 10
-1.399619440770862
 20
0.492174945089495
  0
LINE
  5
236
330
2
100
AcDbEntity
  8
0
100
AcDbLine
 10
11.62370070802916
 20
-13.77390269011052
 30
0.0
 11
11.66029953682915
 21
-13.8417353621105
 31
0.0
  0
LWPOLYLINE
  5
237
330
2
100
AcDbEntity
  8
0
100
AcDbPolyline
 90
       21
 70
     0
 43
0.0
 10
8.414391869629156
 20
3.062348535489469
 10
8.415153580029141
 20
3.106635076289485
 10
8.422939648829157
 20
3.210454129089477
 10
8.439200442429154
 20
3.313872412289477
 10
8.464055688829148
 20
3.416516753089474
 10
8.49743350002916
 20
3.517342001089481
 10
8.539168685629135
 20
3.615484362689478
 10
8.588935479229149
 20
3.710019999489482
 10
8.646316568829149
 20
3.800143903489477
 10
8.710959416829155
 20
3.885317977089478
 10
8.782403922429153
 20
3.964942121089485
 10
8.860241186429163
 20
4.038554172289487
 10
8.943780362429151
 20
4.10551484428948
 10
9.032692274429138
 20
4.165561101889473
 10
9.126388264829159
 20
4.218253631489467
 10
9.224150002429155
 20
4.263165895489471
 10
9.324389421629149
 20
4.299692415489467
 10
9.425976264829159
 20
4.327716906689495
 10
9.527581565629162
 20
4.347279069889488
 10
9.628273050429157
 20
4.358687380289474
 10
9.726891869629156
 20
4.362364621889476
  0
LINE
  5
238
330
2
100
AcDbEntity
  8
0
100
AcDbLine
 10
10.85929736402915
 20
2.405299652289478
 30
0.0
 11
10.79898068082915
 21
2.312633193089489
 31
0.0
  0
LWPOLYLINE
  5
239
330
2
100
AcDbEntity
  8
0
100
AcDbPolyline
 90
        9
 70
     0
 43
0.0
 10
10.79898421682915
 20
2.321336097089478
 10
10.85734253522915
 20
2.410705425089481
 10
10.90819528562914
 20
2.504661241089486
 10
10.95106865202913
 20
2.602350205889486
 10
10.98557165522913
 20
2.702696517889485
 10
11.01158474962915
 20
2.804943985089472
 10
11.02902171762915
 20
2.908002108289487
 10
11.03801597682914
 20
3.011563401089468
 10
11.03919094642915
 20
3.062359647489479
  0
LINE
  5
23A
330
2
100
AcDbEntity
  8
0
100
AcDbLine
 10
10.73505744402914
 20
2.238919909889467
 30
0.0
 11
10.79898421682916
 21
2.321336097089478
 31
0.0
  0
LWPOLYLINE
  5
23B
330
2
100
AcDbEntity
  8
0
100
AcDbPolyline
 90
       13
 70
     0
 43
0.0
 10
10.79898068082914
 20
2.312633193089489
 10
10.73523899922915
 20
2.230437391489495
 10
10.66492910322915
 20
2.153377945089467
 10
10.58872187602915
 20
2.082207154689463
 10
10.50721963922916
 20
2.017427381889469
 10
10.42069285362916
 20
1.959229677889489
 10
10.32986459602915
 20
1.908095441089479
 10
10.23511038322914
 20
1.864234428289485
 10
10.13719063922914
 20
1.828003865089478
 10
10.03656829842916
 20
1.799578669889463
 10
9.934168376829148
 20
1.779207986689478
 10
9.830648912829161
 20
1.76697512108948
 10
9.726891869629156
 20
1.762910941889465
  0
LINE
  5
23D
330
2
100
AcDbEntity
  8
0
100
AcDbLine
 10
11.66569080242914
 20
-13.85555165331052
 30
0.0
 11
11.66029953682915
 21
-13.8417353621105
 31
0.0
  0
LINE
  5
23E
330
2
100
AcDbEntity
  8
0
100
AcDbLine
 10
8.424761260029164
 20
2.899310164289495
 30
0.0
 11
8.415765621629169
 21
3.002911713089481
 31
0.0
  0
LINE
  5
23F
330
2
100
AcDbEntity
  8
0
100
AcDbLine
 10
8.415765621629169
 20
3.002911713089481
 30
0.0
 11
8.414391869629163
 21
3.062348535489469
 31
0.0
  0
LWPOLYLINE
  5
240
330
2
100
AcDbEntity
  8
0
100
AcDbPolyline
 90
        9
 70
     0
 43
0.0
 10
8.414488848829137
 20
3.062349615489473
 10
8.414711223229147
 20
3.042389932289474
 10
8.421791319229157
 20
2.933245013889468
 10
8.438152202429137
 20
2.824877047489486
 10
8.463816324029153
 20
2.71775789068949
 10
8.498607242429159
 20
2.613008780289483
 10
8.542284036029144
 20
2.511468831489487
 10
8.594482023229147
 20
2.414004764289479
 10
8.654799520829158
 20
2.321336097089478
  0
LINE
  5
241
330
2
100
AcDbEntity
  8
0
100
AcDbLine
 10
7.824229306429153
 20
-13.55012836051053
 30
0.0
 11
7.818818669629145
 21
-13.58081360531053
 31
0.0
  0
LINE
  5
242
330
2
100
AcDbEntity
  8
0
100
AcDbLine
 10
11.62955443122914
 20
-13.55012836051053
 30
0.0
 11
11.63496502802914
 21
-13.58081337971051
 31
0.0
  0
LINE
  5
243
330
2
100
AcDbEntity
  8
0
100
AcDbLine
 10
11.03687690322914
 20
3.142782844289463
 30
0.0
 11
11.03939186962916
 21
3.062354999489464
 31
0.0
  0
LINE
  5
244
330
2
100
AcDbEntity
  8
0
100
AcDbLine
 10
11.03939186962916
 20
3.062354999489464
 30
0.0
 11
11.03906877362914
 21
3.033524604289489
 31
0.0
  0
LWPOLYLINE
  5
245
330
2
100
AcDbEntity
  8
0
100
AcDbPolyline
 90
        7
 70
     0
 43
0.0
 10
11.03906877362913
 20
3.033524604289489
 10
11.03197937202915
 20
2.924425999489479
 10
11.01561705042914
 20
2.816104821889474
 10
10.98995452242914
 20
2.709014845889477
 10
10.95517012562913
 20
2.604294210689495
 10
10.91149324082914
 20
2.502757633089466
 10
10.85929736402914
 20
2.405299652289478
  0
LWPOLYLINE
  5
248
330
2
100
AcDbEntity
  8
0
100
AcDbPolyline
 90
       10
 70
     0
 43
0.0
 10
16.36218545522913
 20
-13.53524065331051
 10
16.36220899442915
 20
-13.53528728051053
 10
16.36210938802915
 20
-13.53533700851053
 10
16.36188611922915
 20
-13.53538984851052
 10
16.36153866802914
 20
-13.53544580531052
 10
16.36106651122915
 20
-13.53550489011052
 10
16.36036093682915
 20
-13.53557746611053
 10
16.35948718482916
 20
-13.53565425011051
 10
16.35844610802914
 20
-13.53573521651053
 10
16.35723856082916
 20
-13.5358203413105
  0
LINE
  5
249
330
2
100
AcDbEntity
  8
0
100
AcDbLine
 10
7.788092935229151
 20
-13.85555165331052
 30
0.0
 11
7.793533309629147
 21
-13.84161656531051
 31
0.0
  0
LINE
  5
24A
330
2
100
AcDbEntity
  8
0
100
AcDbLine
 10
7.793533309629147
 20
-13.84161656531051
 30
0.0
 11
7.806828730429153
 21
-13.81295294931052
 31
0.0
  0
LWPOLYLINE
  5
24B
330
2
100
AcDbEntity
  8
0
100
AcDbPolyline
 90
        7
 70
     0
 43
0.0
 10
-1.848573552770858
 20
0.6595945162894808
 10
-1.782687640770859
 20
0.6560360282894706
 10
-1.717410699970855
 20
0.6462866666894982
 10
-1.653381058370854
 20
0.630468186689491
 10
-1.591092776770864
 20
0.6086951850894949
 10
-1.530784946370857
 20
0.5810172586894922
 10
-1.473493024770846
 20
0.547846281089484
  0
LWPOLYLINE
  5
24C
330
2
100
AcDbEntity
  8
0
100
AcDbPolyline
 90
       13
 70
     0
 43
0.0
 10
8.654799520829158
 20
2.321336097089478
 10
8.718541631229157
 20
2.239139282689485
 10
8.788857116029163
 20
2.162073689089488
 10
8.865075269629159
 20
2.09089390508948
 10
8.946576120829149
 20
2.026116937089462
 10
9.033101799229143
 20
1.967921333889485
 10
9.123928397629157
 20
1.91678910188947
 10
9.218678634429153
 20
1.872930631489488
 10
9.316593501629142
 20
1.83670211948948
 10
9.417206919229158
 20
1.808279082689473
 10
9.519605752829136
 20
1.787907850689471
 10
9.623125256829155
 20
1.775674197889493
 10
9.726891869629156
 20
1.771609260289473
  0
LWPOLYLINE
  5
24D
330
2
100
AcDbEntity
  8
0
100
AcDbPolyline
 90
        7
 70
     0
 43
0.0
 10
8.654803056829138
 20
2.312633193089489
 10
8.596444541629153
 20
2.402002063489483
 10
8.545593168829157
 20
2.495953812289492
 10
8.50272450962916
 20
2.593628258689484
 10
8.468218973629149
 20
2.693975585089482
 10
8.442202388029159
 20
2.796230010689477
 10
8.424761260029157
 20
2.899310164289495
  0
LINE
  5
24E
330
2
100
AcDbEntity
  8
0
100
AcDbLine
 10
13.92198271442917
 20
-13.48789172211052
 30
0.0
 11
13.92464590482917
 21
-13.52518432851052
 31
0.0
  0
LINE
  5
24F
330
2
100
AcDbEntity
  8
0
100
AcDbLine
 10
13.92246201522915
 20
-13.47131854291051
 30
0.0
 11
13.92198271442917
 21
-13.48789172211052
 31
0.0
  0
LINE
  5
250
330
2
100
AcDbEntity
  8
0
100
AcDbLine
 10
7.793533309629147
 20
-13.84161656531051
 30
0.0
 11
7.868332544829151
 21
-13.72650584051052
 31
0.0
  0
LINE
  5
251
330
2
100
AcDbEntity
  8
0
100
AcDbLine
 10
7.806828730429153
 20
-13.81295294931052
 30
0.0
 11
7.850315940029169
 21
-13.74688490131051
 31
0.0
  0
LWPOLYLINE
  5
253
330
2
100
AcDbEntity
  8
0
100
AcDbPolyline
 90
        8
 70
     0
 43
0.0
 10
20.87318010962914
 20
0.5093068954894946
 10
20.92657055762916
 20
0.5473927226894731
 10
20.98382557362916
 20
0.5806341562894844
 10
21.04415474642914
 20
0.6084068154894809
 10
21.10650310642915
 20
0.6302745594894717
 10
21.17065125842916
 20
0.6461836522894729
 10
21.23613707602913
 20
0.6560074746894955
 10
21.30235465202915
 20
0.6596009514894732
  0
LWPOLYLINE
  5
254
330
2
100
AcDbEntity
  8
0
100
AcDbPolyline
 90
       12
 70
     0
 43
0.0
 10
9.726891869629156
 20
1.771609260289473
 10
9.829863856829149
 20
1.77561208268947
 10
9.932802573629146
 20
1.787690914689484
 10
10.03485135922915
 20
1.807865719489491
 10
10.13537846002915
 20
1.836113477889462
 10
10.23345374002914
 20
1.872245556289477
 10
10.32851812882916
 20
1.91610552108947
 10
10.41966011282914
 20
1.967292143489494
 10
10.50644282002915
 20
2.02555759308948
 10
10.58816113842914
 20
2.090422455489495
 10
10.66456150802915
 20
2.161704490689494
 10
10.73505744402913
 20
2.238919909889467
  0
LWPOLYLINE
  5
255
330
2
100
AcDbEntity
  8
0
100
AcDbPolyline
 90
       30
 70
     0
 43
0.0
 10
1.703007959229154
 20
1.394752580289498
 10
1.455545373629149
 20
1.389333639489485
 10
1.21707455442916
 20
1.384228938689496
 10
0.989294730429151
 20
1.379405265089481
 10
0.7733709016291641
 20
1.374841367489473
 10
0.5698031736291398
 20
1.370549647489475
 10
0.3792313592291521
 20
1.366518092289489
 10
0.2021287240291372
 20
1.362679794689491
 10
0.0373142696291495
 20
1.358982466689475
 10
-0.117185139970843
 20
1.355402932289486
 10
-0.2626579431708365
 20
1.351935260289486
 10
-0.4012846455708541
 20
1.348517756289489
 10
-0.5362481943708417
 20
1.345020258689494
 10
-0.6660972391708527
 20
1.341449903489497
 10
-0.7877291239708484
 20
1.337889065089491
 10
-0.9006267959708509
 20
1.334361903489487
 10
-1.006306431170855
 20
1.330846362689477
 10
-1.107453043970849
 20
1.327270665089493
 10
-1.205314709570842
 20
1.32355722188948
 10
-1.300579743170857
 20
1.31963508268948
 10
-1.395725808770862
 20
1.315342532289498
 10
-1.490795210370862
 20
1.310553205889483
 10
-1.582062235970852
 20
1.305321657089486
 10
-1.664864762370854
 20
1.299821719489479
 10
-1.73665948877084
 20
1.294185717889497
 10
-1.79704556557084
 20
1.28845253228949
 10
-1.845892962370839
 20
1.28269562508948
 10
-1.883543595970849
 20
1.276985905089482
 10
-1.910720645570847
 20
1.271332489089481
 10
-1.928320738370842
 20
1.265711756289483
  0
LWPOLYLINE
  5
256
330
2
100
AcDbEntity
  8
0
100
AcDbPolyline
 90
        4
 70
     0
 43
0.0
 10
18.68150758642914
 20
1.374818522689487
 10
18.23717017202915
 20
1.384219421889476
 10
17.99842407762915
 20
1.389329753089477
 10
17.75077577842916
 20
1.39475258028947
  0
LWPOLYLINE
  5
257
330
2
100
AcDbEntity
  8
0
100
AcDbPolyline
 90
       13
 70
     0
 43
0.0
 10
9.726891869629156
 20
1.762910941889465
 10
9.62389086642915
 20
1.766916015489478
 10
9.520940535229158
 20
1.778998957889491
 10
9.41888622002915
 20
1.799178381889483
 10
9.318364424829155
 20
1.827428335489464
 10
9.220293786429152
 20
1.863562153089482
 10
9.125238735229146
 20
1.907420841089482
 10
9.034108384829153
 20
1.958603135489461
 10
8.947336261629146
 20
2.016862642689495
 10
8.865627375229138
 20
2.081720036289489
 10
8.789222495229154
 20
2.15300596908947
 10
8.718726183229136
 20
2.230221842689481
 10
8.654803056829138
 20
2.312633193089489
  0
LINE
  5
258
330
2
100
AcDbEntity
  8
0
100
AcDbLine
 10
13.50864866642914
 20
-13.56759954291052
 30
0.0
 11
13.51559776082914
 21
-13.52818926451052
 31
0.0
  0
LWPOLYLINE
  5
259
330
2
100
AcDbEntity
  8
0
100
AcDbPolyline
 90
       18
 70
     0
 43
0.0
 10
20.61537063922915
 20
0.0677427834894857
 10
20.57668955762915
 20
0.0270150570894785
 10
20.53130638962915
 20
-0.0210179605105267
 10
20.47588418962914
 20
-0.080876978110517
 10
20.40851832242915
 20
-0.1566730661105211
 10
20.34357488722915
 20
-0.2344093413105313
 10
20.29042939282914
 20
-0.3027205397105135
 10
20.24763397202915
 20
-0.3618155429105272
 10
20.21298484882913
 20
-0.4131600069105091
 10
20.18399185842915
 20
-0.4592648053105322
 10
20.15943556082913
 20
-0.5012473333105092
 10
20.13823622802914
 20
-0.5403564789105176
 10
20.11902691922915
 20
-0.5789162869105198
 10
20.10117385202915
 20
-0.6185324981105325
 10
20.08445559282916
 20
-0.6606181893105188
 10
20.06827029682915
 20
-0.709098389310519
 10
20.05315758482913
 20
-0.7685875797105198
 10
20.04214180402914
 20
-0.8398793093105254
  0
LWPOLYLINE
  5
25A
330
2
100
AcDbEntity
  8
0
100
AcDbPolyline
 90
        3
 70
     0
 43
0.0
 10
20.80890844882915
 20
0.4520129226894838
 10
20.82356992882915
 20
0.4663659482894858
 10
20.85341784402913
 20
0.492201327489461
  0
LINE
  5
25B
330
2
100
AcDbEntity
  8
0
100
AcDbLine
 10
20.85341784402914
 20
0.492201327489461
 30
0.0
 11
20.87318010962915
 21
0.5093068954894946
 31
0.0
  0
LWPOLYLINE
  5
25C
330
2
100
AcDbEntity
  8
0
100
AcDbPolyline
 90
        4
 70
     0
 43
0.0
 10
20.82902896562916
 20
-3.990741952510511
 10
20.91498146002913
 20
-3.953406645310529
 10
21.20198632082915
 20
-3.821942507710524
 10
21.45880983122915
 20
-3.69719276211051
  0
LINE
  5
263
330
2
100
AcDbEntity
  8
0
100
AcDbLine
 10
16.36206280242914
 20
-13.53526556211053
 30
0.0
 11
16.36113902642916
 21
-13.5040293445105
 31
0.0
  0
LWPOLYLINE
  5
265
330
2
100
AcDbEntity
  8
0
100
AcDbPolyline
 90
        3
 70
     0
 43
0.0
 10
20.77238304082914
 20
0.412236154689488
 10
20.77799571762915
 20
0.4187636282894758
 10
20.80890844882915
 20
0.4520129226894838
  0
LINE
  5
266
330
2
100
AcDbEntity
  8
0
100
AcDbLine
 10
7.850315940029169
 20
-13.74688490131051
 30
0.0
 11
7.904219373629167
 21
-13.69339672211051
 31
0.0
  0
LWPOLYLINE
  5
267
330
2
100
AcDbEntity
  8
0
100
AcDbPolyline
 90
       12
 70
     0
 43
0.0
 10
21.46623865202915
 20
-3.693411418110535
 10
21.67736682162916
 20
-3.577073728510519
 10
21.89081893842916
 20
-3.443307462910517
 10
22.09156774482914
 20
-3.298410066110527
 10
22.27798724402916
 20
-3.141605802110511
 10
22.44893715602916
 20
-2.971567843710538
 10
22.60234265042913
 20
-2.78749146771053
 10
22.73537072082914
 20
-2.589312494910522
 10
22.84445356722915
 20
-2.378959854910526
 10
22.92681507922915
 20
-2.159023690110522
 10
22.97998054002914
 20
-1.937629390910522
 10
23.00336568722915
 20
-1.760836515710529
  0
LINE
  5
268
330
2
100
AcDbEntity
  8
0
100
AcDbLine
 10
21.46623865202915
 20
-3.693411418110535
 30
0.0
 11
21.45881525202916
 21
-3.697191573310526
 31
0.0
  0
LWPOLYLINE
  5
26A
330
2
100
AcDbEntity
  8
0
100
AcDbPolyline
 90
       19
 70
     0
 43
0.0
 10
9.726891869629156
 20
4.362364621889476
 10
9.828033053629155
 20
4.35849658828949
 10
9.931496946429149
 20
4.346461914689491
 10
10.03611377362915
 20
4.325749754689475
 10
10.14087078162916
 20
4.295970477889461
 10
10.24435889042914
 20
4.257011236289493
 10
10.34509242642914
 20
4.209062130689467
 10
10.44121199922915
 20
4.152884866689483
 10
10.53202377842916
 20
4.088935721089463
 10
10.61695749682914
 20
4.017661309889469
 10
10.69561554002913
 20
3.939382290689486
 10
10.76722124722914
 20
3.854856609089473
 10
10.83137891602913
 20
3.764554463489481
 10
10.88750592082914
 20
3.669306116289483
 10
10.93532718322916
 20
3.569580527489485
 10
10.97442000242915
 20
3.466233340289484
 10
11.00453738002914
 20
3.359902049089477
 10
11.02536789842915
 20
3.251852429889488
 10
11.03687690322914
 20
3.142782844289463
  0
LWPOLYLINE
  5
26C
330
2
100
AcDbEntity
  8
0
100
AcDbPolyline
 90
       26
 70
     0
 43
0.0
 10
21.38210447602915
 20
1.265711756289483
 10
21.36448642642915
 20
1.271337433089463
 10
21.33726310962916
 20
1.276997860289476
 10
21.29952980722916
 20
1.28271565868949
 10
21.25058797682914
 20
1.288478509889479
 10
21.19013317682916
 20
1.294212969089478
 10
21.11819200242913
 20
1.29985504908948
 10
21.03540950162914
 20
1.305349058689479
 10
20.94438276082914
 20
1.310564244289487
 10
20.84909677042915
 20
1.315362629889484
 10
20.75345108082913
 20
1.319674732289463
 10
20.65759399282916
 20
1.323617031489483
 10
20.55983489362915
 20
1.327322356289478
 10
20.45868317682914
 20
1.330894983489493
 10
20.35263667122916
 20
1.334419594689485
 10
20.24020963442916
 20
1.337928900289462
 10
20.12015185362915
 20
1.341442645889465
 10
19.99254650002916
 20
1.344953548289488
 10
19.85829054962914
 20
1.348436833089472
 10
19.71881270482916
 20
1.351878293889463
 10
19.57326356562916
 20
1.355349343489486
 10
19.41903796562914
 20
1.358924204289486
 10
19.25437795762914
 20
1.362620082689495
 10
19.07733868722914
 20
1.366458925889482
 10
18.88602449042915
 20
1.370506929089465
 10
18.68150758642914
 20
1.374818522689487
  0
LWPOLYLINE
  5
26D
330
2
100
AcDbEntity
  8
0
100
AcDbPolyline
 90
       17
 70
     0
 43
0.0
 10
21.12402229042913
 20
0.8696519658894956
 10
21.02898908082914
 20
0.9008032794894873
 10
20.91310544562915
 20
0.9291794170894789
 10
20.78020548882915
 20
0.954684463489464
 10
20.63352105842915
 20
0.9773526778894918
 10
20.47422222642916
 20
0.9976712506894855
 10
20.30532316242914
 20
1.015779001089477
 10
20.12768709362916
 20
1.031941442689465
 10
19.93966063122914
 20
1.046910172289479
 10
19.74081383282916
 20
1.061283265089464
 10
19.52779208402915
 20
1.075363261889471
 10
19.29496669522916
 20
1.088913545089475
 10
19.03913632722916
 20
1.101712553089477
 10
18.75679081682915
 20
1.113396373889493
 10
18.44182559122916
 20
1.12347339788949
 10
18.08984670962914
 20
1.13161226828948
 10
17.69586286962914
 20
1.137703826689467
  0
LINE
  5
26F
330
2
100
AcDbEntity
  8
0
100
AcDbLine
 10
11.57311762802914
 20
-13.54582648851052
 30
0.0
 11
11.21930934802916
 21
-13.89963476851053
 31
0.0
  0
LWPOLYLINE
  5
270
330
2
100
AcDbEntity
  8
0
100
AcDbPolyline
 90
       10
 70
     0
 43
0.0
 10
11.57311759442916
 20
-13.54582651891052
 10
11.57594729202915
 20
-13.54305819251052
 10
11.58680600242914
 20
-13.53345278931052
 10
11.59837970482914
 20
-13.5247066485105
 10
11.61037839762914
 20
-13.5169873717105
 10
11.62249793202914
 20
-13.51040252851051
 10
11.63440280562915
 20
-13.50500941331051
 10
11.64564679922915
 20
-13.50082262291052
 10
11.65564558322915
 20
-13.49777678931052
 10
11.66364283122913
 20
-13.49577925331052
  0
LINE
  5
271
330
2
100
AcDbEntity
  8
0
100
AcDbLine
 10
7.868332544829151
 20
-13.72650584051052
 30
0.0
 11
7.982294760829155
 21
-13.64745513971052
 31
0.0
  0
LINE
  5
272
330
2
100
AcDbEntity
  8
0
100
AcDbLine
 10
7.904219373629167
 20
-13.69339672211051
 30
0.0
 11
7.963810572029167
 21
-13.65396213011052
 31
0.0
  0
LINE
  5
274
330
2
100
AcDbEntity
  8
0
100
AcDbLine
 10
-9.273108130370836
 20
5.071336100289478
 30
0.0
 11
28.72689186962916
 21
5.071336100289478
 31
0.0
  0
LWPOLYLINE
  5
275
330
2
100
AcDbEntity
  8
0
100
AcDbPolyline
 90
       17
 70
     0
 43
0.0
 10
20.04212706162914
 20
-0.8400265045105115
 10
20.03878059602914
 20
-0.9122188997105169
 10
20.04173758802914
 20
-0.9731592853105368
 10
20.04851331762915
 20
-1.027794570110522
 10
20.05993947442914
 20
-1.08808065811052
 10
20.07880403282914
 20
-1.162739429310526
 10
20.10791452562915
 20
-1.255166915710525
 10
20.14748401202913
 20
-1.361519645310515
 10
20.18780986962914
 20
-1.45833457011053
 10
20.22478695762916
 20
-1.541043000510505
 10
20.25832803602915
 20
-1.612642266110519
 10
20.28960435442914
 20
-1.677179973310522
 10
20.31910650802913
 20
-1.736441301310513
 10
20.34775378322913
 20
-1.792691056510527
 10
20.37681465202914
 20
-1.84866265971052
 10
20.40689726482915
 20
-1.90572154771052
 10
20.41187595602914
 20
-1.91505915731053
  0
LWPOLYLINE
  5
276
330
2
100
AcDbEntity
  8
0
100
AcDbPolyline
 90
       33
 70
     0
 43
0.0
 10
20.00752976722915
 20
-1.185414283710535
 10
19.90833059282914
 20
-2.177078411710532
 10
19.86029120722915
 20
-2.656476893310518
 10
19.81320453522914
 20
-3.124728584510528
 10
19.76701959282914
 20
-3.581714426110515
 10
19.72170247122915
 20
-4.027277467710511
 10
19.67722476402914
 20
-4.461328234110531
 10
19.63356841682914
 20
-4.883595542910533
 10
19.59062408402914
 20
-5.293490138110534
 10
19.54820165842915
 20
-5.691005576510512
 10
19.50614939602914
 20
-6.076198566910527
 10
19.46435227922916
 20
-6.44916081331052
 10
19.42277906802914
 20
-6.809575768510505
 10
19.38162337362913
 20
-7.155580275710512
 10
19.34117789522915
 20
-7.484993909310524
 10
19.30157594162915
 20
-7.797369944510528
 10
19.26261187602915
 20
-8.095056806910513
 10
19.22403164242913
 20
-8.380616314110504
 10
19.18562764402915
 20
-8.656080683710506
 10
19.14736315602914
 20
-8.922149349310522
 10
19.10920200402915
 20
-9.179583160510524
 10
19.07118385042915
 20
-9.429095720510524
 10
19.03346897042914
 20
-9.670671005310531
 10
18.99621015762915
 20
-9.90424057651051
 10
18.95954078962915
 20
-10.12976913651052
 10
18.92353603762916
 20
-10.3474914597105
 10
18.88818206642915
 20
-10.55808228691051
 10
18.85343255282916
 20
-10.76230838291052
 10
18.81924706322914
 20
-10.96081550291051
 10
18.78574530322916
 20
-11.15326544691051
 10
18.75310587282913
 20
-11.33896368211053
 10
18.72150104722914
 20
-11.51723956051051
 10
18.69111722162915
 20
-11.68732816851052
  0
LINE
  5
277
330
2
100
AcDbEntity
  8
0
100
AcDbLine
 10
20.04214180402914
 20
-0.8398793093105254
 30
0.0
 11
20.00752976722916
 21
-1.185414283710535
 31
0.0
  0
LINE
  5
27A
330
2
100
AcDbEntity
  8
0
100
AcDbLine
 10
18.69111722162916
 20
-11.68732816851052
 30
0.0
 11
18.65748928242914
 21
-11.87422042611052
 31
0.0
  0
LWPOLYLINE
  5
27B
330
2
100
AcDbEntity
  8
0
100
AcDbPolyline
 90
       16
 70
     0
 43
0.0
 10
20.79746006642915
 20
0.3236781834894842
 10
20.80171251442914
 20
0.3459966122894755
 10
20.80824376242915
 20
0.3745180042894916
 10
20.81507693682914
 20
0.3993717546894757
 10
20.82211494802913
 20
0.4212864074894825
 10
20.82926694002915
 20
0.4407255914894748
 10
20.83642580402914
 20
0.4579728426894647
 10
20.84343649202915
 20
0.4731365594894684
 10
20.85017804562915
 20
0.4863733210894808
 10
20.85665112722915
 20
0.4980176106894945
 10
20.86282403922913
 20
0.5082616346894682
 10
20.86858305042915
 20
0.5171244714894741
 10
20.87356094642913
 20
0.5242718762894825
 10
20.87745352242916
 20
0.5295278218894808
 10
20.88005086802914
 20
0.5328545146894684
 10
20.88076391762914
 20
0.5337357658894817
  0
LWPOLYLINE
  5
27D
330
2
100
AcDbEntity
  8
0
100
AcDbPolyline
 90
        7
 70
     0
 43
0.0
 10
20.61537183282914
 20
0.0677425194894639
 10
20.62806914002913
 20
0.1314092746894815
 10
20.64688100242915
 20
0.1940608906894638
 10
20.67163357682915
 20
0.2548189834894927
 10
20.70191840242916
 20
0.3127853482894878
 10
20.73733049362914
 20
0.3673539994894739
 10
20.77238304082914
 20
0.412236154689488
  0
LINE
  5
280
330
2
100
AcDbEntity
  8
0
100
AcDbLine
 10
15.93615185042916
 20
-13.80474548371051
 30
0.0
 11
15.96195198482915
 21
-13.7407446213105
 31
0.0
  0
LINE
  5
281
330
2
100
AcDbEntity
  8
0
100
AcDbLine
 10
15.62350219122914
 20
-13.43356676851052
 30
0.0
 11
15.58776210322916
 21
-13.51804928051051
 31
0.0
  0
LINE
  5
282
330
2
100
AcDbEntity
  8
0
100
AcDbLine
 10
13.92464590482917
 20
-13.52518432851052
 30
0.0
 11
13.91192906962914
 21
-13.54476468851051
 31
0.0
  0
LINE
  5
283
330
2
100
AcDbEntity
  8
0
100
AcDbLine
 10
7.963810572029167
 20
-13.65396213011052
 30
0.0
 11
7.981344237629151
 21
-13.64650461491051
 31
0.0
  0
LINE
  5
284
330
2
100
AcDbEntity
  8
0
100
AcDbLine
 10
28.13102672722914
 20
6.57815572108948
 30
0.0
 11
28.10245230322914
 21
6.577994132289468
 31
0.0
  0
LWPOLYLINE
  5
285
330
2
100
AcDbEntity
  8
0
100
AcDbPolyline
 90
        3
 70
     0
 43
0.0
 10
25.76678639922914
 20
6.577021017089471
 10
25.59872198162915
 20
6.576718897089484
 10
25.40175175922914
 20
6.576421220289468
  0
LWPOLYLINE
  5
286
330
2
100
AcDbEntity
  8
0
100
AcDbPolyline
 90
        3
 70
     0
 43
0.0
 10
25.40175175922914
 20
6.576421220289468
 10
24.92295472242915
 20
6.575827402689476
 10
24.64221642002914
 20
6.575527146689474
  0
LINE
  5
287
330
2
100
AcDbEntity
  8
0
100
AcDbLine
 10
24.64221642002915
 20
6.575527146689474
 30
0.0
 11
24.00141931122915
 21
6.574889117889462
 31
0.0
  0
LWPOLYLINE
  5
288
330
2
100
AcDbEntity
  8
0
100
AcDbPolyline
 90
        6
 70
     0
 43
0.0
 10
24.00141931122914
 20
6.574889117889462
 10
23.26010755282914
 20
6.574255053889466
 10
22.85376574162916
 20
6.573974532289476
 10
22.42476431602915
 20
6.573723524289484
 10
21.97401865202914
 20
6.573492575489474
 10
21.01134841682914
 20
6.573024293889467
  0
LINE
  5
289
330
2
100
AcDbEntity
  8
0
100
AcDbLine
 10
21.01134841682915
 20
6.573024293889467
 30
0.0
 11
18.30032682322914
 21
6.571638301889471
 31
0.0
  0
LINE
  5
28A
330
2
100
AcDbEntity
  8
0
100
AcDbLine
 10
26.14406538482917
 20
6.57784198828947
 30
0.0
 11
25.76678639922915
 21
6.577021017089471
 31
0.0
  0
LWPOLYLINE
  5
28B
330
2
100
AcDbEntity
  8
0
100
AcDbPolyline
 90
        5
 70
     0
 43
0.0
 10
18.30032682322914
 20
6.571638301889471
 10
17.71575801842914
 20
6.571369997889469
 10
17.12012647602915
 20
6.571115666689486
 10
16.51480513522915
 20
6.570874257089464
 10
15.91132290642915
 20
6.57065254988948
  0
LINE
  5
28C
330
2
100
AcDbEntity
  8
0
100
AcDbLine
 10
15.91132292562915
 20
6.57065254988948
 30
0.0
 11
15.62433231602916
 21
6.570609695489487
 31
0.0
  0
LINE
  5
28D
330
2
100
AcDbEntity
  8
0
100
AcDbLine
 10
4.570142322429155
 20
6.570703076289483
 30
0.0
 11
3.829451488829143
 21
6.570609697089487
 31
0.0
  0
LWPOLYLINE
  5
28E
330
2
100
AcDbEntity
  8
0
100
AcDbPolyline
 90
        4
 70
     0
 43
0.0
 10
9.726889940029138
 20
6.571360497089479
 10
8.81729869202914
 20
6.571336100289478
 10
7.907771916029162
 20
6.571264111489462
 10
4.570142322429148
 20
6.570703076289483
  0
LINE
  5
28F
330
2
100
AcDbEntity
  8
0
100
AcDbLine
 10
28.10244904242916
 20
6.577994117889467
 30
0.0
 11
26.14406534962916
 21
6.57784198828947
 31
0.0
  0
LINE
  5
290
330
2
100
AcDbEntity
  8
0
100
AcDbLine
 10
3.829451421629165
 20
6.570609695489487
 30
0.0
 11
3.542460812029169
 21
6.57065254988948
 31
0.0
  0
LWPOLYLINE
  5
291
330
2
100
AcDbEntity
  8
0
100
AcDbPolyline
 90
        3
 70
     0
 43
0.0
 10
15.62433224882914
 20
6.570609697089487
 10
14.88364141522916
 20
6.570703076289483
 10
13.31976341362914
 20
6.571007631489472
  0
LWPOLYLINE
  5
292
330
2
100
AcDbEntity
  8
0
100
AcDbPolyline
 90
        3
 70
     0
 43
0.0
 10
11.54600992562913
 20
6.571264111489462
 10
10.63648218162916
 20
6.571336100289478
 10
9.726889940029138
 20
6.571360497089479
  0
LINE
  5
293
330
2
100
AcDbEntity
  8
0
100
AcDbLine
 10
13.31976337202915
 20
6.571007633089472
 30
0.0
 11
11.54600992562914
 21
6.571264111489462
 31
0.0
  0
LINE
  5
294
330
2
100
AcDbEntity
  8
0
100
AcDbLine
 10
1.153456916029149
 20
6.571638301889471
 30
0.0
 11
-1.55756467917083
 21
6.573024293889467
 31
0.0
  0
LWPOLYLINE
  5
295
330
2
100
AcDbEntity
  8
0
100
AcDbPolyline
 90
        4
 70
     0
 43
0.0
 10
3.542460832829164
 20
6.57065254988948
 10
2.333657263229156
 20
6.571115666689486
 10
1.738025719229142
 20
6.571369997889469
 10
1.153456916029142
 20
6.571638301889471
  0
LWPOLYLINE
  5
296
330
2
100
AcDbEntity
  8
0
100
AcDbPolyline
 90
        4
 70
     0
 43
0.0
 10
-1.557564679170837
 20
6.573024293889467
 10
-3.399982003970848
 20
6.573974532289476
 10
-3.806323813570855
 20
6.574255053889494
 10
-4.189147013570845
 20
6.574563833089491
  0
LINE
  5
297
330
2
100
AcDbEntity
  8
0
100
AcDbLine
 10
-4.189147013570838
 20
6.574563833089491
 30
0.0
 11
-4.881000237570837
 21
6.575214673089483
 31
0.0
  0
LWPOLYLINE
  5
298
330
2
100
AcDbEntity
  8
0
100
AcDbPolyline
 90
        5
 70
     0
 43
0.0
 10
-4.881000237570845
 20
6.575214673089483
 10
-5.722541413570837
 20
6.576123775489499
 10
-5.947968019970858
 20
6.576421220289468
 10
-6.144938242370841
 20
6.576718897089484
 10
-6.313002661570862
 20
6.577021017089499
  0
LINE
  5
299
330
2
100
AcDbEntity
  8
0
100
AcDbLine
 10
-6.675495032770832
 20
6.577821652289493
 30
0.0
 11
-8.644958824770831
 21
6.577979257089488
 31
0.0
  0
LWPOLYLINE
  5
29A
330
2
100
AcDbEntity
  8
0
100
AcDbPolyline
 90
        3
 70
     0
 43
0.0
 10
-6.313002661570862
 20
6.577021017089499
 10
-6.555290578370858
 20
6.577590749889488
 10
-6.675495032770839
 20
6.577821652289493
  0
LINE
  5
29B
330
2
100
AcDbEntity
  8
0
100
AcDbLine
 10
-8.644958824770831
 20
6.577979257089488
 30
0.0
 11
-8.677242987970849
 21
6.57815572108948
 31
0.0
  0
LWPOLYLINE
  5
29C
330
2
100
AcDbEntity
  8
0
100
AcDbPolyline
 90
        6
 70
     0
 43
0.0
 10
21.74523782322915
 20
1.068801873089462
 10
21.68240251602915
 20
1.119568765889489
 10
21.61595193522916
 20
1.159352293889476
 10
21.54284200882915
 20
1.193567506689483
 10
21.46353839442915
 20
1.226908199489464
 10
21.38210447602915
 20
1.265711756289483
  0
LWPOLYLINE
  5
29D
330
2
100
AcDbEntity
  8
0
100
AcDbPolyline
 90
       18
 70
     0
 43
0.0
 10
20.41187595602914
 20
-1.91505915731053
 10
20.43790846642914
 20
-1.963883509310527
 10
20.46976512082915
 20
-2.023224158910515
 10
20.50248830322914
 20
-2.084058606910524
 10
20.53614326322914
 20
-2.146861826110516
 10
20.57073686802914
 20
-2.212105934910532
 10
20.60622579762914
 20
-2.280330702910525
 10
20.64261377522913
 20
-2.352411562110511
 10
20.67991274162915
 20
-2.42962901811051
 10
20.71800304562916
 20
-2.513654435710513
 10
20.75665657362915
 20
-2.607071533310538
 10
20.79492989682916
 20
-2.712871224510529
 10
20.82809341362914
 20
-2.823377523710512
 10
20.85413095122913
 20
-2.933705816510517
 10
20.87314910482914
 20
-3.045343555710523
 10
20.88467777202916
 20
-3.158381280510518
 10
20.88816847442913
 20
-3.272932310910526
 10
20.88207295762916
 20
-3.399551190910521
  0
LINE
  5
29E
330
2
100
AcDbEntity
  8
0
100
AcDbLine
 10
20.88207295762916
 20
-3.399551190910521
 30
0.0
 11
20.78759248242915
 21
-4.452566384510525
 31
0.0
  0
LWPOLYLINE
  5
2A0
330
2
100
AcDbEntity
  8
0
100
AcDbPolyline
 90
        6
 70
     0
 43
0.0
 10
20.21199210962913
 20
-9.867652170110538
 10
20.34498633362915
 20
-8.898459138110517
 10
20.46538749522915
 20
-7.861225851710507
 10
20.57402658482914
 20
-6.787785128510527
 10
20.67928181362916
 20
-5.658571246910518
 10
20.78759248242914
 20
-4.452566384510525
  0
LINE
  5
2A1
330
2
100
AcDbEntity
  8
0
100
AcDbLine
 10
18.79066734802916
 20
-11.80792283251053
 30
0.0
 11
18.81175862962914
 21
-11.71120401331051
 31
0.0
  0
LINE
  5
2A2
330
2
100
AcDbEntity
  8
0
100
AcDbLine
 10
18.72960286802916
 20
-11.79460758291053
 30
0.0
 11
18.75563053682916
 21
-11.67529541651051
 31
0.0
  0
LINE
  5
2A3
330
2
100
AcDbEntity
  8
0
100
AcDbLine
 10
18.81175862962914
 20
-11.71120401331051
 30
0.0
 11
18.83525430642917
 21
-11.60380418931051
 31
0.0
  0
LWPOLYLINE
  5
2A4
330
2
100
AcDbEntity
  8
0
100
AcDbPolyline
 90
       33
 70
     0
 43
0.0
 10
18.75563053682915
 20
-11.67529541651051
 10
18.78333430962914
 20
-11.54878773811051
 10
18.79647487122915
 20
-11.48902580531051
 10
18.80916830482914
 20
-11.43152463571052
 10
18.82142182482914
 20
-11.37628160371053
 10
18.83323585842916
 20
-11.32331601971053
 10
18.84461300082915
 20
-11.27262987091051
 10
18.85556225842916
 20
-11.22418686611052
 10
18.86609087922914
 20
-11.17794908531052
 10
18.87620494962914
 20
-11.13388065971053
 10
18.88590757842914
 20
-11.09195632531051
 10
18.89519657522913
 20
-11.05217102451052
 10
18.90407090002915
 20
-11.01451187251051
 10
18.91253036242915
 20
-10.97895973651054
 10
18.92057539122916
 20
-10.94549050131052
 10
18.92820677522914
 20
-10.91407633171052
 10
18.93542827122914
 20
-10.88467534451051
 10
18.94225019442916
 20
-10.85721801011052
 10
18.94867792562914
 20
-10.8316545701105
 10
18.95469592722915
 20
-10.8080210453105
 10
18.96030780562915
 20
-10.78627745491052
 10
18.96551796242914
 20
-10.76637775891051
 10
18.97032624882913
 20
-10.74829026771052
 10
18.97472001042913
 20
-10.73202594451051
 10
18.97868381042914
 20
-10.71759968531051
 10
18.98220411122915
 20
-10.70501294771053
 10
18.98526957522915
 20
-10.69425343251051
 10
18.98787151122914
 20
-10.68529451251051
 10
18.99000444402915
 20
-10.6780945045105
 10
18.99166680082913
 20
-10.67259587251051
 10
18.99286264082914
 20
-10.66872141011051
 10
18.99360019282914
 20
-10.66638114931051
 10
18.99388141522914
 20
-10.66550618771051
  0
LWPOLYLINE
  5
2A5
330
2
100
AcDbEntity
  8
0
100
AcDbPolyline
 90
       28
 70
     0
 43
0.0
 10
18.83525430642916
 20
-11.60380418931051
 10
18.85736273842914
 20
-11.50315310931051
 10
18.86793515442914
 20
-11.45524303571053
 10
18.87820190962915
 20
-11.40889768691052
 10
18.88816731282915
 20
-11.36411100051051
 10
18.89783682962914
 20
-11.32086827731051
 10
18.90721696242914
 20
-11.27914722451051
 10
18.91631799602913
 20
-11.23890361811052
 10
18.92514728562915
 20
-11.20010276051052
 10
18.93371155762915
 20
-11.16271191571052
 10
18.94201632242914
 20
-11.12670305171052
 10
18.95005901682915
 20
-11.09208225011052
 10
18.95783335122914
 20
-11.05886997971051
 10
18.96533363122915
 20
-11.0270822677105
 10
18.97255476402915
 20
-10.99673073491052
 10
18.97949217202915
 20
-10.96782305651051
 10
18.98614167122914
 20
-10.9403634981105
 10
18.99249930642915
 20
-10.91435370931051
 10
18.99856135762914
 20
-10.88979269651053
 10
19.00432479122915
 20
-10.86667509011052
 10
19.00978220722913
 20
-10.84501166771053
 10
19.01491423602914
 20
-10.82486133491052
 10
19.01971869682915
 20
-10.80621304371052
 10
19.02419470962914
 20
-10.7890479669105
 10
19.02834174162916
 20
-10.77334353971053
 10
19.03215836722915
 20
-10.75907833331051
 10
19.03564387602915
 20
-10.74622613011052
 10
19.03879894802915
 20
-10.73475383251052
  0
LINE
  5
2A6
330
2
100
AcDbEntity
  8
0
100
AcDbLine
 10
19.03879894802916
 20
-10.73475383251052
 30
0.0
 11
19.04412659922915
 21
-10.71578851251052
 31
0.0
  0
LINE
  5
2A7
330
2
100
AcDbEntity
  8
0
100
AcDbLine
 10
19.04412659922915
 20
-10.71578851251052
 30
0.0
 11
19.04817430322916
 21
-10.70180201971052
 31
0.0
  0
LWPOLYLINE
  5
2A8
330
2
100
AcDbEntity
  8
0
100
AcDbPolyline
 90
        4
 70
     0
 43
0.0
 10
19.04817430322916
 20
-10.70180201971052
 10
19.05101557682914
 20
-10.69227968531051
 10
19.05200952722916
 20
-10.68902862931053
 10
19.05272970962914
 20
-10.68671008531051
  0
LINE
  5
2A9
330
2
100
AcDbEntity
  8
0
100
AcDbLine
 10
19.05272970962915
 20
-10.68671008531051
 30
0.0
 11
19.05336688402915
 21
-10.68469978451053
 31
0.0
  0
LWPOLYLINE
  5
2AA
330
2
100
AcDbEntity
  8
0
100
AcDbPolyline
 90
       24
 70
     0
 43
0.0
 10
18.99388141522914
 20
-10.66550618771051
 10
18.99373484402914
 20
-10.66594822771053
 10
18.99314827442916
 20
-10.66768643411051
 10
18.99213470962914
 20
-10.67062474771051
 10
18.99069843442916
 20
-10.67469560371051
 10
18.98883878482914
 20
-10.67984690611051
 10
18.98653680242915
 20
-10.68607675411052
 10
18.98378456082915
 20
-10.69335119411052
 10
18.98057415442915
 20
-10.70163537331051
 10
18.97689964242914
 20
-10.71088888691053
 10
18.97276591442914
 20
-10.7210450069105
 10
18.96818260562915
 20
-10.73202850611053
 10
18.96316274002916
 20
-10.74376021171053
 10
18.95772222322915
 20
-10.7561590501105
 10
18.95187937362914
 20
-10.76914374611052
 10
18.94565451602915
 20
-10.78263417011051
 10
18.93906961362915
 20
-10.79655233651052
 10
18.93214801202915
 20
-10.8108230821105
 10
18.92491615922915
 20
-10.82537062291051
 10
18.91739927602915
 20
-10.84012734771052
 10
18.90962083602914
 20
-10.85503411731053
 10
18.90160421522915
 20
-10.87003645011051
 10
18.89337257522913
 20
-10.88508440051051
 10
18.88494876082916
 20
-10.90013237971052
  0
LWPOLYLINE
  5
2AB
330
2
100
AcDbEntity
  8
0
100
AcDbPolyline
 90
       17
 70
     0
 43
0.0
 10
18.88494876082916
 20
-10.90013237971052
 10
18.87635522162915
 20
-10.91513893811053
 10
18.86760900242916
 20
-10.93007491251051
 10
18.85871156562913
 20
-10.94493985331052
 10
18.84967277842915
 20
-10.95972062931053
 10
18.84050329522915
 20
-10.97440367251052
 10
18.83121159922916
 20
-10.98897955091052
 10
18.82180412242914
 20
-11.00344241331051
 10
18.81228538482915
 20
-11.01778949011053
 10
18.80265811282916
 20
-11.03202063091051
 10
18.79292185202913
 20
-11.04614010131051
 10
18.78308170162915
 20
-11.06014389331053
 10
18.77314554802916
 20
-11.0740242933105
 10
18.76312077522914
 20
-11.08777470131052
 10
18.75301435922915
 20
-11.10138940371051
 10
18.74283288562915
 20
-11.11486351731053
 10
18.73258253842914
 20
-11.12819292531053
  0
LWPOLYLINE
  5
2AC
330
2
100
AcDbEntity
  8
0
100
AcDbPolyline
 90
        4
 70
     0
 43
0.0
 10
15.96195198482914
 20
-13.7407446213105
 10
15.99436633042915
 20
-13.68871707251053
 10
16.03321759282914
 20
-13.6442284245105
 10
16.07661380722913
 20
-13.60779132211052
  0
LINE
  5
2AD
330
2
100
AcDbEntity
  8
0
100
AcDbLine
 10
17.92321449522916
 20
-11.75990450291052
 30
0.0
 11
17.90656036882916
 21
-11.76730195891052
 31
0.0
  0
LINE
  5
2AE
330
2
100
AcDbEntity
  8
0
100
AcDbLine
 10
17.90656036882916
 20
-11.76730195891052
 30
0.0
 11
17.89021581522914
 21
-11.77440157491053
 31
0.0
  0
LINE
  5
2AF
330
2
100
AcDbEntity
  8
0
100
AcDbLine
 10
17.89021581522914
 20
-11.77440157491053
 30
0.0
 11
17.87417996722914
 21
-11.78121415251052
 31
0.0
  0
LWPOLYLINE
  5
2B0
330
2
100
AcDbEntity
  8
0
100
AcDbPolyline
 90
       20
 70
     0
 43
0.0
 10
18.83557014002914
 20
-11.60236444691053
 10
18.87304146482915
 20
-11.58666600051051
 10
18.94138460882913
 20
-11.55572290451052
 10
19.01415054482916
 20
-11.51995229491051
 10
19.09049179762914
 20
-11.4790465909105
 10
19.16952375442915
 20
-11.43274153171051
 10
19.25078094482915
 20
-11.38057448691051
 10
19.33390764242915
 20
-11.32199067091053
 10
19.41920442002916
 20
-11.25579717171051
 10
19.50708408562914
 20
-11.18030229011053
 10
19.59799898002916
 20
-11.09323219091052
 10
19.69020923442914
 20
-10.99398012211053
 10
19.78120932562916
 20
-10.88279355251051
 10
19.86878357522914
 20
-10.75994735731051
 10
19.95063178482914
 20
-10.62646914451053
 10
20.02461757842914
 20
-10.48371246771051
 10
20.08910571282914
 20
-10.33312585011051
 10
20.14269095442915
 20
-10.17672683251051
 10
20.18446264882914
 20
-10.01639081971051
 10
20.21199801042914
 20
-9.867596024510525
  0
LINE
  5
2B1
330
2
100
AcDbEntity
  8
0
100
AcDbLine
 10
17.87417996722914
 20
-11.78121415251052
 30
0.0
 11
17.85845191602914
 21
-11.78775007411052
 31
0.0
  0
LINE
  5
2B2
330
2
100
AcDbEntity
  8
0
100
AcDbLine
 10
17.85845191602914
 20
-11.78775007411052
 30
0.0
 11
17.84303054322917
 21
-11.79401938771052
 31
0.0
  0
LINE
  5
2B3
330
2
100
AcDbEntity
  8
0
100
AcDbLine
 10
17.84303054322917
 20
-11.79401938771052
 30
0.0
 11
17.82791456242916
 21
-11.80003180851053
 31
0.0
  0
LINE
  5
2B4
330
2
100
AcDbEntity
  8
0
100
AcDbLine
 10
17.82791456242916
 20
-11.80003180851053
 30
0.0
 11
17.81310254962915
 21
-11.80579672531052
 31
0.0
  0
LINE
  5
2B5
330
2
100
AcDbEntity
  8
0
100
AcDbLine
 10
17.81310254962915
 20
-11.80579672531052
 30
0.0
 11
17.79858956562916
 21
-11.81132448691052
 31
0.0
  0
LINE
  5
2B6
330
2
100
AcDbEntity
  8
0
100
AcDbLine
 10
17.79858956562916
 20
-11.81132448691052
 30
0.0
 11
17.78436140562915
 21
-11.81662840531051
 31
0.0
  0
LWPOLYLINE
  5
2B7
330
2
100
AcDbEntity
  8
0
100
AcDbPolyline
 90
        8
 70
     0
 43
0.0
 10
11.70501624722913
 20
-13.42840753971051
 10
11.70461162482914
 20
-13.42855603091052
 10
11.70377480722913
 20
-13.42868970291052
 10
11.70264204882914
 20
-13.42880686931052
 10
11.70106213842913
 20
-13.42892597491052
 10
11.69879036082914
 20
-13.42905776371053
 10
11.69564105202914
 20
-13.42920394451052
 10
11.69141562482914
 20
-13.42936767891051
  0
LINE
  5
2B8
330
2
100
AcDbEntity
  8
0
100
AcDbLine
 10
17.78436140562915
 20
-11.81662840531051
 30
0.0
 11
17.77040215282915
 21
-11.82172169171052
 31
0.0
  0
LINE
  5
2B9
330
2
100
AcDbEntity
  8
0
100
AcDbLine
 10
17.77040215282915
 20
-11.82172169171052
 30
0.0
 11
17.75669515762914
 21
-11.82661710291051
 31
0.0
  0
LINE
  5
2BA
330
2
100
AcDbEntity
  8
0
100
AcDbLine
 10
17.75669515762914
 20
-11.82661710291051
 30
0.0
 11
17.74322277202916
 21
-11.8313272053105
 31
0.0
  0
LINE
  5
2BB
330
2
100
AcDbEntity
  8
0
100
AcDbLine
 10
17.74322277202916
 20
-11.8313272053105
 30
0.0
 11
17.72996881842915
 21
-11.83586344851053
 31
0.0
  0
LINE
  5
2BC
330
2
100
AcDbEntity
  8
0
100
AcDbLine
 10
17.72996881842915
 20
-11.83586344851053
 30
0.0
 11
17.71691701362914
 21
-11.84023665491053
 31
0.0
  0
LINE
  5
2BD
330
2
100
AcDbEntity
  8
0
100
AcDbLine
 10
17.73754845042916
 20
-11.8386878293105
 30
0.0
 11
17.74388441522916
 21
-11.83659165811052
 31
0.0
  0
LINE
  5
2BE
330
2
100
AcDbEntity
  8
0
100
AcDbLine
 10
17.71691701362914
 20
-11.84023665491053
 30
0.0
 11
17.70405120562916
 21
-11.8444569797105
 31
0.0
  0
LINE
  5
2BF
330
2
100
AcDbEntity
  8
0
100
AcDbLine
 10
17.72621990322915
 20
-11.84238031091052
 30
0.0
 11
17.73754845042916
 21
-11.8386878293105
 31
0.0
  0
LINE
  5
2C0
330
2
100
AcDbEntity
  8
0
100
AcDbLine
 10
17.70405120562916
 20
-11.8444569797105
 30
0.0
 11
17.69136921362915
 21
-11.84852955091053
 31
0.0
  0
LINE
  5
2C1
330
2
100
AcDbEntity
  8
0
100
AcDbLine
 10
17.71505251762915
 20
-11.84595105811052
 30
0.0
 11
17.72621990322915
 21
-11.84238031091052
 31
0.0
  0
LINE
  5
2C2
330
2
100
AcDbEntity
  8
0
100
AcDbLine
 10
17.69136921362915
 20
-11.84852955091053
 30
0.0
 11
17.67888834962915
 21
-11.85245324531052
 31
0.0
  0
LINE
  5
2C3
330
2
100
AcDbEntity
  8
0
100
AcDbLine
 10
17.70405126642916
 20
-11.84940190771052
 30
0.0
 11
17.71505251762915
 21
-11.84595105811052
 31
0.0
  0
LINE
  5
2C4
330
2
100
AcDbEntity
  8
0
100
AcDbLine
 10
17.69322108082915
 20
-11.85273473491053
 30
0.0
 11
17.70405126642916
 21
-11.84940190771052
 31
0.0
  0
LINE
  5
2C5
330
2
100
AcDbEntity
  8
0
100
AcDbLine
 10
17.67888834962915
 20
-11.85245324531052
 30
0.0
 11
17.66662742322916
 21
-11.85622681171053
 31
0.0
  0
LINE
  5
2C6
330
2
100
AcDbEntity
  8
0
100
AcDbLine
 10
17.68256686802915
 20
-11.85595145171051
 30
0.0
 11
17.69322108082915
 21
-11.85273473491053
 31
0.0
  0
LINE
  5
2C7
330
2
100
AcDbEntity
  8
0
100
AcDbLine
 10
17.66662742322916
 20
-11.85622681171053
 30
0.0
 11
17.65460531122915
 21
-11.85984933331052
 31
0.0
  0
LINE
  5
2C8
330
2
100
AcDbEntity
  8
0
100
AcDbLine
 10
17.67209349842915
 20
-11.85905399411051
 30
0.0
 11
17.68256686802915
 21
-11.85595145171051
 31
0.0
  0
LINE
  5
2C9
330
2
100
AcDbEntity
  8
0
100
AcDbLine
 10
17.65460531122915
 20
-11.85984933331052
 30
0.0
 11
17.64284093842915
 21
-11.86332021011053
 31
0.0
  0
LINE
  5
2CA
330
2
100
AcDbEntity
  8
0
100
AcDbLine
 10
17.64284093842915
 20
-11.86332021011053
 30
0.0
 11
17.63135327282916
 21
-11.86663913171053
 31
0.0
  0
LWPOLYLINE
  5
2CB
330
2
100
AcDbEntity
  8
0
100
AcDbPolyline
 90
        3
 70
     0
 43
0.0
 10
17.65673310642915
 20
-11.86349803731052
 10
17.66180581362914
 20
-11.86204432851052
 10
17.67209349842914
 20
-11.85905399411051
  0
LWPOLYLINE
  5
2CC
330
2
100
AcDbEntity
  8
0
100
AcDbPolyline
 90
       27
 70
     0
 43
0.0
 10
9.72689294962916
 20
8.74050705068948
 10
8.944806677629145
 20
8.736283932289474
 10
8.147087634429141
 20
8.723274293889467
 10
7.34342028722915
 20
8.701271076289494
 10
6.534028255229145
 20
8.670088877889476
 10
5.718996295229146
 20
8.629557226689463
 10
4.899458816829138
 20
8.579950465089474
 10
4.076307959229154
 20
8.522119725889474
 10
3.259068900029149
 20
8.456816825089482
 10
2.458505757629154
 20
8.385237581889477
 10
1.68173294802915
 20
8.308589068289485
 10
0.928086344829154
 20
8.227427948289495
 10
0.1959082664291429
 20
8.14213610828947
 10
-0.5150090631708509
 20
8.053139706689485
 10
-1.202401795970843
 20
7.961212724289488
 10
-1.86403047757085
 20
7.867284673089478
 10
-2.498532928770856
 20
7.7722117514895
 10
-3.105644765570843
 20
7.676693317889494
 10
-3.685177293570859
 20
7.581383005889485
 10
-4.236626891970843
 20
7.486962604289495
 10
-4.759093424770838
 20
7.394153215489474
 10
-5.251746485570862
 20
7.303657148289495
 10
-5.713863282370851
 20
7.216125978689468
 10
-6.144892488770864
 20
7.132178676289477
 10
-6.544329106370838
 20
7.052414111489476
 10
-6.911848933570837
 20
6.977342823489472
 10
-7.247059139970843
 20
6.907449439489489
  0
LWPOLYLINE
  5
2CE
330
2
100
AcDbEntity
  8
0
100
AcDbPolyline
 90
        6
 70
     0
 43
0.0
 10
21.30235465202915
 20
0.6596009514894732
 10
21.28506063762916
 20
0.7092438426894958
 10
21.28158128562915
 20
0.7541966586894731
 10
21.25965523282914
 20
0.7938768922894682
 10
21.20703570322914
 20
0.8318225994894774
 10
21.12402050322916
 20
0.8696522234894885
  0
LWPOLYLINE
  5
2D2
330
2
100
AcDbEntity
  8
0
100
AcDbPolyline
 90
        3
 70
     0
 43
0.0
 10
23.00335368882915
 20
-1.760976168510516
 10
23.16747259762914
 20
0.0705617530894713
 10
23.37074887122915
 20
2.315671869889463
  0
LWPOLYLINE
  5
2D3
330
2
100
AcDbEntity
  8
0
100
AcDbPolyline
 90
        3
 70
     0
 43
0.0
 10
23.37074828562916
 20
2.315671889089465
 10
23.49210187762915
 20
3.644785497089465
 10
23.62329614876638
 20
5.071336100289478
  0
LWPOLYLINE
  5
2D6
330
2
100
AcDbEntity
  8
0
100
AcDbPolyline
 90
       11
 70
     0
 43
0.0
 10
18.58255628082915
 20
-12.30916818611051
 10
18.59541007602913
 20
-12.28941116371051
 10
18.63117075602914
 20
-12.2284578389105
 10
18.66329455442914
 20
-12.1675829797105
 10
18.69190093362914
 20
-12.10711685171053
 10
18.71692342322916
 20
-12.04789363891051
 10
18.73846414802915
 20
-11.99054189491052
 10
18.75668283922914
 20
-11.93570164211052
 10
18.77193502162916
 20
-11.8836460741105
 10
18.78445721522913
 20
-11.83502559731052
 10
18.79055489522914
 20
-11.80843247891052
  0
LWPOLYLINE
  5
2D7
330
2
100
AcDbEntity
  8
0
100
AcDbPolyline
 90
       80
 70
     0
 43
0.0
 10
18.73258253842914
 20
-11.12819292531053
 10
18.72226911922913
 20
-11.1413742117105
 10
18.71189805042914
 20
-11.15440460691052
 10
18.70147439282914
 20
-11.16728193011052
 10
18.69100285202915
 20
-11.18000453491051
 10
18.68048779922915
 20
-11.19257125491051
 10
18.66993328082915
 20
-11.20498136371053
 10
18.65934303122915
 20
-11.21723452371053
 10
18.64872049522915
 20
-11.22933075091051
 10
18.63806882962916
 20
-11.24127037811052
 10
18.62739092882915
 20
-11.25305401331052
 10
18.61668914642913
 20
-11.2646828229105
 10
18.60596271602915
 20
-11.27616122771052
 10
18.59521327442914
 20
-11.28749089171051
 10
18.58444328882916
 20
-11.29867253971053
 10
18.57365510482915
 20
-11.30970700211053
 10
18.56285094802913
 20
-11.32059520051051
 10
18.55203293202916
 20
-11.33133813811053
 10
18.54120306642914
 20
-11.34193689011052
 10
18.53036326162916
 20
-11.3523925925105
 10
18.51951533682916
 20
-11.36270643891051
 10
18.50866101522913
 20
-11.37287966451051
 10
18.49780194002915
 20
-11.38291355251052
 10
18.48693967122915
 20
-11.39280941331053
 10
18.47607569202915
 20
-11.40256859571052
 10
18.46521141202916
 20
-11.41219246771051
 10
18.45434817042914
 20
-11.42168242131051
 10
18.44348723922914
 20
-11.43103986611051
 10
18.43262982322914
 20
-11.44026622611053
 10
18.42177706802914
 20
-11.44936293491053
 10
18.41093006162916
 20
-11.45833143571052
 10
18.40008975762916
 20
-11.46717323731052
 10
18.38925688722915
 20
-11.47589007411053
 10
18.37843331282914
 20
-11.48448283571052
 10
18.36762108882913
 20
-11.49295225811052
 10
18.35682224722916
 20
-11.50129909331052
 10
18.34603879442914
 20
-11.50952410771051
 10
18.33527272082915
 20
-11.51762807891051
 10
18.32452599282913
 20
-11.52561180051054
 10
18.31380055602915
 20
-11.53347607251051
 10
18.30309833842915
 20
-11.54122171251051
 10
18.29242124882915
 20
-11.54884954291053
 10
18.28177117362915
 20
-11.55636040051052
 10
18.27114998482915
 20
-11.56375512851052
 10
18.26055953362916
 20
-11.57103457971052
 10
18.25000165362914
 20
-11.57819961811053
 10
18.23947815922915
 20
-11.58525111251051
 10
18.22899084882914
 20
-11.59218994291051
 10
18.21854150162914
 20
-11.5990169941105
 10
18.20813187922914
 20
-11.60573316051053
 10
18.19776372242915
 20
-11.61233934291052
 10
18.18743875762914
 20
-11.61883644851052
 10
18.17715868882913
 20
-11.6252253957105
 10
18.16692520402915
 20
-11.63150710451051
 10
18.15673995762915
 20
-11.63768250931052
 10
18.14660473362914
 20
-11.64375246611051
 10
18.13652169042916
 20
-11.6497176053105
 10
18.12649301042915
 20
-11.65557855571051
 10
18.11652085522914
 20
-11.6613359653105
 10
18.10660735762914
 20
-11.66699050771051
 10
18.09675462642914
 20
-11.67254287891051
 10
18.08696474322914
 20
-11.67799379891052
 10
18.07723975282914
 20
-11.68334400851051
 10
18.06758167122916
 20
-11.68859427091052
 10
18.05799247922914
 20
-11.69374537491051
 10
18.04847411922915
 20
-11.69879813011052
 10
18.03902849682916
 20
-11.70375336531051
 10
18.02965747762914
 20
-11.70861193651051
 10
18.02036251282913
 20
-11.7133749061105
 10
18.01114408722915
 20
-11.7180438117105
 10
18.00200250162916
 20
-11.72262025651053
 10
17.99293801042915
 20
-11.72710582451053
 10
17.98395082962915
 20
-11.73150209011051
 10
17.97504112562916
 20
-11.73581061171051
 10
17.96620902802914
 20
-11.74003293331053
 10
17.95745462802915
 20
-11.74417058611052
 10
17.94877797362914
 20
-11.74822508051053
 10
17.94017908402915
 20
-11.75219791571051
 10
17.93165794002914
 20
-11.75609057011052
 10
17.92321449522916
 20
-11.75990450291052
  0
LINE
  5
2D8
330
2
100
AcDbEntity
  8
0
100
AcDbLine
 10
16.07661380722914
 20
-13.60779132211052
 30
0.0
 11
16.12267918802914
 21
-13.57950798131053
 31
0.0
  0
LINE
  5
2D9
330
2
100
AcDbEntity
  8
0
100
AcDbLine
 10
-8.785451181570856
 20
6.569686076289492
 30
0.0
 11
-8.792910242370844
 21
6.567780636289491
 31
0.0
  0
LINE
  5
2DA
330
2
100
AcDbEntity
  8
0
100
AcDbLine
 10
-8.777667714370856
 20
6.571632273089484
 30
0.0
 11
-8.785451181570856
 21
6.569686076289492
 31
0.0
  0
LINE
  5
2DB
330
2
100
AcDbEntity
  8
0
100
AcDbLine
 10
-8.765008035970843
 20
6.574728735489493
 30
0.0
 11
-8.777667714370856
 21
6.571632273089484
 31
0.0
  0
LINE
  5
2DC
330
2
100
AcDbEntity
  8
0
100
AcDbLine
 10
-8.745543424770851
 20
6.579374100289477
 30
0.0
 11
-8.765008035970843
 21
6.574728735489493
 31
0.0
  0
LINE
  5
2DD
330
2
100
AcDbEntity
  8
0
100
AcDbLine
 10
-8.715729219970846
 20
6.586319295489467
 30
0.0
 11
-8.745543424770851
 21
6.579374100289477
 31
0.0
  0
LINE
  5
2DE
330
2
100
AcDbEntity
  8
0
100
AcDbLine
 10
-8.678319408770839
 20
6.594856588289481
 30
0.0
 11
-8.715729219970846
 21
6.586319295489467
 31
0.0
  0
LINE
  5
2DF
330
2
100
AcDbEntity
  8
0
100
AcDbLine
 10
-8.543153653570833
 20
6.625234892289491
 30
0.0
 11
-8.678319408770839
 21
6.594856588289481
 31
0.0
  0
LWPOLYLINE
  5
2E0
330
2
100
AcDbEntity
  8
0
100
AcDbPolyline
 90
        6
 70
     0
 43
0.0
 10
-7.545702939970851
 20
6.844065405889502
 10
-7.808679787970845
 20
6.787415341889477
 10
-8.043563957570853
 20
6.736161604289499
 10
-8.246570984770841
 20
6.691385913089483
 10
-8.417583658370858
 20
6.653344647489497
 10
-8.54315365357084
 20
6.625234892289491
  0
LINE
  5
2E1
330
2
100
AcDbEntity
  8
0
100
AcDbLine
 10
-7.247059139970836
 20
6.907449439489489
 30
0.0
 11
-7.545702746370857
 21
6.844065447489477
 31
0.0
  0
LWPOLYLINE
  5
2E2
330
2
100
AcDbEntity
  8
0
100
AcDbPolyline
 90
       28
 70
     0
 43
0.0
 10
26.99948648402914
 20
6.844065447489477
 10
26.70084290962916
 20
6.90744943308946
 10
26.36563273842915
 20
6.977342809089471
 10
25.99811295602916
 20
7.052414089089474
 10
25.59867638642916
 20
7.132178644289474
 10
25.16764723442915
 20
7.216125937089465
 10
24.70553050002914
 20
7.303657097089491
 10
24.21287750322915
 20
7.394153153089469
 10
23.69041104242916
 20
7.486962532289489
 10
23.13896151922915
 20
7.581382922689478
 10
22.55942907282914
 20
7.676693226689486
 10
21.95231732242914
 20
7.772211650689463
 10
21.31781496082914
 20
7.867284564289469
 10
20.65618637522914
 20
7.961212609089479
 10
19.96879374162915
 20
8.053139585089475
 10
19.25787651602914
 20
8.142135981889488
 10
18.52569854482914
 20
8.227427818689484
 10
17.77205205042915
 20
8.308588938689474
 10
16.99527934802915
 20
8.385237453889466
 10
16.19471630642914
 20
8.456816701889472
 10
15.37747734162914
 20
8.522119609089465
 10
14.55432657522914
 20
8.579950356289465
 10
13.73478918642914
 20
8.629557129089484
 10
12.91975731442914
 20
8.670088797889469
 10
12.11036536722915
 20
8.701271012289488
 10
11.30669810322913
 20
8.723274250689463
 10
10.50897914162914
 20
8.736283909889472
 10
9.72689294962916
 20
8.74050705068948
  0
LWPOLYLINE
  5
2E3
330
2
100
AcDbEntity
  8
0
100
AcDbPolyline
 90
        6
 70
     0
 43
0.0
 10
27.99693739122915
 20
6.625234892289462
 10
27.87136739602914
 20
6.653344647489468
 10
27.70035472402915
 20
6.691385913089483
 10
27.49734769522913
 20
6.73616160428947
 10
27.26246352722915
 20
6.787415341889477
 10
26.99948667762913
 20
6.844065405889473
  0
LINE
  5
2E4
330
2
100
AcDbEntity
  8
0
100
AcDbLine
 10
28.16186044882915
 20
6.588078865089478
 30
0.0
 11
27.99693739122916
 21
6.625234892289462
 31
0.0
  0
LINE
  5
2E5
330
2
100
AcDbEntity
  8
0
100
AcDbLine
 10
28.19027186322916
 20
6.58150123628949
 30
0.0
 11
28.16186044882915
 21
6.588078865089478
 31
0.0
  0
LINE
  5
2E6
330
2
100
AcDbEntity
  8
0
100
AcDbLine
 10
28.21289826802914
 20
6.576147716289462
 30
0.0
 11
28.19027186322916
 21
6.58150123628949
 31
0.0
  0
LINE
  5
2E7
330
2
100
AcDbEntity
  8
0
100
AcDbLine
 10
28.22703561842915
 20
6.57272089708946
 30
0.0
 11
28.21289826802914
 21
6.576147716289462
 31
0.0
  0
LINE
  5
2E8
330
2
100
AcDbEntity
  8
0
100
AcDbLine
 10
28.23543324082914
 20
6.570641407489468
 30
0.0
 11
28.22703561842915
 21
6.57272089708946
 31
0.0
  0
LWPOLYLINE
  5
2E9
330
2
100
AcDbEntity
  8
0
100
AcDbPolyline
 90
        3
 70
     0
 43
0.0
 10
28.24706449042915
 20
6.567684775489489
 10
28.24326930962914
 20
6.568661020289461
 10
28.23543324082914
 20
6.570641407489468
  0
LWPOLYLINE
  5
2EC
330
2
100
AcDbEntity
  8
0
100
AcDbPolyline
 90
       18
 70
     0
 43
0.0
 10
22.97270543602914
 20
-1.280577549310514
 10
22.91329056242915
 20
-1.057316733310521
 10
22.85462052402914
 20
-0.857491406910519
 10
22.79898493682915
 20
-0.6847246725105194
 10
22.74729980402915
 20
-0.5370177909105323
 10
22.69982094962915
 20
-0.4109746181105081
 10
22.65407394642914
 20
-0.2972410709105233
 10
22.60633973362914
 20
-0.1857818117105054
 10
22.55652591762915
 20
-0.0762301749105276
 10
22.50211502642915
 20
0.0365329658894851
 10
22.44203225042915
 20
0.1537516170894904
 10
22.37425281362914
 20
0.2774748090894903
 10
22.29967096402916
 20
0.4037732858894927
 10
22.21370090322915
 20
0.5373266874894754
 10
22.11511625842914
 20
0.6756011194894782
 10
22.00750450802914
 20
0.8095419114894824
 10
21.88495271122914
 20
0.9420264762894774
 10
21.74523782322915
 20
1.068801873089462
  0
LWPOLYLINE
  5
2ED
330
2
100
AcDbEntity
  8
0
100
AcDbPolyline
 90
       29
 70
     0
 43
0.0
 10
-8.804006066370845
 20
6.56484950668949
 10
-8.807842888770863
 20
6.563802437889485
 10
-8.811838213570837
 20
6.56269057068949
 10
-8.816055320770857
 20
6.56149093548948
 10
-8.820578563970855
 20
6.56017200108949
 10
-8.825523096770837
 20
6.558689226689502
 10
-8.831038600770853
 20
6.556981327489474
 10
-8.837306319170863
 20
6.554967415489478
 10
-8.844585112770857
 20
6.552525890689487
 10
-8.853178936770859
 20
6.549494349889478
 10
-8.863431919170864
 20
6.545657285889468
 10
-8.875558666370864
 20
6.540796428289475
 10
-8.889536634370841
 20
6.534740604289488
 10
-8.90512532397085
 20
6.527387053889476
 10
-8.922391519170844
 20
6.518462733889499
 10
-8.941636215170859
 20
6.507486298689492
 10
-8.963265215170849
 20
6.493747887489497
 10
-8.986944883970863
 20
6.476826943489477
 10
-9.011676421570854
 20
6.456776065089492
 10
-9.036399978370837
 20
6.433896111489481
 10
-9.060491898370855
 20
6.408310636289492
 10
-9.083561179970843
 20
6.379999138689477
 10
-9.10522267597085
 20
6.348965815489499
 10
-9.125078957570849
 20
6.315265887489466
 10
-9.142728029570861
 20
6.279009434689477
 10
-9.157799951170858
 20
6.240281893889495
 10
-9.169909587970863
 20
6.199218599489491
 10
-9.178662040770859
 20
6.156013029889471
 10
-9.182815232770849
 20
6.122006007489495
  0
LWPOLYLINE
  5
2EE
330
2
100
AcDbEntity
  8
0
100
AcDbPolyline
 90
        3
 70
     0
 43
0.0
 10
-8.792910242370851
 20
6.567780636289491
 10
-8.796584560770838
 20
6.56682430668949
 10
-8.804006066370845
 20
6.56484950668949
  0
LINE
  5
2F3
330
2
100
AcDbEntity
  8
0
100
AcDbLine
 10
28.72689186962916
 20
5.071336100289478
 30
0.0
 11
28.63659679282916
 21
6.122030463489473
 31
0.0
  0
LWPOLYLINE
  5
2F4
330
2
100
AcDbEntity
  8
0
100
AcDbPolyline
 90
       30
 70
     0
 43
0.0
 10
28.63659897042916
 20
6.122006007489467
 10
28.63198069682914
 20
6.158918465089477
 10
28.62249716882914
 20
6.203926391489467
 10
28.60939474802916
 20
6.246545167489479
 10
28.59312601682916
 20
6.28657114028946
 10
28.57412535442915
 20
6.32387278668947
 10
28.55281781842916
 20
6.358354324289486
 10
28.52965925682914
 20
6.389907082689468
 10
28.50509228882916
 20
6.418491639489481
 10
28.47954799442914
 20
6.444118905089489
 10
28.45349419762914
 20
6.466802959489463
 10
28.42780209682914
 20
6.486320847489487
 10
28.40361438482915
 20
6.502462917889467
 10
28.38190421042915
 20
6.515311993089461
 10
28.36301065362914
 20
6.525343005889489
 10
28.34666671762914
 20
6.533216425089484
 10
28.33259894962916
 20
6.539429665089478
 10
28.32042481202916
 20
6.544405521089494
 10
28.30994084242914
 20
6.548404916289463
 10
28.30097116722913
 20
6.551625233089488
 10
28.29330036242913
 20
6.554237921089487
 10
28.28668552722914
 20
6.556390959489483
 10
28.28086880562915
 20
6.558211468289478
 10
28.27567029202916
 20
6.559784039489478
 10
28.27094234802913
 20
6.561172394689471
 10
28.26655769682915
 20
6.56242676748949
 10
28.26241971922914
 20
6.563583538689478
 10
28.25845986002915
 20
6.564668025089481
 10
28.25461458962914
 20
6.565702039489487
 10
28.24706449042915
 20
6.567684775489489
  0
ARC
  5
2F5
330
2
100
AcDbEntity
  8
0
100
AcDbCircle
 10
4.355820312829145
 20
-13.55366389971049
 30
0.0
 40
0.875
100
AcDbArc
 50
196.6838486157
 51
270.0
  0
ARC
  5
2F6
330
2
100
AcDbEntity
  8
0
100
AcDbCircle
 10
12.48694404722915
 20
-13.55366389971049
 30
0.0
 40
0.875
100
AcDbArc
 50
199.8508429392999
 51
270.0
  0
ARC
  5
2F7
330
2
100
AcDbEntity
  8
0
100
AcDbCircle
 10
15.09796342642915
 20
-13.55366389971049
 30
0.0
 40
0.875
100
AcDbArc
 50
270.0
 51
343.3161513842999
  0
ARC
  5
2F8
330
2
100
AcDbEntity
  8
0
100
AcDbCircle
 10
6.966826058429155
 20
-13.55366389971049
 30
0.0
 40
0.875
100
AcDbArc
 50
270.0008927291999
 51
340.1491570606999
  0
ARC
  5
2F9
330
2
100
AcDbEntity
  8
0
100
AcDbCircle
 10
10.99833847922915
 20
-13.67866389971049
 30
0.0
 40
0.3125
100
AcDbArc
 50
270.0
 51
315.0000000001
  0
ARC
  5
2FA
330
2
100
AcDbEntity
  8
0
100
AcDbCircle
 10
8.455445260029144
 20
-13.67866389971049
 30
0.0
 40
0.3125
100
AcDbArc
 50
224.9999999999
 51
270.0
  0
LINE
  5
333
330
2
100
AcDbEntity
  8
CENTER
 48
4.0
100
AcDbLine
 10
7.235551362197597
 20
3.062348877320921
 30
0.0
 11
12.21823237706066
 21
3.062348877320921
 31
0.0
  0
LINE
  5
334
330
2
100
AcDbEntity
  8
CENTER
 48
4.0
100
AcDbLine
 10
9.726891869629127
 20
0.5710083698893911
 30
0.0
 11
9.726891869629127
 21
5.553689384752452
 31
0.0
  0
LINE
  5
335
330
2
100
AcDbEntity
  8
CENTER
 48
4.0
100
AcDbLine
 10
9.726891869629163
 20
-16.92000440714205
 30
0.0
 11
9.726891869629163
 21
-11.93732339227899
 31
0.0
  0
ENDSEC
  0
SECTION
  2
OBJECTS
  0
DICTIONARY
  5
C
330
0
100
AcDbDictionary
  3
ACAD_COLOR
350
2E
  3
ACAD_GROUP
350
29
  3
ACAD_LAYOUT
350
B
  3
ACAD_MATERIAL
350
2D
  3
ACAD_MLINESTYLE
350
2A
  3
ACAD_PLOTSETTINGS
350
2B
  3
ACAD_PLOTSTYLENAME
350
2C
  3
ACAD_TABLESTYLE
350
2F
  3
ACDBHEADERROUNDTRIPXREC
350
3EE
  3
ACDBVARIABLEDICTIONARY
350
306
  0
DICTIONARY
  5
12
330
11
100
AcDbDictionary
280
     1
  3
ACAD_LAYERFILTERS
360
13
  3
ACLYDICTIONARY
360
14
  0
DICTIONARY
  5
3
330
2
100
AcDbDictionary
280
     1
  3
ACAD_LAYOUTSELFREF
360
40F
  3
ACAD_SORTENTS
360
301
  0
DICTIONARY
  5
365
330
D
100
AcDbDictionary
280
     1
  3
ACAD_LAYOUTSELFREF
360
410
  0
DICTIONARY
  5
2E
102
{ACAD_REACTORS
330
C
102
}
330
C
100
AcDbDictionary
  0
DICTIONARY
  5
29
102
{ACAD_REACTORS
330
C
102
}
330
C
100
AcDbDictionary
  0
DICTIONARY
  5
B
102
{ACAD_REACTORS
330
C
102
}
330
C
100
AcDbDictionary
  0
DICTIONARY
  5
2D
102
{ACAD_REACTORS
330
C
102
}
330
C
100
AcDbDictionary
  0
DICTIONARY
  5
2A
102
{ACAD_REACTORS
330
C
102
}
330
C
100
AcDbDictionary
  3
STANDARD
350
30
  0
DICTIONARY
  5
2B
102
{ACAD_REACTORS
330
C
102
}
330
C
100
AcDbDictionary
  0
ACDBDICTIONARYWDFLT
  5
2C
102
{ACAD_REACTORS
330
C
102
}
330
C
100
AcDbDictionary
281
     1
  3
Normal
350
7
100
AcDbDictionaryWithDefault
340
7
  0
DICTIONARY
  5
2F
102
{ACAD_REACTORS
330
C
102
}
330
C
100
AcDbDictionary
  3
STANDARD
350
31
  0
DICTIONARY
  5
3EE
102
{ACAD_REACTORS
330
C
102
}
330
C
100
AcDbDictionary
  3
CEPSNTYPE
350
3F8
  3
DIMSTYLEDATA
350
3FC
  3
FINGERPRINTGUID
350
3F9
  3
HYPERLINKBASE
350
3F1
  3
INSUNITS
350
3F7
  3
LAYOUTDICT
350
3F3
  3
LWETCUNION
350
3F6
  3
PLOTSETDICT
350
3F4
  3
PLOTSTYLNAMDICT
350
3F5
  3
PSVPSCALE
350
3FB
  3
PUCSBASE
350
3FF
  3
PUCSORGBACK
350
405
  3
PUCSORGBOTTOM
350
401
  3
PUCSORGFRONT
350
404
  3
PUCSORGLEFT
350
402
  3
PUCSORGRIGHT
350
403
  3
PUCSORGTOP
350
400
  3
PUCSORTHOREF
350
3FD
  3
PUCSORTHOVIEW
350
3FE
  3
STYLESHEET
350
3F2
  3
TSTACKALIGN
350
3EF
  3
TSTACKSIZE
350
3F0
  3
UCSBASE
350
408
  3
UCSORGBACK
350
40E
  3
UCSORGBOTTOM
350
40A
  3
UCSORGFRONT
350
40D
  3
UCSORGLEFT
350
40B
  3
UCSORGRIGHT
350
40C
  3
UCSORGTOP
350
409
  3
UCSORTHOREF
350
406
  3
UCSORTHOVIEW
350
407
  3
VERSIONGUID
350
3FA
  0
DICTIONARY
  5
306
102
{ACAD_REACTORS
330
C
102
}
330
C
100
AcDbDictionary
  3
CTABLESTYLE
350
307
  3
DIMASSOC
350
32B
  3
HIDETEXT
350
32A
  3
PROJECTNAME
350
32C
  0
DICTIONARY
  5
13
102
{ACAD_REACTORS
330
12
102
}
330
12
100
AcDbDictionary
  0
DICTIONARY
  5
14
102
{ACAD_REACTORS
330
12
102
}
330
12
100
AcDbDictionary
1001
ACAD
1000
<All
  0
XRECORD
  5
40F
102
{ACAD_REACTORS
330
3
102
}
330
3
100
AcDbXrecord
340
2
  0
SORTENTSTABLE
  5
301
102
{ACAD_REACTORS
330
3
102
}
330
3
100
AcDbSortentsTable
330
2
  0
XRECORD
  5
410
102
{ACAD_REACTORS
330
365
102
}
330
365
100
AcDbXrecord
340
D
  0
MLINESTYLE
  5
30
102
{ACAD_REACTORS
330
2A
102
}
330
2A
100
AcDbMlineStyle
  2
STANDARD
 70
     0
  3

 62
   256
 51
90.0
 52
90.0
 71
     2
 49
0.5
 62
   256
  6
BYLAYER
 49
-0.5
 62
   256
  6
BYLAYER
  0
ACDBPLACEHOLDER
  5
7
102
{ACAD_REACTORS
330
2C
102
}
330
0
100
AcDbPlaceHolder
280
     0
  0
ACAD_PROXY_OBJECT
  5
31
102
{ACAD_REACTORS
330
2F
102
}
330
2F
100
AcDbProxyObject
 90
      499
 91
      525
 93
     1841
310
4214DD185B99185C9928B81E85EB51B8AE3F2E07A17AD46E2B8FC02B5E8DC0F42B1CFD028000000C1008070000C3001FDFF8000000C1003FBFF000000182007F7FE00000030400FEFFC00000060801FDFF8000000C1003FBFF00000018200000000000000681FA0B0000001820100E000186003FBFF000000182007F7FE000
310
00030400FEFFC00000060801FDFF8000000C1003FBFF000000182007F7FE000000304000AD7A3703D0AC73F4160000003040201C00030C007F7FE00000030400FEFFC00000060801FDFF8000000C1003FBFF000000182007F7FE00000030400FEFFC000000608018
340
17
340
17
340
17
 94
        0
1001
ACAD
1000
AcadProxyRoundTripData
1071
      524
1071
   851991
1070
     0
  0
XRECORD
  5
3F8
102
{ACAD_REACTORS
330
3EE
102
}
330
3EE
100
AcDbXrecord
 90
        0
  0
XRECORD
  5
3FC
102
{ACAD_REACTORS
330
3EE
102
}
330
3EE
100
AcDbXrecord
1000
DSTYLE
1002
{
1070
   341
340
23
1070
   342
340
23
1070
   343
340
23
1070
   344
340
23
1002
}
  0
XRECORD
  5
3F9
102
{ACAD_REACTORS
330
3EE
102
}
330
3EE
100
AcDbXrecord
  1
{C4330E99-ED2B-4A94-B626-BF75C6E6D665}
  0
XRECORD
  5
3F1
102
{ACAD_REACTORS
330
3EE
102
}
330
3EE
100
AcDbXrecord
  1

  0
XRECORD
  5
3F7
102
{ACAD_REACTORS
330
3EE
102
}
330
3EE
100
AcDbXrecord
 90
        1
  0
XRECORD
  5
3F3
102
{ACAD_REACTORS
330
3EE
102
}
330
3EE
100
AcDbXrecord
340
B
  0
XRECORD
  5
3F6
102
{ACAD_REACTORS
330
3EE
102
}
330
3EE
100
AcDbXrecord
 90
    10781
  0
XRECORD
  5
3F4
102
{ACAD_REACTORS
330
3EE
102
}
330
3EE
100
AcDbXrecord
340
2B
  0
XRECORD
  5
3F5
102
{ACAD_REACTORS
330
3EE
102
}
330
3EE
100
AcDbXrecord
340
2C
  0
XRECORD
  5
3FB
102
{ACAD_REACTORS
330
3EE
102
}
330
3EE
100
AcDbXrecord
 40
0.0
  0
XRECORD
  5
3FF
102
{ACAD_REACTORS
330
3EE
102
}
330
3EE
100
AcDbXrecord
340
0
  0
XRECORD
  5
405
102
{ACAD_REACTORS
330
3EE
102
}
330
3EE
100
AcDbXrecord
 10
0.0
 20
0.0
 30
0.0
  0
XRECORD
  5
401
102
{ACAD_REACTORS
330
3EE
102
}
330
3EE
100
AcDbXrecord
 10
0.0
 20
0.0
 30
0.0
  0
XRECORD
  5
404
102
{ACAD_REACTORS
330
3EE
102
}
330
3EE
100
AcDbXrecord
 10
0.0
 20
0.0
 30
0.0
  0
XRECORD
  5
402
102
{ACAD_REACTORS
330
3EE
102
}
330
3EE
100
AcDbXrecord
 10
0.0
 20
0.0
 30
0.0
  0
XRECORD
  5
403
102
{ACAD_REACTORS
330
3EE
102
}
330
3EE
100
AcDbXrecord
 10
0.0
 20
0.0
 30
0.0
  0
XRECORD
  5
400
102
{ACAD_REACTORS
330
3EE
102
}
330
3EE
100
AcDbXrecord
 10
0.0
 20
0.0
 30
0.0
  0
XRECORD
  5
3FD
102
{ACAD_REACTORS
330
3EE
102
}
330
3EE
100
AcDbXrecord
340
0
  0
XRECORD
  5
3FE
102
{ACAD_REACTORS
330
3EE
102
}
330
3EE
100
AcDbXrecord
 70
     0
  0
XRECORD
  5
3F2
102
{ACAD_REACTORS
330
3EE
102
}
330
3EE
100
AcDbXrecord
  1

  0
XRECORD
  5
3EF
102
{ACAD_REACTORS
330
3EE
102
}
330
3EE
100
AcDbXrecord
 90
        1
  0
XRECORD
  5
3F0
102
{ACAD_REACTORS
330
3EE
102
}
330
3EE
100
AcDbXrecord
 90
       70
  0
XRECORD
  5
408
102
{ACAD_REACTORS
330
3EE
102
}
330
3EE
100
AcDbXrecord
340
0
  0
XRECORD
  5
40E
102
{ACAD_REACTORS
330
3EE
102
}
330
3EE
100
AcDbXrecord
 10
0.0
 20
0.0
 30
0.0
  0
XRECORD
  5
40A
102
{ACAD_REACTORS
330
3EE
102
}
330
3EE
100
AcDbXrecord
 10
0.0
 20
0.0
 30
0.0
  0
XRECORD
  5
40D
102
{ACAD_REACTORS
330
3EE
102
}
330
3EE
100
AcDbXrecord
 10
0.0
 20
0.0
 30
0.0
  0
XRECORD
  5
40B
102
{ACAD_REACTORS
330
3EE
102
}
330
3EE
100
AcDbXrecord
 10
0.0
 20
0.0
 30
0.0
  0
XRECORD
  5
40C
102
{ACAD_REACTORS
330
3EE
102
}
330
3EE
100
AcDbXrecord
 10
0.0
 20
0.0
 30
0.0
  0
XRECORD
  5
409
102
{ACAD_REACTORS
330
3EE
102
}
330
3EE
100
AcDbXrecord
 10
0.0
 20
0.0
 30
0.0
  0
XRECORD
  5
406
102
{ACAD_REACTORS
330
3EE
102
}
330
3EE
100
AcDbXrecord
340
0
  0
XRECORD
  5
407
102
{ACAD_REACTORS
330
3EE
102
}
330
3EE
100
AcDbXrecord
 70
     0
  0
XRECORD
  5
3FA
102
{ACAD_REACTORS
330
3EE
102
}
330
3EE
100
AcDbXrecord
  1
{6687F616-031C-40F6-A32D-5CBC01E3D0DA}
  0
DICTIONARYVAR
  5
307
102
{ACAD_REACTORS
330
306
102
}
330
306
100
DictionaryVariables
280
     0
  1
STANDARD
  0
DICTIONARYVAR
  5
32B
102
{ACAD_REACTORS
330
306
102
}
330
306
100
DictionaryVariables
280
     0
  1
1
  0
DICTIONARYVAR
  5
32A
102
{ACAD_REACTORS
330
306
102
}
330
306
100
DictionaryVariables
280
     0
  1
1
  0
DICTIONARYVAR
  5
32C
102
{ACAD_REACTORS
330
306
102
}
330
306
100
DictionaryVariables
280
     0
  1

  0
ENDSEC
  0
EOF
