  0
SECTION
  2
HEADER
  9
$ACADVER
  1
AC1014
  9
$ACADMAINTVER
 70
     9
  9
$DWGCODEPAGE
  3
ANSI_1252
  9
$INSBASE
 10
6.7686914167
 20
7.9030969744
 30
0.0
  9
$EXTMIN
 10
-23.48786933066077
 20
-10.94126670868104
 30
-0.0015258207003583
  9
$EXTMAX
 10
43.54297452840756
 20
27.27340840792112
 30
0.0000000349246037
  9
$LIMMIN
 10
0.0
 20
0.0
  9
$LIMMAX
 10
17.0
 20
11.0
  9
$ORTHOMODE
 70
     1
  9
$REGENMODE
 70
     1
  9
$FILLMODE
 70
     1
  9
$QTEXTMODE
 70
     0
  9
$MIRRTEXT
 70
     1
  9
$DRAGMODE
 70
     2
  9
$LTSCALE
 40
2.0
  9
$OSMODE
 70
    55
  9
$ATTMODE
 70
     1
  9
$TEXTSIZE
 40
0.2
  9
$TRACEWID
 40
0.05
  9
$TEXTSTYLE
  7
STANDARD
  9
$CLAYER
  8
0
  9
$CELTYPE
  6
BYLAYER
  9
$CECOLOR
 62
   256
  9
$CELTSCALE
 40
1.0
  9
$DELOBJ
 70
     1
  9
$DISPSILH
 70
     0
  9
$DIMSCALE
 40
1.0
  9
$DIMASZ
 40
0.1875
  9
$DIMEXO
 40
0.0625
  9
$DIMDLI
 40
0.38
  9
$DIMRND
 40
0.0
  9
$DIMDLE
 40
0.0
  9
$DIMEXE
 40
0.18
  9
$DIMTP
 40
0.0
  9
$DIMTM
 40
0.0
  9
$DIMTXT
 40
0.125
  9
$DIMCEN
 40
0.09
  9
$DIMTSZ
 40
0.0
  9
$DIMTOL
 70
     0
  9
$DIMLIM
 70
     0
  9
$DIMTIH
 70
     1
  9
$DIMTOH
 70
     1
  9
$DIMSE1
 70
     0
  9
$DIMSE2
 70
     0
  9
$DIMTAD
 70
     0
  9
$DIMZIN
 70
     4
  9
$DIMBLK
  1
_FILLED
  9
$DIMASO
 70
     1
  9
$DIMSHO
 70
     1
  9
$DIMPOST
  1

  9
$DIMAPOST
  1

  9
$DIMALT
 70
     0
  9
$DIMALTD
 70
     2
  9
$DIMALTF
 40
25.4
  9
$DIMLFAC
 40
1.0
  9
$DIMTOFL
 70
     0
  9
$DIMTVP
 40
0.0
  9
$DIMTIX
 70
     0
  9
$DIMSOXD
 70
     0
  9
$DIMSAH
 70
     0
  9
$DIMBLK1
  1

  9
$DIMBLK2
  1

  9
$DIMSTYLE
  2
STANDARD
  9
$DIMCLRD
 70
     0
  9
$DIMCLRE
 70
     0
  9
$DIMCLRT
 70
     0
  9
$DIMTFAC
 40
1.0
  9
$DIMGAP
 40
0.09
  9
$DIMJUST
 70
     0
  9
$DIMSD1
 70
     0
  9
$DIMSD2
 70
     0
  9
$DIMTOLJ
 70
     1
  9
$DIMTZIN
 70
     4
  9
$DIMALTZ
 70
     0
  9
$DIMALTTZ
 70
     0
  9
$DIMFIT
 70
     3
  9
$DIMUPT
 70
     0
  9
$DIMUNIT
 70
     2
  9
$DIMDEC
 70
     1
  9
$DIMTDEC
 70
     1
  9
$DIMALTU
 70
     2
  9
$DIMALTTD
 70
     2
  9
$DIMTXSTY
  7
STANDARD
  9
$DIMAUNIT
 70
     0
  9
$LUNITS
 70
     2
  9
$LUPREC
 70
     4
  9
$SKETCHINC
 40
0.1
  9
$FILLETRAD
 40
0.0
  9
$AUNITS
 70
     0
  9
$AUPREC
 70
     0
  9
$MENU
  1
acad
  9
$ELEVATION
 40
0.0
  9
$PELEVATION
 40
0.0
  9
$THICKNESS
 40
0.0
  9
$LIMCHECK
 70
     0
  9
$BLIPMODE
 70
     0
  9
$CHAMFERA
 40
0.0
  9
$CHAMFERB
 40
0.0
  9
$CHAMFERC
 40
0.0
  9
$CHAMFERD
 40
0.0
  9
$SKPOLY
 70
     0
  9
$TDCREATE
 40
2453676.838151215
  9
$TDUPDATE
 40
2453685.569883958
  9
$TDINDWG
 40
0.0306308565
  9
$TDUSRTIMER
 40
0.0306308565
  9
$USRTIMER
 70
     1
  9
$ANGBASE
 50
0.0
  9
$ANGDIR
 70
     0
  9
$PDMODE
 70
     3
  9
$PDSIZE
 40
0.3125
  9
$PLINEWID
 40
0.0
  9
$COORDS
 70
     1
  9
$SPLFRAME
 70
     0
  9
$SPLINETYPE
 70
     6
  9
$SPLINESEGS
 70
     8
  9
$ATTDIA
 70
     0
  9
$ATTREQ
 70
     1
  9
$HANDLING
 70
 22529
  9
$HANDSEED
  5
20E
  9
$SURFTAB1
 70
     6
  9
$SURFTAB2
 70
     6
  9
$SURFTYPE
 70
     6
  9
$SURFU
 70
     6
  9
$SURFV
 70
     6
  9
$UCSNAME
  2

  9
$UCSORG
 10
0.0
 20
0.0
 30
0.0
  9
$UCSXDIR
 10
1.0
 20
0.0
 30
0.0
  9
$UCSYDIR
 10
0.0
 20
1.0
 30
0.0
  9
$PUCSNAME
  2

  9
$PUCSORG
 10
0.0
 20
0.0
 30
0.0
  9
$PUCSXDIR
 10
1.0
 20
0.0
 30
0.0
  9
$PUCSYDIR
 10
0.0
 20
1.0
 30
0.0
  9
$USERI1
 70
     0
  9
$USERI2
 70
     0
  9
$USERI3
 70
     0
  9
$USERI4
 70
     0
  9
$USERI5
 70
     0
  9
$USERR1
 40
0.0
  9
$USERR2
 40
0.0
  9
$USERR3
 40
0.0
  9
$USERR4
 40
0.0
  9
$USERR5
 40
0.0
  9
$WORLDVIEW
 70
     1
  9
$SHADEDGE
 70
     3
  9
$SHADEDIF
 70
    70
  9
$TILEMODE
 70
     1
  9
$MAXACTVP
 70
    16
  9
$PINSBASE
 10
0.0
 20
0.0
 30
0.0
  9
$PLIMCHECK
 70
     0
  9
$PEXTMIN
 10
1.000000000000000E+20
 20
1.000000000000000E+20
 30
1.000000000000000E+20
  9
$PEXTMAX
 10
-1.000000000000000E+20
 20
-1.000000000000000E+20
 30
-1.000000000000000E+20
  9
$PLIMMIN
 10
0.0
 20
0.0
  9
$PLIMMAX
 10
12.0
 20
9.0
  9
$UNITMODE
 70
     0
  9
$VISRETAIN
 70
     0
  9
$PLINEGEN
 70
     1
  9
$PSLTSCALE
 70
     0
  9
$TREEDEPTH
 70
  3020
  9
$PICKSTYLE
 70
     1
  9
$CMLSTYLE
  2
STANDARD
  9
$CMLJUST
 70
     0
  9
$CMLSCALE
 40
1.0
  9
$PROXYGRAPHICS
 70
     0
  9
$MEASUREMENT
 70
     0
  0
ENDSEC
  0
SECTION
  2
CLASSES
  0
CLASS
  1
ACDBDICTIONARYWDFLT
  2
AcDbDictionaryWithDefault
  3
AutoCAD 2000
 90
        0
280
     0
281
     0
  0
CLASS
  1
ACDBPLACEHOLDER
  2
AcDbPlaceHolder
  3
AutoCAD 2000
 90
        0
280
     0
281
     0
  0
CLASS
  1
LAYOUT
  2
AcDbLayout
  3
AutoCAD 2000
 90
        0
280
     0
281
     0
  0
CLASS
  1
LWPOLYLINE
  2
AcDbPolyline
  3
AutoCAD 2000
 90
        0
280
     0
281
     1
  0
CLASS
  1
IMAGE
  2
AcDbRasterImage
  3
ISM
 90
      127
280
     0
281
     1
  0
CLASS
  1
OLE2FRAME
  2
AcDbOle2Frame
  3
AutoCAD 2000
 90
        0
280
     0
281
     1
  0
CLASS
  1
HATCH
  2
AcDbHatch
  3
AutoCAD 2000
 90
        0
280
     0
281
     1
  0
CLASS
  1
DICTIONARYVAR
  2
AcDbDictionaryVar
  3
AutoCAD 2000
 90
        0
280
     0
281
     0
  0
CLASS
  1
RASTERVARIABLES
  2
AcDbRasterVariables
  3
ISM
 90
        0
280
     0
281
     0
  0
CLASS
  1
IMAGEDEF
  2
AcDbRasterImageDef
  3
ISM
 90
        0
280
     0
281
     0
  0
CLASS
  1
IMAGEDEF_REACTOR
  2
AcDbRasterImageDefReactor
  3
ISM
 90
        1
280
     0
281
     0
  0
CLASS
  1
IDBUFFER
  2
AcDbIdBuffer
  3
AutoCAD 2000
 90
        0
280
     0
281
     0
  0
CLASS
  1
SPATIAL_FILTER
  2
AcDbSpatialFilter
  3
AutoCAD 2000
 90
        0
280
     0
281
     0
  0
CLASS
  1
XRECORD
  2
AcDbXrecord
  3
AutoCAD 2000
 90
        0
280
     0
281
     0
  0
CLASS
  1
SORTENTSTABLE
  2
AcDbSortentsTable
  3
AutoCAD 2000
 90
        0
280
     0
281
     0
  0
CLASS
  1
LAYER_INDEX
  2
AcDbLayerIndex
  3
AutoCAD 2000
 90
        0
280
     0
281
     0
  0
CLASS
  1
SPATIAL_INDEX
  2
AcDbSpatialIndex
  3
AutoCAD 2000
 90
        0
280
     0
281
     0
  0
CLASS
  1
OBJECT_PTR
  2
CAseDLPNTableRecord
  3
ASE-LPNTableRecord
 90
        1
280
     0
281
     0
  0
CLASS
  1
PLOTSETTINGS
  2
AcDbPlotSettings
  3
AutoCAD 2000
 90
        0
280
     0
281
     0
  0
CLASS
  1
VBA_PROJECT
  2
AcDbVbaProject
  3
acadvba
 90
        0
280
     0
281
     0
  0
CLASS
  1
WIPEOUT
  2
AcDbWipeout
  3
"WipeOut|Product Desc: Object Enabler for WipeOut entity^I^I^I^I^I^I|Company: Autodesk, Inc.^I^I^I^I^I^I|WEB Address: www.autodesk.com"
 90
      127
280
     0
281
     1
  0
CLASS
  1
WIPEOUTVARIABLES
  2
AcDbWipeoutVariables
  3
"WipeOut|Product Desc:     WipeOut Dbx Application|Company:          Autodesk, Inc.|WEB Address:      www.autodesk.com"
 90
        0
280
     0
281
     0
  0
CLASS
  1
RTEXT
  2
RText
  3
RText|AutoCAD Express Tool|expresstools@autodesk.com
 90
        0
280
     1
281
     1
  0
CLASS
  1
ARCALIGNEDTEXT
  2
AcDbArcAlignedText
  3
ATEXT|AutoCAD Express Tool|expresstools@autodesk.com
 90
        0
280
     1
281
     1
  0
CLASS
  1
TABLESTYLE
  2
AcDbTableStyle
  3
ObjectDBX Classes
 90
     2047
280
     0
281
     0
  0
CLASS
  1
ACAD_PROXY_OBJECT_WRAPPER
  2
AcDbProxyObjectWrapper
  3
AutoCAD 2000
 90
        0
280
     0
281
     0
  0
CLASS
  1
LONG_TRANSACTION
  2
AcDbLongTransaction
  3
AutoCAD 2000
 90
        0
280
     0
281
     0
  0
CLASS
  1
LWPOLYLINE
  2
AcDbPolyline
  3
AutoCAD 2000
 90
        0
280
     0
281
     1
  0
CLASS
  1
HATCH
  2
AcDbHatch
  3
AutoCAD 2000
 90
        0
280
     0
281
     1
  0
CLASS
  1
XRECORD
  2
AcDbXrecord
  3
AutoCAD 2000
 90
        0
280
     0
281
     0
  0
CLASS
  1
LONG_TRANSACTION
  2
AcDbLongTransaction
  3
AutoCAD 2000
 90
        0
280
     0
281
     0
  0
CLASS
  1
LWPOLYLINE
  2
AcDbPolyline
  3
AutoCAD 2000
 90
        0
280
     0
281
     1
  0
CLASS
  1
HATCH
  2
AcDbHatch
  3
AutoCAD 2000
 90
        0
280
     0
281
     1
  0
CLASS
  1
XRECORD
  2
AcDbXrecord
  3
AutoCAD 2000
 90
        0
280
     0
281
     0
  0
ENDSEC
  0
SECTION
  2
TABLES
  0
TABLE
  2
VPORT
  5
1E
330
0
100
AcDbSymbolTable
 70
     3
  0
VPORT
  5
1EA
330
1E
100
AcDbSymbolTableRecord
100
AcDbViewportTableRecord
  2
*ACTIVE
 70
     0
 10
0.0
 20
0.0
 11
1.0
 21
1.0
 12
10.02755255074285
 22
8.166070805229477
 13
0.0
 23
0.0
 14
1.0
 24
1.0
 15
0.0
 25
0.0
 16
0.0
 26
0.0
 36
1.0
 17
0.0
 27
0.0
 37
0.0
 40
46.37577530316456
 41
1.786792452830188
 42
50.0
 43
0.0
 44
0.0
 50
0.0
 51
0.0
 71
     0
 72
   100
 73
     1
 74
     1
 75
     0
 76
     0
 77
     0
 78
     0
  0
ENDTAB
  0
TABLE
  2
LTYPE
  5
19
330
0
100
AcDbSymbolTable
 70
     2
  0
LTYPE
  5
1A
330
19
100
AcDbSymbolTableRecord
100
AcDbLinetypeTableRecord
  2
BYBLOCK
 70
     0
  3

 72
    65
 73
     0
 40
0.0
  0
LTYPE
  5
1B
330
19
100
AcDbSymbolTableRecord
100
AcDbLinetypeTableRecord
  2
BYLAYER
 70
     0
  3

 72
    65
 73
     0
 40
0.0
  0
LTYPE
  5
8
330
19
100
AcDbSymbolTableRecord
100
AcDbLinetypeTableRecord
  2
CONTINUOUS
 70
     0
  3
Solid line
 72
    65
 73
     0
 40
0.0
  0
LTYPE
  5
102
330
19
100
AcDbSymbolTableRecord
100
AcDbLinetypeTableRecord
  2
CENTER
 70
     0
  3
____ _ ____ _ ____ _ ____ _ ____ _ ____ _ ____
 72
    65
 73
     4
 40
0.6
 49
0.375
 74
     0
 49
-0.075
 74
     0
 49
0.075
 74
     0
 49
-0.075
 74
     0
  0
ENDTAB
  0
TABLE
  2
LAYER
  5
11
102
{ACAD_XDICTIONARY
360
12
102
}
330
0
100
AcDbSymbolTable
 70
     3
  0
LAYER
  5
6
330
11
100
AcDbSymbolTableRecord
100
AcDbLayerTableRecord
  2
0
 70
     0
 62
     7
  6
CONTINUOUS
  0
LAYER
  5
101
330
11
100
AcDbSymbolTableRecord
100
AcDbLayerTableRecord
  2
CENTER
 70
     0
 62
     1
  6
CENTER
1001
ACAECLAYERSTANDARD
1000

1000

  0
LAYER
  5
162
330
11
100
AcDbSymbolTableRecord
100
AcDbLayerTableRecord
  2
DEFPOINTS
 70
     0
 62
     7
  6
CONTINUOUS
  0
ENDTAB
  0
TABLE
  2
STYLE
  5
16
330
0
100
AcDbSymbolTable
 70
     1
  0
STYLE
  5
17
330
16
100
AcDbSymbolTableRecord
100
AcDbTextStyleTableRecord
  2
STANDARD
 70
     0
 40
0.0
 41
0.8
 50
0.0
 71
     0
 42
0.2
  3
txt
  4

  0
ENDTAB
  0
TABLE
  2
VIEW
  5
1C
330
0
100
AcDbSymbolTable
 70
     0
  0
ENDTAB
  0
TABLE
  2
UCS
  5
1D
330
0
100
AcDbSymbolTable
 70
     0
  0
ENDTAB
  0
TABLE
  2
APPID
  5
20
330
0
100
AcDbSymbolTable
 70
     4
  0
APPID
  5
15
330
20
100
AcDbSymbolTableRecord
100
AcDbRegAppTableRecord
  2
ACAD
 70
     0
  0
APPID
  5
103
330
20
100
AcDbSymbolTableRecord
100
AcDbRegAppTableRecord
  2
ACAECLAYERSTANDARD
 70
     0
  0
APPID
  5
135
330
20
100
AcDbSymbolTableRecord
100
AcDbRegAppTableRecord
  2
DCO15
 70
     0
  0
APPID
  5
13D
330
20
100
AcDbSymbolTableRecord
100
AcDbRegAppTableRecord
  2
ACAD_DSTYLE_DIMTEXT_FILL
 70
     0
  0
ENDTAB
  0
TABLE
  2
DIMSTYLE
  5
21
330
0
100
AcDbSymbolTable
 70
     1
  0
DIMSTYLE
105
22
330
21
100
AcDbSymbolTableRecord
100
AcDbDimStyleTableRecord
  2
STANDARD
 70
     0
  3

  4

  5
_FILLED
  6

  7

 40
1.0
 41
0.1875
 42
0.0625
 43
0.38
 44
0.18
 45
0.0
 46
0.0
 47
0.0
 48
0.0
140
0.125
141
0.09
142
0.0
143
25.4
144
1.0
145
0.0
146
1.0
147
0.09
 71
     0
 72
     0
 73
     1
 74
     1
 75
     0
 76
     0
 77
     0
 78
     4
170
     0
171
     2
172
     0
173
     0
174
     0
175
     0
176
     0
177
     0
178
     0
270
     2
271
     1
272
     1
273
     2
274
     2
340
17
275
     0
280
     0
281
     0
282
     0
283
     1
284
     4
285
     0
286
     0
287
     3
288
     0
  0
ENDTAB
  0
TABLE
  2
BLOCK_RECORD
  5
1
330
0
100
AcDbSymbolTable
 70
     1
  0
BLOCK_RECORD
  5
2
102
{ACAD_XDICTIONARY
360
3
102
}
330
1
100
AcDbSymbolTableRecord
100
AcDbBlockTableRecord
  2
*MODEL_SPACE
  0
BLOCK_RECORD
  5
D
102
{ACAD_XDICTIONARY
360
1A1
102
}
330
1
100
AcDbSymbolTableRecord
100
AcDbBlockTableRecord
  2
*PAPER_SPACE
  0
BLOCK_RECORD
  5
23
330
1
100
AcDbSymbolTableRecord
100
AcDbBlockTableRecord
  2
_FILLED
  0
ENDTAB
  0
ENDSEC
  0
SECTION
  2
BLOCKS
  0
BLOCK
  5
5
330
2
100
AcDbEntity
  8
0
100
AcDbBlockBegin
  2
*MODEL_SPACE
 70
     0
 10
0.0
 20
0.0
 30
0.0
  3
*MODEL_SPACE
  1

  0
ENDBLK
  5
9
330
2
100
AcDbEntity
  8
0
100
AcDbBlockEnd
  0
BLOCK
  5
E
330
D
100
AcDbEntity
 67
     1
  8
0
100
AcDbBlockBegin
  2
*PAPER_SPACE
 70
     0
 10
0.0
 20
0.0
 30
0.0
  3
*PAPER_SPACE
  1

  0
ENDBLK
  5
F
330
D
100
AcDbEntity
 67
     1
  8
0
100
AcDbBlockEnd
  0
BLOCK
  5
24
330
23
100
AcDbEntity
  8
0
100
AcDbBlockBegin
  2
_FILLED
 70
     0
 10
0.0
 20
0.0
 30
0.0
  3
_FILLED
  1

  0
SOLID
  5
25
330
23
100
AcDbEntity
  8
0
  6
BYBLOCK
 62
     0
100
AcDbTrace
 10
0.0
 20
0.0
 30
0.0
 11
-1.0
 21
0.1066666667
 31
0.0
 12
-1.0
 22
-0.1066666667
 32
0.0
 13
-1.0
 23
-0.1066666667
 33
0.0
  0
ENDBLK
  5
26
330
23
100
AcDbEntity
  8
0
  6
BYBLOCK
 62
     0
100
AcDbBlockEnd
  0
ENDSEC
  0
SECTION
  2
ENTITIES
  0
LWPOLYLINE
  5
32
330
2
100
AcDbEntity
  8
0
100
AcDbPolyline
 90
       53
 70
     0
 43
0.0
 10
38.66796678185
 20
-3.187739296949999
 10
38.56230536904999
 20
-3.319334194550009
 10
38.44718449705
 20
-3.458935690550006
 10
38.33018867625
 20
-3.59696750175
 10
38.21133621545
 20
-3.733408122550002
 10
38.09064995145
 20
-3.86823164095
 10
37.96815791144999
 20
-4.001407557749999
 10
37.84387961864999
 20
-4.132915592949998
 10
37.71783860745
 20
-4.262731780150005
 10
37.59005951944999
 20
-4.39083163295001
 10
37.46056368905
 20
-4.517194436150006
 10
37.32937266505
 20
-4.641799477749998
 10
37.19651416585
 20
-4.76462077855001
 10
37.06200919145
 20
-4.885639140150004
 10
36.92588092584999
 20
-5.004833752950005
 10
36.78816164424999
 20
-5.122176546550008
 10
36.64887002185
 20
-5.23765152735001
 10
36.50803105065
 20
-5.351237807350003
 10
36.36567267625
 20
-5.462912524149999
 10
36.22181645865
 20
-5.572658189750001
 10
36.07648567785
 20
-5.680456471349998
 10
35.92970985225
 20
-5.786284712950006
 10
35.78151780425
 20
-5.890121559350006
 10
35.63193174504999
 20
-5.991950874549999
 10
35.48098277545
 20
-6.091750941750007
 10
35.32869502184999
 20
-6.189505087349999
 10
35.17509311144999
 20
-6.28519670655001
 10
35.02021010665
 20
-6.378804730550001
 10
34.86407403625
 20
-6.470311839350003
 10
34.70671458344999
 20
-6.559700599350009
 10
34.54816019784999
 20
-6.64695499615
 10
34.38844211785
 20
-6.732058087349997
 10
34.22758749384999
 20
-6.814995648950002
 10
34.06562638664999
 20
-6.895752234550002
 10
33.90259040745
 20
-6.974312367350009
 10
33.73850930505
 20
-7.050662215350001
 10
33.57341323145
 20
-7.124787924149998
 10
33.40732890344999
 20
-7.196677570550008
 10
33.24028160425
 20
-7.26632008575001
 10
33.07231248265
 20
-7.333698328950006
 10
32.90345115945
 20
-7.398800242550009
 10
32.73371996585
 20
-7.46161713055001
 10
32.56315526985
 20
-7.522135578550006
 10
32.39178862024999
 20
-7.580344525750007
 10
32.21964803784999
 20
-7.636234404150002
 10
32.04676983944999
 20
-7.689793540150006
 10
31.87318688585
 20
-7.741012050550011
 10
31.69892829065
 20
-7.789881509750003
 10
31.52402240105
 20
-7.836394242549999
 10
31.34850734024999
 20
-7.880540368950008
 10
31.17241178985
 20
-7.922312847349999
 10
30.99576366185
 20
-7.961705020150006
 10
30.81860308425
 20
-7.998708018550004
  0
LWPOLYLINE
  5
33
330
2
100
AcDbEntity
  8
0
100
AcDbPolyline
 90
       23
 70
     0
 43
0.0
 10
30.81860308425
 20
-7.998708018550004
 10
30.73738079784999
 20
-8.014836823350009
 10
30.65605972425
 20
-8.030461698549999
 10
30.57464266504999
 20
-8.045582117750001
 10
30.49313350024999
 20
-8.060197381750001
 10
30.41153731465
 20
-8.074306621750011
 10
30.32985519624999
 20
-8.087909693750006
 10
30.24809220585
 20
-8.101005791350004
 10
30.16624960585
 20
-8.113594751350007
 10
30.08432981065
 20
-8.125676212150011
 10
30.00233669545
 20
-8.13724961535
 10
29.92027393064999
 20
-8.148314458550004
 10
29.83814415464999
 20
-8.158870410550008
 10
29.75595044425
 20
-8.16891708415001
 10
29.67369604104999
 20
-8.178454096950005
 10
29.59138410345
 20
-8.187481092150008
 10
29.50901778985
 20
-8.195997733750004
 10
29.42660036904999
 20
-8.20400369215001
 10
29.34413493545
 20
-8.21149867775
 10
29.26162488424999
 20
-8.218482388150007
 10
29.17907304585
 20
-8.224954591349998
 10
29.09648329224999
 20
-8.230914991350005
 10
29.01385851944999
 20
-8.236363396150011
  0
LWPOLYLINE
  5
34
330
2
100
AcDbEntity
  8
0
100
AcDbPolyline
 90
       29
 70
     0
 43
0.0
 10
30.73980953864999
 20
-4.257827597750008
 10
30.86710836105
 20
-4.248056317749998
 10
30.99513482825
 20
-4.236273642550003
 10
31.12383485225
 20
-4.222458738550002
 10
31.25315443145
 20
-4.206593263350001
 10
31.38307281065
 20
-4.188656516150004
 10
31.51357649384999
 20
-4.168627356150011
 10
31.64452174025
 20
-4.146507589750001
 10
31.77593095464999
 20
-4.122274456950009
 10
31.90788761544999
 20
-4.09589026335
 10
32.04036948264999
 20
-4.067334986550008
 10
32.17334238185
 20
-4.036591296950007
 10
32.30681317385
 20
-4.003632008950006
 10
32.44094825544999
 20
-3.968385492150005
 10
32.57550760904999
 20
-3.930884528950002
 10
32.70980308584999
 20
-3.891310784950007
 10
32.84423705224999
 20
-3.849539890550005
 10
32.97895263785
 20
-3.80550711135001
 10
33.11401309225
 20
-3.759166530550004
 10
33.24937996584999
 20
-3.710500842550004
 10
33.38523996265
 20
-3.659406751350005
 10
33.52143553864999
 20
-3.605903672950006
 10
33.65749028745
 20
-3.550152815350003
 10
33.79345826185
 20
-3.49211422495
 10
33.92956807144999
 20
-3.431667136950011
 10
34.06601026344999
 20
-3.368696188150011
 10
34.20265034025
 20
-3.303230156150007
 10
34.33951901704999
 20
-3.235221351350006
 10
34.43219683465
 20
-3.187775933750003
  0
LINE
  5
35
330
2
100
AcDbEntity
  8
0
100
AcDbLine
 10
29.01385851944999
 20
-8.236363396150004
 30
0.0
 11
28.98490394664999
 21
-8.238149645749992
 31
0.0
  0
LINE
  5
36
330
2
100
AcDbEntity
  8
0
100
AcDbLine
 10
-3.14406309015
 20
-10.18543354974999
 30
0.0
 11
-3.372671838949999
 21
-10.19935242975
 31
0.0
  0
LINE
  5
37
330
2
100
AcDbEntity
  8
0
100
AcDbLine
 10
9.642471945050003
 20
-9.410462973749993
 30
0.0
 11
-3.14406309015
 21
-10.18543354974999
 31
0.0
  0
LINE
  5
38
330
2
100
AcDbEntity
  8
0
100
AcDbLine
 10
28.98490394664999
 20
-8.238149645749992
 30
0.0
 11
9.642471945050003
 21
-9.410462973749993
 31
0.0
  0
LWPOLYLINE
  5
39
330
2
100
AcDbEntity
  8
0
100
AcDbPolyline
 90
        4
 70
     0
 43
0.0
 10
29.01809390024999
 20
-4.360095010549997
 10
29.57379968745
 20
-4.327281231349999
 10
30.12309186024999
 20
-4.294783439349998
 10
30.65921553865
 20
-4.263001631350007
  0
LINE
  5
3A
330
2
100
AcDbEntity
  8
0
100
AcDbLine
 10
-2.230598280549999
 20
-6.203326100150001
 30
0.0
 11
29.01809390024999
 21
-4.360095010549991
 31
0.0
  0
LWPOLYLINE
  5
3B
330
2
100
AcDbEntity
  8
0
100
AcDbPolyline
 90
        9
 70
     0
 43
0.0
 10
-3.372671838949997
 20
-10.19935242975
 10
-3.482704378150003
 20
-10.20571696575
 10
-3.592773587750002
 20
-10.21142049854999
 10
-3.70287352855
 20
-10.21646273855
 10
-3.813001626149997
 20
-10.22084360575
 10
-3.923155339749996
 20
-10.22456300415
 10
-4.03332954935
 20
-10.22762076095
 10
-4.143519502949999
 20
-10.23001675935
 10
-4.253721432549994
 20
-10.23175094655
  0
LINE
  5
3C
330
2
100
AcDbEntity
  8
0
100
AcDbLine
 10
-2.519814302949997
 20
-6.213613719350001
 30
0.0
 11
-2.573462506149995
 21
-6.215277552949992
 31
0.0
  0
LWPOLYLINE
  5
3D
330
2
100
AcDbEntity
  8
0
100
AcDbPolyline
 90
       27
 70
     0
 43
0.0
 10
-2.519814302949995
 20
-6.213613719350007
 10
-2.494988650150006
 20
-6.212876266549997
 10
-2.472051902949999
 20
-6.212180567350003
 10
-2.450886741350004
 20
-6.21152563775
 10
-2.431317435750003
 20
-6.210908303350009
 10
-2.413173168550002
 20
-6.210325112950002
 10
-2.396321168550002
 20
-6.209773458550003
 10
-2.380699238950001
 20
-6.20925278975001
 10
-2.366263413349997
 20
-6.208763045750004
 10
-2.35296963895
 20
-6.208304074549999
 10
-2.340765365349994
 20
-6.20787534015001
 10
-2.329558688549994
 20
-6.207474794550009
 10
-2.319248178150004
 20
-6.207099847350008
 10
-2.309745299750005
 20
-6.20674817535
 10
-2.300967323750001
 20
-6.206417487350009
 10
-2.292833307750001
 20
-6.206105381750006
 10
-2.285261310950005
 20
-6.205809223350001
 10
-2.278169371749996
 20
-6.20552615295
 10
-2.271500787749999
 20
-6.20525409695
 10
-2.265223128550005
 20
-6.20499178015001
 10
-2.259311515749999
 20
-6.204738076150007
 10
-2.253742597349997
 20
-6.204491733750003
 10
-2.248489051749999
 20
-6.204251055349999
 10
-2.24354792055
 20
-6.204015151350006
 10
-2.238949042149997
 20
-6.20378458335
 10
-2.234668421349994
 20
-6.203557252150005
 10
-2.230598280549997
 20
-6.203326100150007
  0
LWPOLYLINE
  5
3E
330
2
100
AcDbEntity
  8
0
100
AcDbPolyline
 90
        9
 70
     0
 43
0.0
 10
-4.253755954149994
 20
-6.240393312950004
 10
-4.077984811749999
 20
-6.239254303350008
 10
-3.802723326950001
 20
-6.236903268150001
 10
-3.554042682149997
 20
-6.234256167350011
 10
-3.329169078950002
 20
-6.231335564150001
 10
-3.126378768549997
 20
-6.228058548150002
 10
-2.942052760549998
 20
-6.224445188149999
 10
-2.765657350949993
 20
-6.220401946549998
 10
-2.573462506149994
 20
-6.215277552949999
  0
LWPOLYLINE
  5
3F
330
2
100
AcDbEntity
  8
0
100
AcDbPolyline
 90
       29
 70
     0
 43
0.0
 10
34.43219683465
 20
-3.187775933750003
 10
34.33951901704999
 20
-3.235221351350006
 10
34.20265034025
 20
-3.303230156150007
 10
34.06601026344999
 20
-3.368696188150011
 10
33.92956807144999
 20
-3.431667136950011
 10
33.79345826185
 20
-3.49211422495
 10
33.65749028745
 20
-3.550152815350003
 10
33.52143553864999
 20
-3.605903672950006
 10
33.38523996265
 20
-3.659406751350005
 10
33.24937996584999
 20
-3.710500842550004
 10
33.11401309225
 20
-3.759166530550004
 10
32.97895263785
 20
-3.80550711135001
 10
32.84423705224999
 20
-3.849539890550005
 10
32.70980308584999
 20
-3.891310784950007
 10
32.57550760904999
 20
-3.930884528950002
 10
32.44094825544999
 20
-3.968385492150005
 10
32.30681317385
 20
-4.003632008950006
 10
32.17334238185
 20
-4.036591296950007
 10
32.04036948264999
 20
-4.067334986550008
 10
31.90788761544999
 20
-4.09589026335
 10
31.77593095464999
 20
-4.122274456950009
 10
31.64452174025
 20
-4.146507589750001
 10
31.51357649384999
 20
-4.168627356150011
 10
31.38307281065
 20
-4.188656516150004
 10
31.25315443145
 20
-4.206593263350001
 10
31.12383485225
 20
-4.222458738550002
 10
30.99513482825
 20
-4.236273642550003
 10
30.86710836105
 20
-4.248056317749998
 10
30.73980953864999
 20
-4.257827597750008
  0
LWPOLYLINE
  5
40
330
2
100
AcDbEntity
  8
0
100
AcDbPolyline
 90
       53
 70
     0
 43
0.0
 10
30.81860308425
 20
-7.998708018550004
 10
30.99576366185
 20
-7.961705020150006
 10
31.17241178985
 20
-7.922312847349999
 10
31.34850734024999
 20
-7.880540368950008
 10
31.52402240105
 20
-7.836394242549999
 10
31.69892829065
 20
-7.789881509750003
 10
31.87318688585
 20
-7.741012050550011
 10
32.04676983944999
 20
-7.689793540150006
 10
32.21964803784999
 20
-7.636234404150002
 10
32.39178862024999
 20
-7.580344525750007
 10
32.56315526985
 20
-7.522135578550006
 10
32.73371996585
 20
-7.46161713055001
 10
32.90345115945
 20
-7.398800242550009
 10
33.07231248265
 20
-7.333698328950006
 10
33.24028160425
 20
-7.26632008575001
 10
33.40732890344999
 20
-7.196677570550008
 10
33.57341323145
 20
-7.124787924149998
 10
33.73850930505
 20
-7.050662215350001
 10
33.90259040745
 20
-6.974312367350009
 10
34.06562638664999
 20
-6.895752234550002
 10
34.22758749384999
 20
-6.814995648950002
 10
34.38844211785
 20
-6.732058087349997
 10
34.54816019784999
 20
-6.64695499615
 10
34.70671458344999
 20
-6.559700599350009
 10
34.86407403625
 20
-6.470311839350003
 10
35.02021010665
 20
-6.378804730550001
 10
35.17509311144999
 20
-6.28519670655001
 10
35.32869502184999
 20
-6.189505087349999
 10
35.48098277545
 20
-6.091750941750007
 10
35.63193174504999
 20
-5.991950874549999
 10
35.78151780425
 20
-5.890121559350006
 10
35.92970985225
 20
-5.786284712950006
 10
36.07648567785
 20
-5.680456471349998
 10
36.22181645865
 20
-5.572658189750001
 10
36.36567267625
 20
-5.462912524149999
 10
36.50803105065
 20
-5.351237807350003
 10
36.64887002185
 20
-5.23765152735001
 10
36.78816164424999
 20
-5.122176546550008
 10
36.92588092584999
 20
-5.004833752950005
 10
37.06200919145
 20
-4.885639140150004
 10
37.19651416585
 20
-4.76462077855001
 10
37.32937266505
 20
-4.641799477749998
 10
37.46056368905
 20
-4.517194436150006
 10
37.59005951944999
 20
-4.39083163295001
 10
37.71783860745
 20
-4.262731780150005
 10
37.84387961864999
 20
-4.132915592949998
 10
37.96815791144999
 20
-4.001407557749999
 10
38.09064995145
 20
-3.86823164095
 10
38.21133621545
 20
-3.733408122550002
 10
38.33018867625
 20
-3.59696750175
 10
38.44718449705
 20
-3.458935690550006
 10
38.56230536904999
 20
-3.319334194550009
 10
38.66796678185
 20
-3.187739296949999
  0
LINE
  5
41
330
2
100
AcDbEntity
  8
0
100
AcDbLine
 10
30.73993084745
 20
-4.259499394549998
 30
0.0
 11
30.65933548264999
 21
-4.264669476149998
 31
0.0
  0
LWPOLYLINE
  5
42
330
2
100
AcDbEntity
  8
0
100
AcDbPolyline
 90
       41
 70
     0
 43
0.0
 10
-17.73718125655
 20
8.166070760650001
 10
-17.73497340215
 20
8.21695622624999
 10
-17.73181615415
 20
8.26761401985
 10
-17.72777164375
 20
8.317213037449988
 10
-17.72279976695
 20
8.36640088064999
 10
-17.71696818935
 20
8.414676373449992
 10
-17.71025731574999
 20
8.46238177344999
 10
-17.70268840695
 20
8.509429224649991
 10
-17.69428166934999
 20
8.555744651849991
 10
-17.68498832855
 20
8.601576426249991
 10
-17.67488988214999
 20
8.64650031264999
 10
-17.66376680855
 20
8.691425912649989
 10
-17.65187608535
 20
8.735294602249993
 10
-17.63874245014999
 20
8.779754152649999
 10
-17.62487292854999
 20
8.822981800649998
 10
-17.60982583415
 20
8.866292055049996
 10
-17.59409775575
 20
8.908189479049994
 10
-17.57770243575
 20
8.948718880649991
 10
-17.56072896535
 20
8.987728315849992
 10
-17.54376626135
 20
9.024057983049999
 10
-17.52634565974999
 20
9.058856984649992
 10
-17.50922280854999
 20
9.090751235849992
 10
-17.49172121334999
 20
9.121124283849994
 10
-17.47434037335
 20
9.149178832649994
 10
-17.45664035735
 20
9.175669674249988
 10
-17.43885452535
 20
9.200119501449989
 10
-17.42081849494999
 20
9.22256617024999
 10
-17.40224948214999
 20
9.243060575049995
 10
-17.38349198614999
 20
9.260918336649993
 10
-17.36336291415
 20
9.27684896705
 10
-17.34312743894999
 20
9.289923211849995
 10
-17.32067572535
 20
9.301651650249993
 10
-17.29825448375
 20
9.311112152649997
 10
-17.27315104534999
 20
9.319783949449998
 10
-17.24819813335
 20
9.326959520649992
 10
-17.22072769014999
 20
9.333715600649995
 10
-17.19339444695
 20
9.339814971849989
 10
-17.16423413655
 20
9.346067315849992
 10
-17.13521092855
 20
9.352104370249989
 10
-17.10501963574999
 20
9.35823061504999
 10
-17.07497807415
 20
9.364216751049994
  0
LWPOLYLINE
  5
43
330
2
100
AcDbEntity
  8
0
100
AcDbPolyline
 90
       22
 70
     0
 43
0.0
 10
-15.50245553015
 20
8.166070827849992
 10
-15.50195511735
 20
8.237437487050002
 10
-15.50048406935
 20
8.30846880544999
 10
-15.49808117975
 20
8.379159699849992
 10
-15.49478382134999
 20
8.449508487049996
 10
-15.49062370295
 20
8.519527079049993
 10
-15.48563111735
 20
8.589230787849999
 10
-15.47983499575
 20
8.658635320649992
 10
-15.47325883415
 20
8.727757973449996
 10
-15.46592477015
 20
8.796616440649998
 10
-15.45785399895
 20
8.865228035849995
 10
-15.44906395574999
 20
8.933608547849999
 10
-15.43957114135
 20
9.001773389449994
 10
-15.42939136214999
 20
9.06973725505
 10
-15.41853767415
 20
9.13751199584999
 10
-15.40702244535
 20
9.20510874464999
 10
-15.39485735415
 20
9.272538424649994
 10
-15.38205133494999
 20
9.339811098249995
 10
-15.36861263574999
 20
9.40693661505
 10
-15.35454944535
 20
9.473922949449999
 10
-15.33986970614999
 20
9.540770565449989
 10
-15.32458130135
 20
9.607478048649994
  0
LWPOLYLINE
  5
44
330
2
100
AcDbEntity
  8
0
100
AcDbPolyline
 90
       32
 70
     0
 43
0.0
 10
-15.32458130135
 20
9.607478048649994
 10
-15.31610613015
 20
9.643539402249999
 10
-15.31171527895
 20
9.662028775049989
 10
-15.30720279575
 20
9.680842082249995
 10
-15.30255409015
 20
9.69999293024999
 10
-15.29775456854999
 20
9.719494920649992
 10
-15.29278964214999
 20
9.739361659850004
 10
-15.28764471574999
 20
9.75960675105
 10
-15.28230773015
 20
9.780233075849992
 10
-15.27677674455
 20
9.801200634249994
 10
-15.27105235095
 20
9.822458699849988
 10
-15.26513513975
 20
9.843956551049984
 10
-15.25902570134999
 20
9.865643463049991
 10
-15.25272462774999
 20
9.88746871424999
 10
-15.24623250775
 20
9.909381578249991
 10
-15.23954993174999
 20
9.931331331850003
 10
-15.23034161975
 20
9.960589771849981
 10
-15.22077935415
 20
9.989837699849999
 10
-15.21084671895
 20
10.01908919585
 10
-15.20315144535
 20
10.04102273665
 10
-15.19527447894999
 20
10.06287677825
 10
-15.18725169495
 20
10.08456189505
 10
-15.17911896534999
 20
10.10598866144999
 10
-15.17090227895
 20
10.12709417024999
 10
-15.16258807895
 20
10.14792159424999
 10
-15.15415291735
 20
10.16854062785
 10
-15.14557335095
 20
10.18902096224999
 10
-15.13682292855
 20
10.20943309185
 10
-15.12786317335
 20
10.22985072385
 10
-15.11865260855
 20
10.25034836385
 10
-15.10914975415
 20
10.27100051745
 10
-15.10374038135
 20
10.28254397985
  0
LWPOLYLINE
  5
45
330
2
100
AcDbEntity
  8
0
100
AcDbPolyline
 90
       67
 70
     0
 43
0.0
 10
-14.38641346615
 20
11.75563777664999
 10
-14.37333585334999
 20
11.80748750464999
 10
-14.36061421814999
 20
11.85720889505
 10
-14.34828144694999
 20
11.90474136705
 10
-14.33623513655
 20
11.95054101504999
 10
-14.32434372054999
 20
11.99516666304998
 10
-14.31249428054999
 20
12.03907134464998
 10
-14.28853921014999
 20
12.12618691264998
 10
-14.26387279255
 20
12.21368473185
 10
-14.23850547255
 20
12.30142032224998
 10
-14.21260206294999
 20
12.38874805505
 10
-14.18632594935
 20
12.47513035744998
 10
-14.17288331735
 20
12.51851938145
 10
-14.15902218615
 20
12.56272023745
 10
-14.14453480535
 20
12.60836885505
 10
-14.12918227574999
 20
12.65616051744999
 10
-14.11834693974999
 20
12.68955374624999
 10
-14.10695722615
 20
12.72437062304999
 10
-14.09495290615
 20
12.76076672384999
 10
-14.08228299894999
 20
12.79886549664999
 10
-14.06893350775
 20
12.83866185824999
 10
-14.05489968055
 20
12.88011860385
 10
-14.04018221175
 20
12.92318188224999
 10
-14.02480356854999
 20
12.96773127904998
 10
-14.00879166455
 20
13.01362973824998
 10
-13.98363829654999
 20
13.08474320064999
 10
-13.95716188375
 20
13.15833767744999
 10
-13.92940001975
 20
13.23417702784999
 10
-13.90038471575
 20
13.31206457184998
 10
-13.87013283414999
 20
13.39184744544999
 10
-13.83860623894999
 20
13.47350861825
 10
-13.80571588694999
 20
13.55715021665
 10
-13.77122410295
 20
13.64321520224999
 10
-13.74720077015
 20
13.70220099425
 10
-13.72224168375
 20
13.76266699424999
 10
-13.69624497974999
 20
13.82478161025
 10
-13.66910653335
 20
13.88871199905
 10
-13.64071314774999
 20
13.95462033185
 10
-13.61094936375
 20
14.02266753665
 10
-13.57971324855
 20
14.09297672545
 10
-13.54695698615
 20
14.16551978465
 10
-13.51264628535
 20
14.24023078784998
 10
-13.47679983415
 20
14.31693930944999
 10
-13.43964823414999
 20
14.39505691905
 10
-13.40147505494999
 20
14.47389068064998
 10
-13.36256751415
 20
14.55276375745
 10
-13.32322737815
 20
14.63106368704998
 10
-13.28376005655
 20
14.70819409985
 10
-13.24446048375
 20
14.78359672544999
 10
-13.20558171255
 20
14.85686566785
 10
-13.16736631735
 20
14.92763313345
 10
-13.12999165814999
 20
14.99565250624999
 10
-13.09337422774999
 20
15.06116192064999
 10
-13.05736529655
 20
15.12452069024999
 10
-13.02182385975
 20
15.18606441344999
 10
-12.98663981175
 20
15.24603381824999
 10
-12.95171076535
 20
15.30464591264999
 10
-12.89954353815
 20
15.39051420224998
 10
-12.84720724055
 20
15.47467160384999
 10
-12.79425303415
 20
15.55785722465
 10
-12.74048653335
 20
15.64034743745
 10
-12.68580239895
 20
15.72226553504998
 10
-12.63019699734999
 20
15.80358524224999
 10
-12.57368423895
 20
15.88425446144998
 10
-12.51624648695
 20
15.96426737024998
 10
-12.45786083734999
 20
16.04362610145
 10
-12.39851486135
 20
16.12231836064998
  0
LWPOLYLINE
  5
46
330
2
100
AcDbEntity
  8
0
100
AcDbPolyline
 90
       31
 70
     0
 43
0.0
 10
-13.21675745654999
 20
16.14836217024998
 10
-13.17628976214999
 20
16.22042890784999
 10
-13.13150797334999
 20
16.29552744385
 10
-13.08048991415
 20
16.37412212064998
 10
-13.02337476694999
 20
16.45612814624999
 10
-12.95968778455
 20
16.54155470144999
 10
-12.88907118294999
 20
16.63025210624999
 10
-12.81118597495
 20
16.72204577664999
 10
-12.72568608374999
 20
16.81675636385
 10
-12.63224784055
 20
16.91416763904999
 10
-12.53059793495
 20
17.01400925824998
 10
-12.42056775255
 20
17.11592066144999
 10
-12.30200296855
 20
17.21954149345001
 10
-12.17475987254999
 20
17.32451094145
 10
-12.03880739734999
 20
17.43038805505
 10
-11.89420032214999
 20
17.53669021024998
 10
-11.74111341174999
 20
17.64288116545
 10
-11.57975386614999
 20
17.74844384224999
 10
-11.41036965495
 20
17.85287811104999
 10
-11.23330385174999
 20
17.95566580544999
 10
-11.04886744694999
 20
18.05634505505
 10
-10.85705016535
 20
18.15465178464998
 10
-10.65785163575
 20
18.25031707905
 10
-10.45151508694999
 20
18.34295353024998
 10
-10.23855690134999
 20
18.43208120065
 10
-10.01985001494999
 20
18.51712916385
 10
-9.796118245350001
 20
18.59765729504999
 10
-9.567767112550001
 20
18.67338631904999
 10
-9.333652144550001
 20
18.74451001984999
 10
-9.091709875749998
 20
18.81140465984998
 10
-8.839771803749997
 20
18.87441738945
  0
LWPOLYLINE
  5
47
330
2
100
AcDbEntity
  8
0
100
AcDbPolyline
 90
       81
 70
     0
 43
0.0
 10
-14.91058739255
 20
20.54253257504999
 10
-15.05698871415
 20
20.45293541345
 10
-15.20344691735
 20
20.36045951424998
 10
-15.35005310935
 20
20.26500087265
 10
-15.49711017815
 20
20.16630748545
 10
-15.64472885815
 20
20.06424198144998
 10
-15.79322899414999
 20
19.95851054784998
 10
-15.94284002775
 20
19.84886386624998
 10
-16.09377107574999
 20
19.73505302625
 10
-16.24629596055
 20
19.61676513185
 10
-16.40073598615
 20
19.49362968225
 10
-16.55718466775
 20
19.36543984704999
 10
-16.71688022935
 20
19.23100872704998
 10
-16.87519379735
 20
19.09418117664998
 10
-17.02478173814999
 20
18.96165833185
 10
-17.16095790295
 20
18.83833360705
 10
-17.27987554935
 20
18.72860932865
 10
-17.38445090615
 20
18.63056091744999
 10
-17.48732991095
 20
18.53259904384998
 10
-17.59723150775
 20
18.42619035264999
 10
-17.71458390135
 20
18.31040466625
 10
-17.83844774935
 20
18.18556340224998
 10
-17.96851747734999
 20
18.05130149184998
 10
-18.10237857335
 20
17.90948723745001
 10
-18.23300636535
 20
17.76729902624998
 10
-18.35894147735
 20
17.62642524065
 10
-18.48109396374999
 20
17.48598178624999
 10
-18.59976003415
 20
17.34572091424999
 10
-18.71508115734999
 20
17.20556041825
 10
-18.82741458774999
 20
17.06513778145
 10
-18.93699280695
 20
16.92421850144998
 10
-19.04396836215
 20
16.78265723584999
 10
-19.14842337335
 20
16.64038513024999
 10
-19.25035819575
 20
16.49744080224999
 10
-19.34996750455
 20
16.35358528225
 10
-19.44736397335
 20
16.20867659584999
 10
-19.54263048695
 20
16.06260850785
 10
-19.63583697175
 20
15.91528410785
 10
-19.72703926135
 20
15.76661809665
 10
-19.81625477175
 20
15.61658052384998
 10
-19.90355893494999
 20
15.46503647264998
 10
-19.98911159735
 20
15.31168932545
 10
-20.07294912214999
 20
15.15644194464999
 10
-20.15507431095
 20
14.99925125984998
 10
-20.23549835095
 20
14.84005341984999
 10
-20.31422930455
 20
14.67878388545
 10
-20.39127001975
 20
14.51538190304998
 10
-20.46663481975
 20
14.34975545025
 10
-20.54028141015
 20
14.18193156864998
 10
-20.61221123415
 20
14.01183684705
 10
-20.68244823415
 20
13.83933190464998
 10
-20.75101060855
 20
13.66428029184999
 10
-20.81790608215
 20
13.48655933665
 10
-20.88313473174999
 20
13.30605076704998
 10
-20.94670195254999
 20
13.12260757024998
 10
-21.00850880214999
 20
12.93637998144999
 10
-21.06841373495
 20
12.74767782304999
 10
-21.12626060854999
 20
12.55692187745
 10
-21.18182090615
 20
12.36487424064998
 10
-21.23506527415
 20
12.17170734945
 10
-21.28583342134999
 20
11.97813000064999
 10
-21.33394584855
 20
11.78508306144999
 10
-21.37960376534999
 20
11.59205346945
 10
-21.42358397974999
 20
11.39573433345
 10
-21.46632562455
 20
11.19361190464999
 10
-21.50735046455
 20
10.98703249664998
 10
-21.54461999734999
 20
10.78604783424998
 10
-21.57908762294999
 20
10.58600404544998
 10
-21.61076076215
 20
10.38699993345
 10
-21.63930213495
 20
10.19175165664998
 10
-21.66489530615
 20
10.00053170945
 10
-21.68802576535
 20
9.810295405450006
 10
-21.70873235735
 20
9.620687671049992
 10
-21.72682097175
 20
9.433664584649989
 10
-21.74236498775
 20
9.249063527049997
 10
-21.75554073335
 20
9.065174330250002
 10
-21.76634921015
 20
8.881896584649993
 10
-21.77474795095
 20
8.699911047049994
 10
-21.78072722935
 20
8.519710586249999
 10
-21.78429760054999
 20
8.341645666249988
 10
-21.78548082134999
 20
8.166072760649996
  0
LWPOLYLINE
  5
48
330
2
100
AcDbEntity
  8
0
100
AcDbPolyline
 90
      101
 70
     0
 43
0.0
 10
-10.79123389014999
 20
25.30036037664999
 10
-10.98357710294999
 20
25.21886362465
 10
-11.17523291575
 20
25.13481456705
 10
-11.36612205174999
 20
25.04823749824999
 10
-11.55620744854999
 20
24.95913952064998
 10
-11.74546148054999
 20
24.86752382304999
 10
-11.93385021494999
 20
24.77339691584998
 10
-12.12134083095
 20
24.67676526944998
 10
-12.30790810775
 20
24.57763178785
 10
-12.49351856375
 20
24.47600418945
 10
-12.67813991895
 20
24.37189015745
 10
-12.86174940695
 20
24.26529230624999
 10
-13.04432331414999
 20
24.15621372384999
 10
-13.22581789814999
 20
24.04466996385
 10
-13.40616569334999
 20
23.93069203425
 10
-13.58536151575
 20
23.81427334944999
 10
-13.76339726775
 20
23.69540883425
 10
-13.94026330455
 20
23.57409339584998
 10
-14.11594720055
 20
23.45032290784999
 10
-14.29041480535
 20
23.32410836545
 10
-14.46361134455
 20
23.19547673184999
 10
-14.63548456534999
 20
23.06445492225
 10
-14.80603989335
 20
22.93102721184999
 10
-14.97525264375
 20
22.79520022944999
 10
-15.14309748534999
 20
22.65698128545
 10
-15.30950373655
 20
22.51641675105
 10
-15.47434501335
 20
22.37360591904999
 10
-15.63745386135
 20
22.22869326784999
 10
-15.79872567895
 20
22.08177892544998
 10
-15.95813034615
 20
21.93290116225
 10
-16.11565098455
 20
21.78208714625
 10
-16.27126810935
 20
21.62936722624999
 10
-16.42496444215
 20
21.47477039584998
 10
-16.57672470455
 20
21.31832371424999
 10
-16.72653308054999
 20
21.16005522944999
 10
-16.87437378935
 20
20.99999391744998
 10
-17.02022991095
 20
20.83817064064999
 10
-17.16408317655
 20
20.67461863744998
 10
-17.30591807095
 20
20.50936894304999
 10
-17.44572209975
 20
20.34244965344999
 10
-17.58348258454999
 20
20.17388969505
 10
-17.71918637815
 20
20.00371947745
 10
-17.85282093335
 20
19.83196930944998
 10
-17.98437394935
 20
19.65866982304999
 10
-18.11383398774999
 20
19.48385115105
 10
-18.24119018775
 20
19.30754335104998
 10
-18.36643133015
 20
19.12977842464999
 10
-18.48954694295
 20
18.95058844544999
 10
-18.61052922615
 20
18.77000226305
 10
-18.72937155095
 20
18.58804739744999
 10
-18.84606603574999
 20
18.40475372385
 10
-18.96060346774999
 20
18.22015397024998
 10
-19.07297496374999
 20
18.03428326624998
 10
-19.18317392694999
 20
17.84717612065
 10
-19.29119444535
 20
17.65886780705
 10
-19.39703290455
 20
17.46939158464999
 10
-19.50068776535
 20
17.27877876545
 10
-19.60215885974999
 20
17.08705984065
 10
-19.70144914774999
 20
16.89425784064999
 10
-19.79856017814999
 20
16.70039430784999
 10
-19.89349195255
 20
16.50549384384999
 10
-19.98624296375
 20
16.30958475744998
 10
-20.07681331415
 20
16.11269273984999
 10
-20.16520342135
 20
15.91484336704999
 10
-20.25141308375
 20
15.71606431104999
 10
-20.33544236055
 20
15.51638234304999
 10
-20.41729276694999
 20
15.31582056064999
 10
-20.49696530135
 20
15.11440345824999
 10
-20.57446064535
 20
14.91215671744998
 10
-20.64978167415
 20
14.70910042304998
 10
-20.72292915735
 20
14.50526085024998
 10
-20.79390410775
 20
14.30066430624998
 10
-20.86270831734999
 20
14.09533429185001
 10
-20.92934451095
 20
13.88929134784999
 10
-20.99381564854999
 20
13.68255516064999
 10
-21.05612360055
 20
13.47514824544998
 10
-21.11627073655
 20
13.26709336064999
 10
-21.17425699735
 20
13.05842031584998
 10
-21.23008825015
 20
12.84914812545
 10
-21.28376196055
 20
12.63929464545
 10
-21.33528670775
 20
12.42893890144998
 10
-21.38452807894999
 20
12.21836155265001
 10
-21.43117720055
 20
12.00796776864999
 10
-21.47526695255
 20
11.79730792384998
 10
-21.51686787575
 20
11.58612765025
 10
-21.55598420375
 20
11.37438246944998
 10
-21.59258195255
 20
11.16226489664998
 10
-21.62666001494999
 20
10.94979858944998
 10
-21.65822077975
 20
10.73698655104999
 10
-21.68726293174999
 20
10.52385277664998
 10
-21.71378409654999
 20
10.31042963265
 10
-21.73778292215
 20
10.09674326785
 10
-21.75925848375
 20
9.882817338249992
 10
-21.77820931255
 20
9.668682477449991
 10
-21.79463438294999
 20
9.454368453450001
 10
-21.80853363415
 20
9.239895379849997
 10
-21.81990653975
 20
9.02528842625
 10
-21.82875252054999
 20
8.810574939849999
 10
-21.83507119575
 20
8.59578246785
 10
-21.83886237335
 20
8.380938739849995
 10
-21.84012606455
 20
8.166072794249998
  0
LWPOLYLINE
  5
49
330
2
100
AcDbEntity
  8
0
100
AcDbPolyline
 90
      100
 70
     0
 43
0.0
 10
-10.79123389014999
 20
-8.968218855350002
 10
-10.98551650615
 20
-8.885885879349999
 10
-11.17909696214999
 20
-8.800949016949999
 10
-11.37189418135
 20
-8.713433052150008
 10
-11.56387039095
 20
-8.623345135350007
 10
-11.75499706615
 20
-8.530688586549999
 10
-11.94523915735
 20
-8.435470175350005
 10
-12.13456311414999
 20
-8.337696455349998
 10
-12.32294286935
 20
-8.237370482550005
 10
-12.51034365014999
 20
-8.134500399350002
 10
-12.69673270775
 20
-8.02909387615
 10
-12.88208696054999
 20
-7.921153396150003
 10
-13.06638073015
 20
-7.810682892149998
 10
-13.24956653814999
 20
-7.697699952950003
 10
-13.43157685975
 20
-7.582235400950011
 10
-13.61241178134999
 20
-7.464279156149999
 10
-13.79206150134999
 20
-7.343826751350007
 10
-13.97051583895
 20
-7.220872949750003
 10
-14.14775993175
 20
-7.095414829749998
 10
-14.32375451735
 20
-6.967466748150002
 10
-14.49844160695
 20
-6.83705785215001
 10
-14.67177298135
 20
-6.704212111350003
 10
-14.84375997335
 20
-6.568908744950007
 10
-15.01436934614999
 20
-6.431160645749997
 10
-15.18357229015
 20
-6.290977802550003
 10
-15.35128134295
 20
-6.148421215349998
 10
-15.51735499255
 20
-6.00360496415
 10
-15.68162228215
 20
-5.856679552949998
 10
-15.84399980535
 20
-5.707728629750008
 10
-16.00446866615
 20
-5.55678104735
 10
-16.16300958615
 20
-5.403866720950006
 10
-16.31960257015
 20
-5.249017108149999
 10
-16.47423075575
 20
-5.092261287349998
 10
-16.62687847414999
 20
-4.93362704735
 10
-16.77752924055
 20
-4.77314386655
 10
-16.92616670295
 20
-4.610841922550008
 10
-17.07277287574999
 20
-4.44675391135
 10
-17.21732910775
 20
-4.280914245750011
 10
-17.35982093655
 20
-4.113353436150006
 10
-17.50023600535
 20
-3.944099975349999
 10
-17.63856069175
 20
-3.77318474335
 10
-17.77478164055
 20
-3.600639124150006
 10
-17.90888618134999
 20
-3.42649428415001
 10
-18.04086172854999
 20
-3.250781954550006
 10
-18.17069694775
 20
-3.07353286015001
 10
-18.29838076375
 20
-2.89477837215
 10
-18.42390145174999
 20
-2.714552336950006
 10
-18.54724922775
 20
-2.532886701750001
 10
-18.66841729175
 20
-2.349809586550009
 10
-18.78739827254999
 20
-2.165350373750001
 10
-18.90418320695
 20
-1.97954143775
 10
-19.01876253014999
 20
-1.792417781750003
 10
-19.13112834935
 20
-1.604015461750009
 10
-19.24127423734999
 20
-1.414370452150009
 10
-19.34919495095
 20
-1.223518735349998
 10
-19.45488848215
 20
-1.031492535350011
 10
-19.55835376215
 20
-0.8383241961499976
 10
-19.65959211415
 20
-0.6440422217499986
 10
-19.75860653814999
 20
-0.4486675497499988
 10
-19.85539808535
 20
-0.25222316575001
 10
-19.94996491255
 20
-0.054738525750011
 10
-20.04230660375
 20
0.1437590614499982
 10
-20.13242377175
 20
0.3432438646499918
 10
-20.22031635575
 20
0.5436879654499905
 10
-20.30598401334999
 20
0.7450625862500005
 10
-20.38942789655
 20
0.9473429350499884
 10
-20.47064979254999
 20
1.150505717450002
 10
-20.54964937015
 20
1.354521995849992
 10
-20.62642995575
 20
1.559371971849998
 10
-20.70099266135
 20
1.765029808649998
 10
-20.77333828375
 20
1.971467699849995
 10
-20.84346845494999
 20
2.178660661449995
 10
-20.91138567574999
 20
2.38658653505
 10
-20.97709329655
 20
2.595225941449996
 10
-21.04059308215
 20
2.804554936649992
 10
-21.10188803895
 20
3.014552864649999
 10
-21.16097788535
 20
3.22518722625
 10
-21.21786704054999
 20
3.436436751049996
 10
-21.27255700535
 20
3.648284538249995
 10
-21.32505155895
 20
3.860676864649988
 10
-21.37527697814999
 20
4.073393467849996
 10
-21.42288682134999
 20
4.285902859849997
 10
-21.46787285335
 20
4.498621882249992
 10
-21.51031187095
 20
4.711840971849994
 10
-21.55021941015
 20
4.925652139850001
 10
-21.58755943735
 20
5.139858362249995
 10
-21.62232858774999
 20
5.354422600649996
 10
-21.65452926775
 20
5.569341407049989
 10
-21.68416043735
 20
5.784592010249994
 10
-21.71121964215
 20
6.00014118784999
 10
-21.73570541175
 20
6.215961464649993
 10
-21.75761679735
 20
6.432028688649992
 10
-21.77695229655
 20
6.64831161024999
 10
-21.79371078615
 20
6.864779074249995
 10
-21.80789219255
 20
7.08141023745
 10
-21.81949598775
 20
7.298179373449997
 10
-21.82852157495
 20
7.515058330249999
 10
-21.83496854775
 20
7.73201873024999
 10
-21.83883670934999
 20
7.949032000649992
 10
-21.84012605815
 20
8.166072794249998
  0
LWPOLYLINE
  5
4A
330
2
100
AcDbEntity
  8
0
100
AcDbPolyline
 90
       81
 70
     0
 43
0.0
 10
-14.91058739255
 20
-4.210391053750001
 10
-15.05698871415
 20
-4.120793892150004
 10
-15.20344691735
 20
-4.028317992950007
 10
-15.35005310935
 20
-3.932859351350003
 10
-15.49711017815
 20
-3.834165964150002
 10
-15.64472885815
 20
-3.732100460150007
 10
-15.79322899414999
 20
-3.626369026550008
 10
-15.94284002775
 20
-3.516722344950011
 10
-16.09377107574999
 20
-3.402911504949997
 10
-16.24629596055
 20
-3.284623610549999
 10
-16.40073598615
 20
-3.16148816095
 10
-16.55718466775
 20
-3.03329832575001
 10
-16.71688022935
 20
-2.898867205750008
 10
-16.87519379735
 20
-2.762039655350008
 10
-17.02478173814999
 20
-2.629516810550001
 10
-17.16095790295
 20
-2.506192085750001
 10
-17.27987554935
 20
-2.396467807350006
 10
-17.38445090615
 20
-2.298419396150009
 10
-17.48732991095
 20
-2.20045752255001
 10
-17.59723150775
 20
-2.094048831350008
 10
-17.71458390135
 20
-1.978263144950005
 10
-17.83844774935
 20
-1.853421880950008
 10
-17.96851747734999
 20
-1.719159970550009
 10
-18.10237857335
 20
-1.577345716150006
 10
-18.23300636535
 20
-1.435157504949998
 10
-18.35894147735
 20
-1.294283719350005
 10
-18.48109396374999
 20
-1.153840264950005
 10
-18.59976003415
 20
-1.013579392950006
 10
-18.71508115734999
 20
-0.8734188969499996
 10
-18.82741458774999
 20
-0.7329962601500029
 10
-18.93699280695
 20
-0.5920769801500115
 10
-19.04396836215
 20
-0.4505157145500079
 10
-19.14842337335
 20
-0.3082436089500078
 10
-19.25035819575
 20
-0.1652992809500091
 10
-19.34996750455
 20
-0.0214437609500067
 10
-19.44736397335
 20
0.1234649254499942
 10
-19.54263048695
 20
0.2695330134500011
 10
-19.63583697175
 20
0.4168574134499892
 10
-19.72703926135
 20
0.5655234246499959
 10
-19.81625477175
 20
0.7155609974499982
 10
-19.90355893494999
 20
0.8671050486499893
 10
-19.98911159735
 20
1.020452195849998
 10
-20.07294912214999
 20
1.175699576649989
 10
-20.15507431095
 20
1.332890261449989
 10
-20.23549835095
 20
1.492088101449994
 10
-20.31422930455
 20
1.653357635849999
 10
-20.39127001975
 20
1.816759618249989
 10
-20.46663481975
 20
1.982386071050001
 10
-20.54028141015
 20
2.150209952650001
 10
-20.61221123415
 20
2.320304675849996
 10
-20.68244823415
 20
2.492809616649992
 10
-20.75101060855
 20
2.667861229449997
 10
-20.81790608215
 20
2.845582184649998
 10
-20.88313473174999
 20
3.026090754249992
 10
-20.94670195254999
 20
3.209533951049991
 10
-21.00850880214999
 20
3.395761539849999
 10
-21.06841373495
 20
3.58446369824999
 10
-21.12626060854999
 20
3.775219643849993
 10
-21.18182090615
 20
3.967267280649991
 10
-21.23506527415
 20
4.160434171849999
 10
-21.28583342134999
 20
4.35401152064999
 10
-21.33394584855
 20
4.547058459849992
 10
-21.37960376534999
 20
4.740088051849994
 10
-21.42358397974999
 20
4.936407187849994
 10
-21.46632562455
 20
5.138529616649989
 10
-21.50735046455
 20
5.34510902465
 10
-21.54461999734999
 20
5.546093687049989
 10
-21.57908762294999
 20
5.746137475849991
 10
-21.61076076215
 20
5.945141587849988
 10
-21.63930213495
 20
6.140389864649989
 10
-21.66489530615
 20
6.33160981185
 10
-21.68802576535
 20
6.521846115849996
 10
-21.70873235735
 20
6.711453850249995
 10
-21.72682097175
 20
6.898476936649998
 10
-21.74236498775
 20
7.08307799424999
 10
-21.75554073335
 20
7.266967191049999
 10
-21.76634921015
 20
7.450244936649994
 10
-21.77474795095
 20
7.632230474249993
 10
-21.78072722935
 20
7.812430935049988
 10
-21.78429760054999
 20
7.990495855049999
 10
-21.78548082454999
 20
8.166072760649996
  0
LWPOLYLINE
  5
4B
330
2
100
AcDbEntity
  8
0
100
AcDbPolyline
 90
       31
 70
     0
 43
0.0
 10
-13.21674074775
 20
0.1837483446499988
 10
-13.17628428375
 20
0.1117151558499927
 10
-13.13148682615
 20
0.0366264486499972
 10
-13.08044355735
 20
-0.0419501113500047
 10
-13.02329537975
 20
-0.1239297257500027
 10
-12.95957126135
 20
-0.2093213097500097
 10
-12.88891694454999
 20
-0.2979779257500041
 10
-12.81099749975
 20
-0.3897292505500047
 10
-12.72547173815
 20
-0.4844010745500072
 10
-12.63202067414999
 20
-0.5817835433499994
 10
-12.53037300375
 20
-0.6816100633500071
 10
-12.42035908695
 20
-0.7835221289500112
 10
-12.30182264855
 20
-0.887160661750002
 10
-12.17461727895
 20
-0.992164919350003
 10
-12.03870893175
 20
-1.098092056950008
 10
-11.89414878934999
 20
-1.20445562335
 10
-11.74110745814999
 20
-1.310713288949997
 10
-11.57978631415
 20
-1.416340226550005
 10
-11.41042698134999
 20
-1.520827069749998
 10
-11.23337360534999
 20
-1.623643842550009
 10
-11.04893914135
 20
-1.724319749750009
 10
-10.85710809175
 20
-1.822583973749999
 10
-10.65788421655
 20
-1.918170197750001
 10
-10.45151594614999
 20
-2.01071482975
 10
-10.23853116054999
 20
-2.099753768950009
 10
-10.01981124854999
 20
-2.184733048950008
 10
-9.796081291749999
 20
-2.265232375350009
 10
-9.567742830949995
 20
-2.340992117750005
 10
-9.333642243750006
 20
-2.412225312949999
 10
-9.091710357349995
 20
-2.479241199349999
 10
-8.839771803749997
 20
-2.542275868149999
  0
LWPOLYLINE
  5
4C
330
2
100
AcDbEntity
  8
0
100
AcDbPolyline
 90
       15
 70
     0
 43
0.0
 10
-14.47231036374999
 20
4.863410389449995
 10
-14.47648411734999
 20
4.874256629450002
 10
-14.48079394615
 20
4.88534001024999
 10
-14.48524477175
 20
4.896664765449997
 10
-14.48984151735
 20
4.90823512224999
 10
-14.49458893975
 20
4.92005454465
 10
-14.49949111415
 20
4.932123408649999
 10
-14.50455194935
 20
4.944441317449999
 10
-14.50977535575
 20
4.957007879049996
 10
-14.51516524054999
 20
4.969822698249998
 10
-14.52072567575
 20
4.982885576649991
 10
-14.52646138615
 20
4.996197088649992
 10
-14.53237726134999
 20
5.009758003849995
 10
-14.53847818935
 20
5.023569095049992
 10
-14.54592395895
 20
5.040193432649999
  0
LINE
  5
4D
330
2
100
AcDbEntity
  8
0
100
AcDbLine
 10
-14.46435077015
 20
4.842410496649995
 30
0.0
 11
-14.47231036375
 21
4.863410389450002
 31
0.0
  0
LINE
  5
4E
330
2
100
AcDbEntity
  8
0
100
AcDbLine
 10
-14.45686096215
 20
4.822260595850003
 30
0.0
 11
-14.46435077015
 21
4.842410496649995
 31
0.0
  0
LINE
  5
4F
330
2
100
AcDbEntity
  8
0
100
AcDbLine
 10
-15.31475308535
 20
6.682903821450003
 30
0.0
 11
-15.32458141975
 21
6.724663976649998
 31
0.0
  0
LWPOLYLINE
  5
50
330
2
100
AcDbEntity
  8
0
100
AcDbPolyline
 90
       22
 70
     0
 43
0.0
 10
-15.32458141975
 20
6.724663976649992
 10
-15.33976528054999
 20
6.790906410249988
 10
-15.35435388055
 20
6.857309546249993
 10
-15.36833723414999
 20
6.923862653450001
 10
-15.38170638134999
 20
6.990563107849993
 10
-15.39445644215
 20
7.057440706249991
 10
-15.40658356214999
 20
7.124533343049989
 10
-15.41808220215
 20
7.19187642624999
 10
-15.42894009815
 20
7.259495379849994
 10
-15.43914331095
 20
7.327413133449994
 10
-15.44867649014999
 20
7.39564773504999
 10
-15.45751868375
 20
7.464197679050002
 10
-15.46564753335
 20
7.533056575049997
 10
-15.47304021495
 20
7.602219186249996
 10
-15.47967204375
 20
7.67168486944999
 10
-15.48551787254999
 20
7.741454133449991
 10
-15.49055162455
 20
7.811525266250001
 10
-15.49474350775
 20
7.881887675849995
 10
-15.49806280215
 20
7.952528552649994
 10
-15.50047795895
 20
8.023437936649997
 10
-15.50195410455
 20
8.094617266249997
 10
-15.50245553015
 20
8.166070827849992
  0
LWPOLYLINE
  5
51
330
2
100
AcDbEntity
  8
0
100
AcDbPolyline
 90
       18
 70
     0
 43
0.0
 10
-14.38636476375
 20
4.576255744649998
 10
-14.38877244054999
 20
4.591676648649993
 10
-14.39152151095
 20
4.607021685449993
 10
-14.39459865655
 20
4.622299410249993
 10
-14.39798816535
 20
4.637514184650001
 10
-14.40166473335
 20
4.652653599049997
 10
-14.40560065015
 20
4.667701048650002
 10
-14.40976929655
 20
4.682645458249993
 10
-14.41414837335
 20
4.697497859849988
 10
-14.41871666934999
 20
4.712274816649994
 10
-14.42345651894999
 20
4.727005191049997
 10
-14.42836446775
 20
4.741767035849989
 10
-14.43344061495
 20
4.756650699849998
 10
-14.43735961814999
 20
4.767946195850001
 10
-14.44138208055
 20
4.779389859849999
 10
-14.44551679095
 20
4.79101051264999
 10
-14.44977254455
 20
4.802836973449998
 10
-14.45686096215
 20
4.822260595849996
  0
LWPOLYLINE
  5
52
330
2
100
AcDbEntity
  8
0
100
AcDbPolyline
 90
       37
 70
     0
 43
0.0
 10
-14.54457877974999
 20
11.29493292544998
 10
-14.53810210294999
 20
11.30941936224999
 10
-14.53181645974999
 20
11.32366273984999
 10
-14.52551804054999
 20
11.33812290944999
 10
-14.51940723735
 20
11.35233857664999
 10
-14.51347609815
 20
11.36631779424999
 10
-14.50771667255
 20
11.38006861664999
 10
-14.50212101174999
 20
11.39359909505
 10
-14.49668150934999
 20
11.40691703105
 10
-14.49139196055
 20
11.42002920384999
 10
-14.48624650455
 20
11.43294214304998
 10
-14.48123928214999
 20
11.44566237505
 10
-14.47636443414999
 20
11.45819642784999
 10
-14.47044922135
 20
11.47360904064999
 10
-14.46472698774999
 20
11.48873520544998
 10
-14.45919303414999
 20
11.50356918144999
 10
-14.45384266135
 20
11.51810522624998
 10
-14.44969210455
 20
11.52951510624998
 10
-14.44565795575
 20
11.54072418305
 10
-14.44174214454999
 20
11.55172599905
 10
-14.43794659414999
 20
11.56251409985
 10
-14.43427323094999
 20
11.57308203425
 10
-14.43072410775
 20
11.58342588224999
 10
-14.42730178775
 20
11.59355187904998
 10
-14.42400896054999
 20
11.60346879905
 10
-14.42084831575
 20
11.61318541184999
 10
-14.41782254135
 20
11.62271049185
 10
-14.41423134135
 20
11.63436500705
 10
-14.41084389174999
 20
11.64577597184998
 10
-14.40764899575
 20
11.65698539905
 10
-14.40463546774999
 20
11.66803530145
 10
-14.40088266935
 20
11.68259568224999
 10
-14.39742063415
 20
11.69706300224998
 10
-14.39423759254999
 20
11.71155310784999
 10
-14.39132802455
 20
11.72615662625
 10
-14.38871140855
 20
11.74086333184999
 10
-14.38641346615
 20
11.75563777664999
  0
LINE
  5
53
330
2
100
AcDbEntity
  8
0
100
AcDbLine
 10
-14.38142070775
 20
11.76652018465001
 30
0.0
 11
-14.36316697015
 21
11.80680478304999
 31
0.0
  0
LINE
  5
54
330
2
100
AcDbEntity
  8
0
100
AcDbLine
 10
-14.40013345815
 20
11.72596252545
 30
0.0
 11
-14.38142070775
 21
11.76652018465001
 31
0.0
  0
LINE
  5
55
330
2
100
AcDbEntity
  8
0
100
AcDbLine
 10
-14.41935345175
 20
11.68505306784999
 30
0.0
 11
-14.40013345815
 21
11.72596252545
 31
0.0
  0
LWPOLYLINE
  5
56
330
2
100
AcDbEntity
  8
0
100
AcDbPolyline
 90
        5
 70
     0
 43
0.0
 10
-14.62230766775
 20
11.29275292065
 10
-14.56979055255
 20
11.38848334144998
 10
-14.51851446135
 20
11.48534555264998
 10
-14.46869604855
 20
11.58339842464999
 10
-14.41935345174999
 20
11.68505306784999
  0
LWPOLYLINE
  5
57
330
2
100
AcDbEntity
  8
0
100
AcDbPolyline
 90
      103
 70
     0
 43
0.0
 10
-12.39851486135
 20
16.12231836064998
 10
-12.34364687895
 20
16.19273769664999
 10
-12.28641092854999
 20
16.26306251904998
 10
-12.22676533495
 20
16.33325835745
 10
-12.16466725335
 20
16.40329168225
 10
-12.10006915414999
 20
16.47313273345
 10
-12.03292234135
 20
16.54275269344998
 10
-11.96318020854999
 20
16.61212055584999
 10
-11.89080452855
 20
16.68119656224999
 10
-11.81575917015
 20
16.74993876384999
 10
-11.73800699894999
 20
16.81830563425001
 10
-11.65750686615
 20
16.88625731745
 10
-11.57421662134999
 20
16.95375437664998
 10
-11.48810731254999
 20
17.02074555104999
 10
-11.39920278294999
 20
17.08713229184999
 10
-11.30754007094999
 20
17.15280422784999
 10
-11.21314277975
 20
17.21766242945
 10
-11.11598075255
 20
17.28165374784998
 10
-11.01601039575
 20
17.34473647585
 10
-10.91318667574999
 20
17.40686866145
 10
-10.80745879894999
 20
17.46800737665
 10
-10.69877453175
 20
17.52810944384998
 10
-10.58707229815
 20
17.58713407585
 10
-10.47225312694999
 20
17.64505001985
 10
-10.35420870135
 20
17.70182841184998
 10
-10.23284188214999
 20
17.75743418625
 10
-10.10810022935
 20
17.81180749985
 10
-9.979942480549993
 20
17.86488230944999
 10
-9.848282602150007
 20
17.91660477184999
 10
-9.712855464550003
 20
17.96696984704999
 10
-9.573351173350005
 20
18.01598469665
 10
-9.465858749350005
 20
18.05186121504999
 10
-9.355754974950002
 20
18.08696823425
 10
-9.242896216549993
 20
18.12129173184999
 10
-9.127138840550003
 20
18.15481768384998
 10
-9.008341186150005
 20
18.18753060865
 10
-8.886369491750002
 20
18.21940918945
 10
-8.761091965350004
 20
18.25043065344999
 10
-8.632376816550006
 20
18.28057222785
 10
-8.500094702949994
 20
18.30980650304999
 10
-8.364126074150007
 20
18.33808752064999
 10
-8.224353824550007
 20
18.36536468865
 10
-8.080660850149996
 20
18.39158741024999
 10
-7.932976240550004
 20
18.41669822944999
 10
-7.781413869350004
 20
18.44061222784998
 10
-7.626133797350007
 20
18.46323762304999
 10
-7.46729609335
 20
18.48448263264998
 10
-7.305050115750006
 20
18.50426502784998
 10
-7.139502390949999
 20
18.52254079745
 10
-6.970748741350007
 20
18.53927548064999
 10
-6.79888499255
 20
18.55443462144998
 10
-6.659152469350004
 20
18.56540765024999
 10
-6.517140014950001
 20
18.57535222625
 10
-6.372496838949999
 20
18.58427030145
 10
-6.224872146150005
 20
18.59216382464998
 10
-6.07391514615
 20
18.59903474464999
 10
-5.945387670949997
 20
18.60397597664999
 10
-5.81451119415
 20
18.60818082624999
 10
-5.681494419749995
 20
18.61162169824999
 10
-5.546472058150001
 20
18.61427409505
 10
-5.409282846950006
 20
18.61612590305
 10
-5.269691523749997
 20
18.61716810305
 10
-5.127548472550003
 20
18.61739083104998
 10
-4.98304663895
 20
18.61678081504999
 10
-4.836464611750002
 20
18.61532393504998
 10
-4.613840770150005
 20
18.61155287905001
 10
-4.390077565349997
 20
18.60595207264998
 10
-4.163857507749995
 20
18.59850255584999
 10
-3.935939475750004
 20
18.58932478304998
 10
-3.707918154150007
 20
18.57858482304999
 10
-3.481388234150003
 20
18.56644873984999
 10
-3.257041566949993
 20
18.55304488704999
 10
-3.033499194149996
 20
18.53843532064999
 10
-2.886531062949998
 20
18.52819015744998
 10
-2.742004304549993
 20
18.51764612224999
 10
-2.600278254949998
 20
18.50687907105
 10
-2.461606248549998
 20
18.49595474784999
 10
-2.325817605349996
 20
18.48489842624999
 10
-2.192635640549994
 20
18.47372525824999
 10
-2.061920378150006
 20
18.46246143425
 10
-1.934078675750001
 20
18.45117726145
 10
-1.809654099750005
 20
18.43995408064998
 10
-1.688994938150003
 20
18.42885413504999
 10
-1.571668354150006
 20
18.41786326945
 10
-1.457046235749999
 20
18.40694822944999
 10
-1.289133477350006
 20
18.39067001505
 10
-1.125713915749997
 20
18.37452487264999
 10
-0.9664726645499968
 20
18.35853218624998
 10
-0.8105496373500074
 20
18.34263972705
 10
-0.6569484469499969
 20
18.32677737024999
 10
-0.5046727077500038
 20
18.31087498144998
 10
-0.2016082869500053
 20
18.27880245824999
 10
-0.050695022949995
 20
18.26265528704999
 10
0.1006466538500064
 20
18.24636974624999
 10
0.3042881242499931
 20
18.22434555424999
 10
0.5095294090500034
 20
18.20204880545
 10
0.7154147882500013
 20
18.17960802465
 10
1.331602778649994
 20
18.11223201504998
 10
1.945270749849996
 20
18.04528832225
 10
2.559190521049998
 20
17.97919955584998
 10
3.174812439449993
 20
17.91455172544999
 10
3.792613503449999
 20
17.85201473665
 10
4.413046434649999
 20
17.79222527265
  0
LWPOLYLINE
  5
58
330
2
100
AcDbEntity
  8
0
100
AcDbPolyline
 90
       65
 70
     0
 43
0.0
 10
-12.39852022614999
 20
0.2098301862500023
 10
-12.45836515095
 20
0.2891930550499921
 10
-12.51711490935
 20
0.3690693910499903
 10
-12.57477832055
 20
0.4494292966499956
 10
-12.63144792055
 20
0.5303642150499997
 10
-12.68722517015
 20
0.611982330250001
 10
-12.74216351095
 20
0.6943374214500011
 10
-12.79632196375
 20
0.7774974022499919
 10
-12.84982986775
 20
0.8616410902499893
 10
-12.90287796215
 20
0.9470573414499909
 10
-12.95583226934999
 20
1.034364264649994
 10
-12.99127822455
 20
1.093959573449993
 10
-13.02694286935
 20
1.154880605449989
 10
-13.06290442614999
 20
1.217301488649994
 10
-13.09924773014999
 20
1.281416154249995
 10
-13.13608406134999
 20
1.347497744649999
 10
-13.17353131254999
 20
1.415839202249998
 10
-13.21164971254999
 20
1.48662478624999
 10
-13.25026882935
 20
1.559604000649997
 10
-13.28916056215
 20
1.634417661450001
 10
-13.34748793655
 20
1.749194333449992
 10
-13.40501115735
 20
1.865491931850002
 10
-13.44246944695
 20
1.942965791049999
 10
-13.47891731095
 20
2.019695111049998
 10
-13.51410364694999
 20
2.095058685449998
 10
-13.54782448054999
 20
2.16852852865
 10
-13.58006437174999
 20
2.239949557449989
 10
-13.61085500535
 20
2.309259912649991
 10
-13.64024019895
 20
2.376431629449996
 10
-13.66831228214999
 20
2.441572325449996
 10
-13.69517571255
 20
2.504823514249991
 10
-13.72093115575
 20
2.566323149449999
 10
-13.74566409975
 20
2.626194976649998
 10
-13.76945624214999
 20
2.684559183049998
 10
-13.80355731894999
 20
2.769555968649996
 10
-13.83599009334999
 20
2.851922811850002
 10
-13.86698638935
 20
2.93207738785
 10
-13.89664657174999
 20
3.010140939849989
 10
-13.92503428055
 20
3.086155789449989
 10
-13.95219772854999
 20
3.160145029449992
 10
-13.97816982295
 20
3.232093720649999
 10
-14.00293770614999
 20
3.30185405505
 10
-14.02646854614999
 20
3.369211531849998
 10
-14.04869540215
 20
3.43381775905
 10
-14.06275409175
 20
3.475178675849988
 10
-14.07619226295
 20
3.515076808649993
 10
-14.08900248695
 20
3.553441861449996
 10
-14.10118740535
 20
3.590237567049996
 10
-14.11278994135
 20
3.625563754249995
 10
-14.12386309015
 20
3.659554274249998
 10
-14.13959972215
 20
3.708347522249994
 10
-14.15446487575
 20
3.755002691849995
 10
-14.16865928375
 20
3.800095008649989
 10
-14.18238496855
 20
3.844236560649989
 10
-14.20906972694999
 20
3.931655307849993
 10
-14.23517157015
 20
4.019355875849996
 10
-14.26070887254999
 20
4.107391027849999
 10
-14.28560282934999
 20
4.195423127049991
 10
-14.30990270134999
 20
4.283540698249993
 10
-14.32199427575
 20
4.328225551049996
 10
-14.33418385655
 20
4.373861392649999
 10
-14.34659217335
 20
4.420939855049994
 10
-14.35937039575
 20
4.470109280649992
 10
-14.37263894294999
 20
4.521905272650002
 10
-14.38636476375
 20
4.576255744649998
  0
LWPOLYLINE
  5
59
330
2
100
AcDbEntity
  8
0
100
AcDbPolyline
 90
       10
 70
     0
 43
0.0
 10
-14.56719484855
 20
4.939037087049996
 10
-14.62904594935
 20
5.051492259849993
 10
-14.68485141015
 20
5.149138931849989
 10
-14.74673875575
 20
5.253076851849996
 10
-14.81679377335
 20
5.365085923849989
 10
-14.89378664214999
 20
5.481628552649993
 10
-14.97699323095
 20
5.600187781449989
 10
-15.06243486935
 20
5.714388850249989
 10
-15.14595038935
 20
5.819339544649992
 10
-15.22655423575
 20
5.914637339849988
  0
LWPOLYLINE
  5
5A
330
2
100
AcDbEntity
  8
0
100
AcDbPolyline
 90
        4
 70
     0
 43
0.0
 10
-14.41926817975
 20
4.646718848649996
 10
-14.46339568375
 20
4.738069090249993
 10
-14.51239294615
 20
4.835104768649998
 10
-14.56719484855
 20
4.939037087049996
  0
LWPOLYLINE
  5
5B
330
2
100
AcDbEntity
  8
0
100
AcDbPolyline
 90
       26
 70
     0
 43
0.0
 10
-15.10382542935
 20
6.049772765450001
 10
-15.10658467255
 20
6.055644325449989
 10
-15.11935936535
 20
6.083350936649992
 10
-15.13169724375
 20
6.11097379905
 10
-15.14367365335
 20
6.138649301450001
 10
-15.15535426135
 20
6.166502802249993
 10
-15.16676600534999
 20
6.194615568649993
 10
-15.17792613974999
 20
6.22305784385
 10
-15.18884468695
 20
6.251874354249991
 10
-15.19950273495
 20
6.281007775049999
 10
-15.20987413974999
 20
6.310375266249991
 10
-15.21993275255
 20
6.33989398624999
 10
-15.22965243094999
 20
6.369481096649991
 10
-15.23900702775
 20
6.39905375424999
 10
-15.24671871735
 20
6.42432671905
 10
-15.25414966135
 20
6.449471647049989
 10
-15.26130654295
 20
6.474431979849995
 10
-15.26819604855
 20
6.499151160650001
 10
-15.27482486294999
 20
6.523572634250001
 10
-15.28119967255
 20
6.547639840649992
 10
-15.28732716214999
 20
6.571296223049998
 10
-15.29321613015
 20
6.594496963849991
 10
-15.29888383414999
 20
6.617244208649992
 10
-15.30434964695
 20
6.63955184385
 10
-15.30963294135
 20
6.661433752649998
 10
-15.31475308534999
 20
6.682903821449997
  0
LWPOLYLINE
  5
5C
330
2
100
AcDbEntity
  8
0
100
AcDbPolyline
 90
        3
 70
     0
 43
0.0
 10
-14.38175326135
 20
4.566244712649989
 10
-14.40044426615
 20
4.606741104649998
 10
-14.41926817975
 20
4.646718848649996
  0
LINE
  5
5D
330
2
100
AcDbEntity
  8
0
100
AcDbLine
 10
-14.36318014295
 20
4.525389875850001
 30
0.0
 11
-14.38175326135
 21
4.566244712649996
 31
0.0
  0
LWPOLYLINE
  5
5E
330
2
100
AcDbEntity
  8
0
100
AcDbPolyline
 90
       11
 70
     0
 43
0.0
 10
-15.22656374934999
 20
10.41743654785
 10
-15.16083861495
 20
10.49471530944998
 10
-15.09588334295
 20
10.57491074624999
 10
-15.03236659735
 20
10.65711274304999
 10
-14.96974045174999
 20
10.74201395424998
 10
-14.90884427734999
 20
10.82848459265
 10
-14.84919762775
 20
10.91717217664998
 10
-14.79034551094999
 20
11.00869000705
 10
-14.73308212535
 20
11.10167121345
 10
-14.67687550294999
 20
11.19678553024999
 10
-14.62230766775
 20
11.29275292065
  0
LWPOLYLINE
  5
5F
330
2
100
AcDbEntity
  8
0
100
AcDbPolyline
 90
       14
 70
     0
 43
0.0
 10
-9.878490282149996
 20
20.17004083264998
 10
-10.20235105975
 20
19.99091400225
 10
-10.51327229975
 20
19.79838257024999
 10
-10.80429317015
 20
19.59730050305
 10
-11.07686468055
 20
19.38796737824998
 10
-11.35322203254999
 20
19.15343898784999
 10
-11.63007145654999
 20
18.89507732224998
 10
-11.90819051735
 20
18.61051169025
 10
-12.19561522775
 20
18.28813578624999
 10
-12.48061043415
 20
17.93826604545
 10
-12.76590100855
 20
17.55538808705
 10
-13.04987184854999
 20
17.13813590145
 10
-13.32659389175
 20
16.69170995745
 10
-13.59464359254999
 20
16.21579288064998
  0
LWPOLYLINE
  5
60
330
2
100
AcDbEntity
  8
0
100
AcDbPolyline
 90
       48
 70
     0
 43
0.0
 10
-9.878490640549998
 20
20.17004064545
 10
-9.694753616550002
 20
20.26237324704999
 10
-9.504258659750007
 20
20.35199968544998
 10
-9.306493032549994
 20
20.43891074945
 10
-9.100896054949998
 20
20.52307925024999
 10
-8.886841109350001
 20
20.60446356705
 10
-8.663637795750005
 20
20.68300184065
 10
-8.430521597349994
 20
20.75861093345
 10
-8.186683950949998
 20
20.83117282944999
 10
-7.931038381350006
 20
20.90059471264999
 10
-7.663875787750001
 20
20.96639236544999
 10
-7.391809840549996
 20
21.02682313504999
 10
-7.121019501350005
 20
21.08085931265
 10
-6.851529251749994
 20
21.12901078465
 10
-6.582902790950001
 20
21.17180641024998
 10
-6.314797256549994
 20
21.20968660385
 10
-6.046941182950007
 20
21.24302348704998
 10
-5.779099238949996
 20
21.27213802304999
 10
-5.511054779749997
 20
21.29731046944999
 10
-5.24262063415
 20
21.31878554784998
 10
-4.973578877350007
 20
21.33678183264998
 10
-4.703948435750007
 20
21.35147988225
 10
-4.410005206950003
 20
21.36398882624999
 10
-4.076286488549996
 20
21.37436499424998
 10
-3.747114986149995
 20
21.38118771104998
 10
-3.458034158949999
 20
21.38473669505001
 10
-3.205125158949996
 20
21.38615789024999
 10
-2.985358267750001
 20
21.38621575265
 10
-2.792547706150003
 20
21.38541799424999
 10
-2.620069694950004
 20
21.38406177024998
 10
-2.463775746150005
 20
21.38232551104999
 10
-2.320980411749999
 20
21.38032695424999
 10
-2.189951694949996
 20
21.37815145184998
 10
-2.069450701350007
 20
21.37586372064999
 10
-1.958551696550003
 20
21.37351468385
 10
-1.856475421349998
 20
21.37114402784999
 10
-1.76265709815
 20
21.36878561025
 10
-1.676600765350002
 20
21.36646693184999
 10
-1.597907422950001
 20
21.36421164224998
 10
-1.526259408550004
 20
21.36204065825001
 10
-1.461906563750005
 20
21.35998928704998
 10
-1.405578835750006
 20
21.35810893184998
 10
-1.35641653335
 20
21.35639703904999
 10
-1.313324981350007
 20
21.35483614144999
 10
-1.275585717349997
 20
21.35341623425
 10
-1.242572155749996
 20
21.35212634785
 10
-1.212979072549998
 20
21.35092302465
 10
-1.185021472550005
 20
21.34973014624998
  0
LWPOLYLINE
  5
61
330
2
100
AcDbEntity
  8
0
100
AcDbPolyline
 90
       12
 70
     0
 43
0.0
 10
30.81846326985
 20
-7.998676604150006
 10
30.65591963625
 20
-8.030428877749997
 10
30.49299315464999
 20
-8.06016315135001
 10
30.32971461065
 20
-8.087874052149999
 10
30.16610879785
 20
-8.11355769375001
 10
30.00219568424999
 20
-8.13721114015
 10
29.83800295624999
 20
-8.158830516150004
 10
29.67355467305
 20
-8.178412780149997
 10
29.50887626985
 20
-8.195954992950007
 10
29.34399328105
 20
-8.211454509749998
 10
29.17893127464999
 20
-8.224908996150006
 10
29.01371665064999
 20
-8.23631637215
  0
LINE
  5
62
330
2
100
AcDbEntity
  8
0
100
AcDbLine
 10
-3.336610528549998
 20
-10.79914235294999
 30
0.0
 11
29.02113546184999
 21
-8.83839679615
 31
0.0
  0
LINE
  5
63
330
2
100
AcDbEntity
  8
0
100
AcDbLine
 10
-4.253880558950003
 20
-10.23141618174999
 30
0.0
 11
-4.310888030949998
 21
-10.23206581374999
 31
0.0
  0
LWPOLYLINE
  5
64
330
2
100
AcDbEntity
  8
0
100
AcDbPolyline
 90
       13
 70
     0
 43
0.0
 10
-4.310888030949996
 20
-10.23206581374999
 10
-4.507909320549998
 20
-10.23341099774999
 10
-4.698321851749994
 20
-10.23248608895001
 10
-4.885075115749998
 20
-10.22934278975
 10
-5.071858200549996
 20
-10.22399332095
 10
-5.259684942950002
 20
-10.21638759935
 10
-5.447195619750004
 20
-10.20656916735001
 10
-5.634855765349996
 20
-10.19451492895
 10
-5.822556536549996
 20
-10.18022617695
 10
-6.010242374949996
 20
-10.16370339454999
 10
-6.197912158950003
 20
-10.14494276735
 10
-6.385515382950003
 20
-10.12394513054999
 10
-6.57299352535
 20
-10.10071359775
  0
LWPOLYLINE
  5
65
330
2
100
AcDbEntity
  8
0
100
AcDbPolyline
 90
       22
 70
     0
 43
0.0
 10
-6.57299352535
 20
-10.10071359775
 10
-6.777100214949996
 20
-10.07292800575
 10
-6.981108941350001
 20
-10.04252540414999
 10
-7.184963134949995
 20
-10.00950769215001
 10
-7.388608515750007
 20
-9.97387784895001
 10
-7.591997437350002
 20
-9.93563894975
 10
-7.795112261349999
 20
-9.894788720950003
 10
-7.997953797350007
 20
-9.85132016095001
 10
-8.200519277349997
 20
-9.805226314549997
 10
-8.402749099749996
 20
-9.756513039350011
 10
-8.604612570149996
 20
-9.70518037215001
 10
-8.806059288550002
 20
-9.651233869750001
 10
-9.007061106150004
 20
-9.594673444150004
 10
-9.207595232550005
 20
-9.53549813695001
 10
-9.407631088550004
 20
-9.473709396149999
 10
-9.607151240549995
 20
-9.409304538550003
 10
-9.806110254949999
 20
-9.342289965749998
 10
-10.00445799095
 20
-9.27267423615001
 10
-10.20216908055
 20
-9.200458348150007
 10
-10.39922190615
 20
-9.12564202175001
 10
-10.59558729495
 20
-9.048227698550007
 10
-10.79123389014999
 20
-8.968218855350002
  0
LWPOLYLINE
  5
66
330
2
100
AcDbEntity
  8
0
100
AcDbPolyline
 90
       14
 70
     0
 43
0.0
 10
-9.878490640549998
 20
-3.837899124149998
 10
-10.17511530455
 20
-3.674645056949998
 10
-10.47459793814999
 20
-3.491352077750008
 10
-10.75901995735
 20
-3.29783446655
 10
-11.04037450295
 20
-3.085262240950001
 10
-11.32007967414999
 20
-2.851103970549999
 10
-11.59410655735
 20
-2.59819461535001
 10
-11.87904289495
 20
-2.309049108150006
 10
-12.16433617175
 20
-1.991352442550009
 10
-12.45874405655
 20
-1.632279500150005
 10
-12.75073326295
 20
-1.24299302655001
 10
-13.04027698934999
 20
-0.8199180601500017
 10
-13.32336826614999
 20
-0.3648416217500028
 10
-13.59464057974999
 20
0.1163430214499925
  0
LWPOLYLINE
  5
67
330
2
100
AcDbEntity
  8
0
100
AcDbPolyline
 90
       35
 70
     0
 43
0.0
 10
-15.22653550615
 20
5.914635711049996
 10
-15.30143631095
 20
5.998101607049989
 10
-15.37759024695
 20
6.077953483849995
 10
-15.44628131255
 20
6.145832978249998
 10
-15.51609131095
 20
6.210947831049992
 10
-15.58075857335
 20
6.268003904650001
 10
-15.64619144054999
 20
6.322739757449994
 10
-15.70942626295
 20
6.372918946249995
 10
-15.77310197655
 20
6.420888314249992
 10
-15.83474004375
 20
6.464996384649992
 10
-15.89654461975
 20
6.507027040650001
 10
-15.96008707095
 20
6.548037325449996
 10
-16.02370250295
 20
6.586940453449997
 10
-16.08447509335
 20
6.62216265984999
 10
-16.14542562615
 20
6.655644389449989
 10
-16.20321014454999
 20
6.685723583049991
 10
-16.26127031415
 20
6.714361427849993
 10
-16.31581706935
 20
6.73984926464999
 10
-16.37073255415
 20
6.764159018249998
 10
-16.42196541815
 20
6.785638691849996
 10
-16.47362866935
 20
6.806133227849997
 10
-16.52285922295
 20
6.824573381449994
 10
-16.57257205335
 20
6.842126488649995
 10
-16.61820200214999
 20
6.85730962785
 10
-16.66423881335
 20
6.871752085449998
 10
-16.70650190295
 20
6.884250280649993
 10
-16.74909877014999
 20
6.896129059849997
 10
-16.78826975895
 20
6.906425887049991
 10
-16.82771590135
 20
6.916202499850001
 10
-16.86411724215
 20
6.92470353985
 10
-16.90074837814999
 20
6.932792514249996
 10
-16.93474787895
 20
6.939965527049992
 10
-16.96894631735
 20
6.946943832649992
 10
-17.00095012375
 20
6.953328618249997
 10
-17.06356757495
 20
6.96566893184999
  0
LINE
  5
68
330
2
100
AcDbEntity
  8
0
100
AcDbLine
 10
-3.144221816550002
 20
-10.18510838174999
 30
0.0
 11
-3.372830685349997
 21
-10.19902528415
 31
0.0
  0
LINE
  5
69
330
2
100
AcDbEntity
  8
0
100
AcDbLine
 10
29.01371665064999
 20
-8.236316372149993
 30
0.0
 11
-3.144221816550002
 21
-10.18510838174999
 31
0.0
  0
LWPOLYLINE
  5
6A
330
2
100
AcDbEntity
  8
0
100
AcDbPolyline
 90
        5
 70
     0
 43
0.0
 10
-3.372830685349995
 20
-10.19902528415001
 10
-3.592932539749995
 20
-10.21109144895
 10
-3.813160658149996
 20
-10.22051265215
 10
-4.033488640550004
 20
-10.22728790175
 10
-4.253880558950001
 20
-10.23141618175
  0
LWPOLYLINE
  5
6B
330
2
100
AcDbEntity
  8
0
100
AcDbPolyline
 90
       34
 70
     0
 43
0.0
 10
-8.96280836695
 20
-6.073246316150004
 10
-9.205362746150001
 20
-6.045095476150009
 10
-9.441872638950002
 20
-6.014963832950002
 10
-9.672660594150002
 20
-5.982889282550004
 10
-9.89799641815
 20
-5.94891088735001
 10
-10.11815047735
 20
-5.913062266549999
 10
-10.33338818935
 20
-5.875372037750011
 10
-10.54395720374999
 20
-5.835866007350006
 10
-10.75009895895
 20
-5.794565058550006
 10
-10.95202873495
 20
-5.751489335350001
 10
-11.14994804855
 20
-5.706656540150007
 10
-11.34411824535
 20
-5.660064224950005
 10
-11.53467441015
 20
-5.611733813750007
 10
-11.72144514455
 20
-5.561766327349999
 10
-11.90440390135
 20
-5.510233522550009
 10
-12.08385011895
 20
-5.45711859455001
 10
-12.26002320695
 20
-5.40241139455
 10
-12.43303617175
 20
-5.346134308149999
 10
-12.60317072694999
 20
-5.288248660150003
 10
-12.77052468694999
 20
-5.228769717749997
 10
-12.93517199415
 20
-5.16771899615
 10
-13.09735069175
 20
-5.105050170550001
 10
-13.25728005495
 20
-5.040715823349998
 10
-13.41510301975
 20
-4.97469079775
 10
-13.57092639895
 20
-4.906960066549999
 10
-13.72499484535
 20
-4.83744159295
 10
-13.87745194295
 20
-4.766088418549998
 10
-14.02836446935
 20
-4.69288500735
 10
-14.17784160055
 20
-4.617790821750006
 10
-14.32611892375
 20
-4.540693088950007
 10
-14.47336334615
 20
-4.46150515455001
 10
-14.61968308054999
 20
-4.380164804149998
 10
-14.76536227735
 20
-4.296502728950002
 10
-14.91058739255
 20
-4.210391053750001
  0
LWPOLYLINE
  5
6C
330
2
100
AcDbEntity
  8
0
100
AcDbPolyline
 90
        3
 70
     0
 43
0.0
 10
30.73970208104999
 20
-4.25779550175001
 10
30.69938292745
 20
-4.26048141375
 10
30.65910803625
 20
-4.262968837750008
  0
LWPOLYLINE
  5
6D
330
2
100
AcDbEntity
  8
0
100
AcDbPolyline
 90
        3
 70
     0
 43
0.0
 10
30.65910803625
 20
-4.262968837750008
 10
30.12298408264999
 20
-4.294746008949999
 10
29.57369162825
 20
-4.327239050550005
  0
LINE
  5
6E
330
2
100
AcDbEntity
  8
0
100
AcDbLine
 10
29.57369162825
 20
-4.327239050549999
 30
0.0
 11
-1.474267630949997
 21
-6.158410239349998
 31
0.0
  0
LINE
  5
6F
330
2
100
AcDbEntity
  8
0
100
AcDbLine
 10
-1.474267630949997
 20
-6.158410239349998
 30
0.0
 11
-2.234792707750004
 21
-6.203239949749993
 31
0.0
  0
LWPOLYLINE
  5
70
330
2
100
AcDbEntity
  8
0
100
AcDbPolyline
 90
        7
 70
     0
 43
0.0
 10
29.57051727465
 20
-3.426987666550004
 10
28.37304335784999
 20
-3.49473190015
 10
27.17637083785
 20
-3.562780109750008
 10
26.10041826664999
 20
-3.62390199295001
 10
25.02556824104999
 20
-3.684563338550006
 10
24.07234633064999
 20
-3.737771096949998
 10
23.12031262025
 20
-3.790121012150009
  0
LWPOLYLINE
  5
71
330
2
100
AcDbEntity
  8
0
100
AcDbPolyline
 90
        7
 70
     0
 43
0.0
 10
23.12031262025
 20
-3.790121012150009
 10
21.20634531304999
 20
-3.89486803615
 10
19.43351150824999
 20
-3.990875816950008
 10
17.79505773865
 20
-4.07871549695001
 10
16.28310468585
 20
-4.158991284150005
 10
14.82548949225
 20
-4.235653863350009
 10
13.97900913705
 20
-4.279769527349998
  0
LWPOLYLINE
  5
72
330
2
100
AcDbEntity
  8
0
100
AcDbPolyline
 90
        9
 70
     0
 43
0.0
 10
11.90050506984999
 20
-4.38722586175001
 10
11.17253510345
 20
-4.42453476255001
 10
10.13484357705
 20
-4.477306386549997
 10
9.197453269850001
 20
-4.524630816950008
 10
8.294112831449993
 20
-4.569911373750002
 10
7.462931628250004
 20
-4.611277639350007
 10
6.664008642650003
 20
-4.650746975350003
 10
5.882943265050002
 20
-4.689030932150004
 10
5.78389536265
 20
-4.693844578549999
  0
LINE
  5
73
330
2
100
AcDbEntity
  8
0
100
AcDbLine
 10
13.52069156425
 20
-4.600857284150003
 30
0.0
 11
12.50035633864999
 21
-4.652883818550002
 31
0.0
  0
LINE
  5
74
330
2
100
AcDbEntity
  8
0
100
AcDbLine
 10
5.009772345049993
 20
-5.034826053750003
 30
0.0
 11
3.35526536905
 21
-5.119188781750005
 31
0.0
  0
LINE
  5
75
330
2
100
AcDbEntity
  8
0
100
AcDbLine
 10
-2.234792707750004
 20
-6.203239949749993
 30
0.0
 11
-2.243672210149997
 21
-6.203697772150001
 31
0.0
  0
LWPOLYLINE
  5
76
330
2
100
AcDbEntity
  8
0
100
AcDbPolyline
 90
       25
 70
     0
 43
0.0
 10
3.355265369050002
 20
-5.119188781750011
 10
3.312752463449996
 20
-5.12124434975
 10
3.272010029849994
 20
-5.122993831350001
 10
3.233086737050001
 20
-5.124447578550004
 10
3.195923305050001
 20
-5.125619328950008
 10
3.160527562650003
 20
-5.126519181749998
 10
3.126855665050001
 20
-5.12715755615001
 10
3.094947007450002
 20
-5.127542300150011
 10
3.064747205849997
 20
-5.12768179775
 10
3.036283370649996
 20
-5.127582620150008
 10
3.009550353050002
 20
-5.12725087135
 10
2.984531748250006
 20
-5.126691199350005
 10
2.96127107945
 20
-5.125908658550002
 10
2.939742788250001
 20
-5.124905242549999
 10
2.920002639450004
 20
-5.123685096949998
 10
2.902062378650001
 20
-5.122249501750005
 10
2.885956345050004
 20
-5.120599698550009
 10
2.871744233049994
 20
-5.118739010550001
 10
2.859451101849998
 20
-5.116665269750001
 10
2.849152362650002
 20
-5.114382645749998
 10
2.840895442649994
 20
-5.111889216950004
 10
2.834752549849994
 20
-5.109187197750003
 10
2.830795775449999
 20
-5.106279552949999
 10
2.829094818650006
 20
-5.103164765750008
 10
2.829624961050001
 20
-5.100047885750001
  0
LWPOLYLINE
  5
77
330
2
100
AcDbEntity
  8
0
100
AcDbPolyline
 90
       22
 70
     0
 43
0.0
 10
12.50035633864999
 20
-4.652883818550009
 10
12.47453096584999
 20
-4.65411860895
 10
12.44849752585
 20
-4.655196583350004
 10
12.42239206505
 20
-4.656106706550005
 10
12.39626751625
 20
-4.656841192950011
 10
12.37026371944999
 20
-4.657389485750002
 10
12.34445222825
 20
-4.657742717750011
 10
12.31899461704999
 20
-4.657890576950009
 10
12.29401363145
 20
-4.657823783350011
 10
12.26971142345
 20
-4.657534122550003
 10
12.24623531784999
 20
-4.657014488950011
 10
12.22378171625
 20
-4.65625996895001
 10
12.20259320584999
 20
-4.655270624950006
 10
12.18289247945
 20
-4.654051008950006
 10
12.16480194185
 20
-4.652603127350005
 10
12.14850610025
 20
-4.650935922550004
 10
12.13422104904999
 20
-4.649069912950011
 10
12.12210131784999
 20
-4.647031791350002
 10
12.11218072744999
 20
-4.644839573750005
 10
12.10447281704999
 20
-4.642510592950003
 10
12.09899243945
 20
-4.640070168950003
 10
12.09571489385
 20
-4.637545476150009
  0
LWPOLYLINE
  5
78
330
2
100
AcDbEntity
  8
0
100
AcDbPolyline
 90
        6
 70
     0
 43
0.0
 10
2.978509613849993
 20
-4.828227570549998
 10
2.70892357545
 20
-4.840932560950008
 10
1.780309383450003
 20
-4.884116231350006
 10
0.8190385434500058
 20
-4.928144090550006
 10
-0.1921560725500058
 20
-4.973683348150004
 10
-1.185021472550005
 20
-5.017588624950008
  0
LINE
  5
79
330
2
100
AcDbEntity
  8
0
100
AcDbLine
 10
-2.243672210149997
 20
-6.203697772150001
 30
0.0
 11
-2.259435811749996
 21
-6.204420560949992
 31
0.0
  0
LWPOLYLINE
  5
7A
330
2
100
AcDbEntity
  8
0
100
AcDbPolyline
 90
       48
 70
     0
 43
0.0
 10
-1.185021472550005
 20
-5.017588624950008
 10
-1.212595814950006
 20
-5.018765568950001
 10
-1.242002544550004
 20
-5.019962122549998
 10
-1.274949702949996
 20
-5.021250311350001
 10
-1.312608592550006
 20
-5.022668151350003
 10
-1.355586501350003
 20
-5.024226007350009
 10
-1.404557456549994
 20
-5.025932538550009
 10
-1.460644742949995
 20
-5.027806535350009
 10
-1.524708858150006
 20
-5.029850866550006
 10
-1.596327043749994
 20
-5.03202346655
 10
-1.67499193655
 20
-5.034280613749999
 10
-1.761041982950004
 20
-5.036601956150008
 10
-1.854828429350007
 20
-5.03896259935
 10
-1.956848210149999
 20
-5.041335248950005
 10
-2.067677994150002
 20
-5.043686490550001
 10
-2.188071925350001
 20
-5.045976352950006
 10
-2.318977942949999
 20
-5.048154637750002
 10
-2.461643334949997
 20
-5.05015702335001
 10
-2.617864118949995
 20
-5.051899069750007
 10
-2.790220010149994
 20
-5.053262154549997
 10
-2.982799019750004
 20
-5.05406874015
 10
-3.202347558949995
 20
-5.054023760950002
 10
-3.455086666149995
 20
-5.052620490549998
 10
-3.744244117350007
 20
-5.049092180149997
 10
-4.07036005175
 20
-5.042374733750008
 10
-4.405033000550005
 20
-5.032030202550004
 10
-4.698656426149995
 20
-5.019594712950009
 10
-4.968858306149996
 20
-5.004925799350004
 10
-5.238070578150001
 20
-4.986977138550003
 10
-5.506714424549997
 20
-4.96554528415001
 10
-5.77497620535
 20
-4.940413090550009
 10
-6.043040875749994
 20
-4.911335552950006
 10
-6.311112814950007
 20
-4.878033522549998
 10
-6.579428016549996
 20
-4.840186004149998
 10
-6.848265614949994
 20
-4.797419628150009
 10
-7.117970742950006
 20
-4.749293149750002
 10
-7.388874206950006
 20
-4.69529928735001
 10
-7.661534771749998
 20
-4.634798407350004
 10
-7.929251581350001
 20
-4.568915600950006
 10
-8.185066270950002
 20
-4.499491488949999
 10
-8.429185530149993
 20
-4.426884743350001
 10
-8.662535104550002
 20
-4.351233036150006
 10
-8.885956491749993
 20
-4.272645760949998
 10
-9.100215858149994
 20
-4.191206202550006
 10
-9.306002742949999
 20
-4.106977274550004
 10
-9.503945611749998
 20
-4.020000565750009
 10
-9.694600926950002
 20
-3.930305996150011
 10
-9.878490640549998
 20
-3.837899124149998
  0
LINE
  5
7B
330
2
100
AcDbEntity
  8
0
100
AcDbLine
 10
-2.259435811749996
 20
-6.204420560949992
 30
0.0
 11
-2.285385616550003
 21
-6.205491482549995
 31
0.0
  0
LINE
  5
7C
330
2
100
AcDbEntity
  8
0
100
AcDbLine
 10
-2.285385616550003
 20
-6.205491482549995
 30
0.0
 11
-2.319372494950004
 21
-6.206781813749992
 31
0.0
  0
LINE
  5
7D
330
2
100
AcDbEntity
  8
0
100
AcDbLine
 10
-2.319372494950004
 20
-6.206781813749992
 30
0.0
 11
-2.35309396535
 21
-6.207985748150002
 31
0.0
  0
LWPOLYLINE
  5
7E
330
2
100
AcDbEntity
  8
0
100
AcDbPolyline
 90
        3
 70
     0
 43
0.0
 10
-2.519938675749997
 20
-6.21329395135001
 10
-2.538964381349998
 20
-6.213933804150002
 10
-2.556862552550001
 20
-6.214485388150009
  0
LINE
  5
7F
330
2
100
AcDbEntity
  8
0
100
AcDbLine
 10
-2.35309396535
 20
-6.207985748150002
 30
0.0
 11
-2.396445507750003
 21
-6.209454757750003
 31
0.0
  0
LINE
  5
80
330
2
100
AcDbEntity
  8
0
100
AcDbLine
 10
-2.396445507750003
 20
-6.209454757750003
 30
0.0
 11
-2.451011094950006
 21
-6.211206464950003
 31
0.0
  0
LWPOLYLINE
  5
81
330
2
100
AcDbEntity
  8
0
100
AcDbPolyline
 90
        3
 70
     0
 43
0.0
 10
-2.451011094950004
 20
-6.211206464950009
 10
-2.495113016550007
 20
-6.212556711350003
 10
-2.519938675749997
 20
-6.21329395135001
  0
LWPOLYLINE
  5
82
330
2
100
AcDbEntity
  8
0
100
AcDbPolyline
 90
       10
 70
     0
 43
0.0
 10
-2.556862552550001
 20
-6.214485388150009
 10
-2.76578178135
 20
-6.220080050550009
 10
-2.942177226149993
 20
-6.224121767349998
 10
-3.126503266149995
 20
-6.227733533749997
 10
-3.329293603750002
 20
-6.231008794550007
 10
-3.55416723415
 20
-6.233927453749998
 10
-3.802847901350006
 20
-6.236572402550009
 10
-4.078109405350005
 20
-6.238921056950005
 10
-4.384758814950004
 20
-6.240709192950006
 10
-4.728036566949995
 20
-6.241569384950011
  0
LWPOLYLINE
  5
83
330
2
100
AcDbEntity
  8
0
100
AcDbPolyline
 90
       15
 70
     0
 43
0.0
 10
-4.728036566949995
 20
-6.241569384950011
 10
-5.149483178150006
 20
-6.242271949750005
 10
-5.549628779749994
 20
-6.241112944950003
 10
-5.927391653349999
 20
-6.237978416949999
 10
-6.282169214950002
 20
-6.232797487349998
 10
-6.605085669350003
 20
-6.225765319350003
 10
-6.903550896550001
 20
-6.216862463350011
 10
-7.187615338149996
 20
-6.205930215350008
 10
-7.462475616549994
 20
-6.192912604150009
 10
-7.729648014950001
 20
-6.177831824950004
 10
-7.989507442149999
 20
-6.160741620150005
 10
-8.242416888549996
 20
-6.14169124575001
 10
-8.488720187750004
 20
-6.120728788150003
 10
-8.728743278950005
 20
-6.097900309750002
 10
-8.96280836695
 20
-6.073246316150004
  0
LWPOLYLINE
  5
84
330
2
100
AcDbEntity
  8
0
100
AcDbPolyline
 90
       80
 70
     0
 43
0.0
 10
-8.839771803749997
 20
-2.542275868149999
 10
-8.576964422949998
 20
-2.60071439455001
 10
-8.296370962150007
 20
-2.656172706550009
 10
-8.000970390950001
 20
-2.707494853750006
 10
-7.694461890149995
 20
-2.753763016950003
 10
-7.38125467415
 20
-2.794338356150007
 10
-7.06162696055
 20
-2.829362888950001
 10
-6.734782346149998
 20
-2.859077719350011
 10
-6.401315800549994
 20
-2.883566653750008
 10
-6.061001240549998
 20
-2.902988504950002
 10
-5.713200170150003
 20
-2.917499365750003
 10
-5.357782576549993
 20
-2.927206167350007
 10
-4.995239501349999
 20
-2.93220608415001
 10
-4.627070574949996
 20
-2.932631532149997
 10
-4.254297723749999
 20
-2.928684468150009
 10
-3.877170368549997
 20
-2.920589261750009
 10
-3.495515496549998
 20
-2.90855961695
 10
-3.108751800549995
 20
-2.892778823349999
 10
-2.715713614950004
 20
-2.873372346549999
 10
-2.313209714150005
 20
-2.850282324150001
 10
-1.904339075750002
 20
-2.823783181750002
 10
-1.511987643750003
 20
-2.795774047350008
 10
-1.147501002149994
 20
-2.767876472950007
 10
-0.8049316117500069
 20
-2.740342588149999
 10
-0.4770933509499998
 20
-2.713073712950006
 10
-0.1625129653500039
 20
-2.686296823350005
 10
0.1421879562499981
 20
-2.659988460150003
 10
0.439392962650004
 20
-2.634140176949998
 10
0.7308393514500012
 20
-2.608753640949998
 10
1.017809125849993
 20
-2.583838613750003
 10
1.301278098650001
 20
-2.559408644150011
 10
1.582179402649998
 20
-2.535463933750008
 10
1.861420895449995
 20
-2.511994943350003
 10
2.139885418649996
 20
-2.488984688949997
 10
2.418460473050004
 20
-2.466408874549998
 10
2.697857572250001
 20
-2.444255208950011
 10
2.977477919449995
 20
-2.42261061855001
 10
3.256878927450003
 20
-2.401540136950004
 10
3.539003233049996
 20
-2.38085521535001
 10
3.829911861849993
 20
-2.36016615295
 10
4.139392623449992
 20
-2.338864247350002
 10
4.473361705049995
 20
-2.316685989749998
 10
4.836784909849995
 20
-2.293502096950007
 10
5.238981319450005
 20
-2.269004346550005
 10
5.695925729050003
 20
-2.242672093750002
 10
6.221675037850005
 20
-2.214403336949999
 10
6.822837935449996
 20
-2.184851303350001
 10
7.482472348249999
 20
-2.156037784950001
 10
8.091646146649992
 20
-2.133054752950002
 10
8.62451810665
 20
-2.116061471350008
 10
9.089999041049992
 20
-2.103815309750004
 10
9.495977005849994
 20
-2.095300087350011
 10
9.866496820250006
 20
-2.089456069749999
 10
10.24759033384999
 20
-2.085508050550004
 10
10.68260470184999
 20
-2.083637869750006
 10
11.18167118824999
 20
-2.085000908150007
 10
11.72871703625
 20
-2.090770938550008
 10
12.23860831944999
 20
-2.100037700150011
 10
12.68493044745
 20
-2.111041669750008
 10
13.07511201705
 20
-2.12269771615
 10
13.42248108744999
 20
-2.134529636150006
 10
13.74736743785
 20
-2.146716804150003
 10
14.06332422664999
 20
-2.159503023349998
 10
14.37613581864999
 20
-2.172974020150007
 10
14.69034651465
 20
-2.187230032949997
 10
15.01473905384999
 20
-2.20262302815
 10
15.36090295945
 20
-2.21971749535001
 10
15.73692384905
 20
-2.238974173750008
 10
16.14700226825
 20
-2.260686967350011
 10
16.59888140264999
 20
-2.285352549750001
 10
17.10950035624999
 20
-2.314008720949999
 10
17.69577484904999
 20
-2.34774308095001
 10
18.36399897545
 20
-2.387021458550009
 10
19.11425536904999
 20
-2.43182994655001
 10
19.93996693545
 20
-2.481549964150005
 10
20.71621632584999
 20
-2.52818457855001
 10
21.39063901225
 20
-2.568223565750002
 10
21.98423499784999
 20
-2.602813656950004
 10
22.52065277385
 20
-2.63333412095001
 10
23.01506602825
 20
-2.660669792950002
  0
LWPOLYLINE
  5
85
330
2
100
AcDbEntity
  8
0
100
AcDbPolyline
 90
       17
 70
     0
 43
0.0
 10
29.57042492745
 20
-2.815742687350009
 10
30.29938923944999
 20
-2.766468775350006
 10
30.90946522344999
 20
-2.697801533750009
 10
31.48495359784999
 20
-2.602997509750011
 10
32.02317102505
 20
-2.481593109750008
 10
32.47696063464999
 20
-2.35146122175
 10
32.89874758985
 20
-2.20778842975001
 10
33.27592642345
 20
-2.06128502975001
 10
33.61658454985
 20
-1.909394511350001
 10
33.93274121704999
 20
-1.747568184949997
 10
34.26252879144999
 20
-1.554969720949998
 10
34.61678044104999
 20
-1.320379807350008
 10
34.95616605704999
 20
-1.072264213750003
 10
35.31690916265
 20
-0.7866682777500103
 10
35.68308546824999
 20
-0.4732642457500021
 10
36.11962088104999
 20
-0.0541590345500112
 10
36.45998310505
 20
0.3456110486499995
  0
LWPOLYLINE
  5
86
330
2
100
AcDbEntity
  8
0
100
AcDbPolyline
 90
       33
 70
     0
 43
0.0
 10
7.687375657049997
 20
-2.435352682550004
 10
7.486339119449993
 20
-2.434396749750007
 10
7.283119413850002
 20
-2.44040812575001
 10
7.080015719450003
 20
-2.453419808950002
 10
6.877470767450006
 20
-2.473398922550003
 10
6.675929900249997
 20
-2.500287021750011
 10
6.475834697050004
 20
-2.53400028095001
 10
6.277621281050002
 20
-2.574429664950002
 10
6.081716877849999
 20
-2.621441562550003
 10
5.888520279450006
 20
-2.674883581750009
 10
5.698411874650005
 20
-2.734584612150001
 10
5.51176249705
 20
-2.800352896950002
 10
5.328925186649996
 20
-2.871978832950006
 10
5.150219097049998
 20
-2.949243042550008
 10
4.975947165850001
 20
-3.031911584950009
 10
4.806399290650006
 20
-3.119734495350002
 10
4.641828053850005
 20
-3.212459308150002
 10
4.482431852250002
 20
-3.309846626549997
 10
4.328394409050005
 20
-3.411652626550008
 10
4.179888801049997
 20
-3.517626448950011
 10
4.037081122649993
 20
-3.627506461750002
 10
3.900131287449994
 20
-3.741017341750008
 10
3.769170106649994
 20
-3.85788820255
 10
3.644285898649997
 20
-3.977870088949998
 10
3.525549285850004
 20
-4.100719504950006
 10
3.413008997849999
 20
-4.22620560415001
 10
3.306704097050001
 20
-4.35409980255001
 10
3.206660783450004
 20
-4.484180304950001
 10
3.112886367450002
 20
-4.616243018550008
 10
3.025382169050004
 20
-4.750087754550008
 10
2.944144509850005
 20
-4.885516596149997
 10
2.869163573850002
 20
-5.022335604150001
 10
2.829625658650002
 20
-5.100047848949998
  0
LWPOLYLINE
  5
87
330
2
100
AcDbEntity
  8
0
100
AcDbPolyline
 90
        6
 70
     0
 43
0.0
 10
7.687375658649997
 20
-2.435352679350003
 10
8.309041575449995
 20
-2.452056276150003
 10
8.930266725850003
 20
-2.474949218550008
 10
9.550983775449992
 20
-2.504029016949999
 10
10.17112509224999
 20
-2.539292493750011
 10
10.79062333544999
 20
-2.58073581375001
  0
LWPOLYLINE
  5
88
330
2
100
AcDbEntity
  8
0
100
AcDbPolyline
 90
        6
 70
     0
 43
0.0
 10
7.869325412250006
 20
-3.666073472950003
 10
8.444485916250002
 20
-3.682014392950009
 10
9.019180847450002
 20
-3.704308791350001
 10
9.593332809049996
 20
-3.732953674550003
 10
10.16686473385
 20
-3.767945200950009
 10
10.73969946984999
 20
-3.80927867295
  0
LWPOLYLINE
  5
89
330
2
100
AcDbEntity
  8
0
100
AcDbPolyline
 90
        7
 70
     0
 43
0.0
 10
23.01506602825
 20
-2.660669792950002
 10
24.42124178185
 20
-2.73368444735
 10
25.66286017864999
 20
-2.787834536950001
 10
26.76507377705
 20
-2.823799892150006
 10
27.89563381384999
 20
-2.843180500149998
 10
28.82477506025
 20
-2.839130024950009
 10
29.57042492745
 20
-2.815742687350009
  0
LWPOLYLINE
  5
8A
330
2
100
AcDbEntity
  8
0
100
AcDbPolyline
 90
       25
 70
     0
 43
0.0
 10
10.79062333544999
 20
-2.58073581375001
 10
10.96515297224999
 20
-2.596616144950004
 10
11.13866462984999
 20
-2.619071248950007
 10
11.31089688104999
 20
-2.648064668149999
 10
11.48145205385
 20
-2.683519202550002
 10
11.65022595624999
 20
-2.725404191350008
 10
11.81695902504999
 20
-2.773655535350002
 10
11.98125265384999
 20
-2.828149096949999
 10
12.14301327785
 20
-2.888845727350002
 10
12.30197831145
 20
-2.955647892150011
 10
12.45775594984999
 20
-3.028380525750009
 10
12.61026817065
 20
-3.106997064950007
 10
12.75926961864999
 20
-3.191371175349999
 10
12.90439665385
 20
-3.281285172150006
 10
13.04557924424999
 20
-3.376684293750003
 10
13.18259139785
 20
-3.477415565750007
 10
13.31510475144999
 20
-3.583224812150007
 10
13.44305184904999
 20
-3.694045645750009
 10
13.56623123625
 20
-3.809702927350002
 10
13.68435850505
 20
-3.929916493749999
 10
13.79736463624999
 20
-4.054603040949999
 10
13.90507558664999
 20
-4.183570000949998
 10
14.00725673864999
 20
-4.316524232950001
 10
14.10383300105
 20
-4.453355399350002
 10
14.14432297224999
 20
-4.514443776950002
  0
LWPOLYLINE
  5
8B
330
2
100
AcDbEntity
  8
0
100
AcDbPolyline
 90
       21
 70
     0
 43
0.0
 10
10.73969946984999
 20
-3.80927867295
 10
10.82173230665
 20
-3.817531882549999
 10
10.90311540585
 20
-3.829484557750006
 10
10.98369360104999
 20
-3.845119400950011
 10
11.06328337704999
 20
-3.864408757749998
 10
11.14165671144999
 20
-3.887302319349998
 10
11.21870778185
 20
-3.913776663350006
 10
11.29418968264999
 20
-3.943755192950007
 10
11.36796099465
 20
-3.977187588150002
 10
11.43986712265
 20
-4.014014375350001
 10
11.50969392585
 20
-4.054134479350011
 10
11.57734818985
 20
-4.097506164150004
 10
11.64260907144999
 20
-4.144001508149997
 10
11.70534333864999
 20
-4.193536208950007
 10
11.76541173065
 20
-4.246015813750005
 10
11.82263208105
 20
-4.301294520950008
 10
11.87691146184999
 20
-4.359298741750009
 10
11.92807144104999
 20
-4.419855434550001
 10
11.97599735145
 20
-4.48284229055001
 10
12.02057094184999
 20
-4.548120892150009
 10
12.05324284104999
 20
-4.601051485750005
  0
LWPOLYLINE
  5
8C
330
2
100
AcDbEntity
  8
0
100
AcDbPolyline
 90
        3
 70
     0
 43
0.0
 10
12.05590505224999
 20
20.93574601985
 10
12.07809780264999
 20
20.95230182784999
 10
12.09571489385
 20
20.96968699744999
  0
LWPOLYLINE
  5
8D
330
2
100
AcDbEntity
  8
0
100
AcDbPolyline
 90
        3
 70
     0
 43
0.0
 10
6.36925165865
 20
-1.187203917750011
 10
6.313882114649999
 20
-1.200506293750009
 10
6.299940637849999
 20
-1.203802951349999
  0
LINE
  5
8E
330
2
100
AcDbEntity
  8
0
100
AcDbLine
 10
6.299940637849998
 20
-1.203802951349993
 30
0.0
 11
6.27552183144999
 21
-1.209468882549992
 31
0.0
  0
LINE
  5
8F
330
2
100
AcDbEntity
  8
0
100
AcDbLine
 10
6.27552183144999
 20
-1.209468882549992
 30
0.0
 11
6.25449241705
 21
-1.214245303349991
 31
0.0
  0
LINE
  5
90
330
2
100
AcDbEntity
  8
0
100
AcDbLine
 10
6.25449241705
 20
-1.214245303349991
 30
0.0
 11
6.233140804249996
 21
-1.219020402549994
 31
0.0
  0
LWPOLYLINE
  5
91
330
2
100
AcDbEntity
  8
0
100
AcDbPolyline
 90
        3
 70
     0
 43
0.0
 10
6.233140804249998
 20
-1.21902040255
 10
6.211390745049996
 20
-1.223797442550008
 10
6.200390105050004
 20
-1.226166295349997
  0
LWPOLYLINE
  5
92
330
2
100
AcDbEntity
  8
0
100
AcDbPolyline
 90
       17
 70
     0
 43
0.0
 10
6.200390105050004
 20
-1.226166295349997
 10
6.174169127449999
 20
-1.231689845750011
 10
6.147740903449999
 20
-1.237116460150005
 10
6.121098135449997
 20
-1.242444061750006
 10
6.094233529050001
 20
-1.24767057695
 10
6.067145677849993
 20
-1.25279458655001
 10
6.039856713049999
 20
-1.257817285750007
 10
6.012394657049995
 20
-1.262740530550004
 10
5.984787530649995
 20
-1.267566175349998
 10
5.957063177050002
 20
-1.272295117750005
 10
5.929248724250001
 20
-1.27692442175001
 10
5.901371125850005
 20
-1.281450197750004
 10
5.873457332249998
 20
-1.285868556150006
 10
5.845529237850001
 20
-1.29017821215001
 10
5.817588509849997
 20
-1.294388301750004
 10
5.789631761050003
 20
-1.298510570550007
 10
5.761655597849994
 20
-1.302556762550011
  0
LWPOLYLINE
  5
93
330
2
100
AcDbEntity
  8
0
100
AcDbPolyline
 90
       27
 70
     0
 43
0.0
 10
5.761655597849994
 20
-1.302556762550011
 10
5.703431812250002
 20
-1.310807690550007
 10
5.644640756249998
 20
-1.318969690550005
 10
5.585306996249997
 20
-1.327055151350009
 10
5.525448258650001
 20
-1.335073509750003
 10
5.465054914649996
 20
-1.343022404150005
 10
5.404110498649998
 20
-1.350896519350001
 10
5.358030015449998
 20
-1.35675051295
 10
5.311619609049998
 20
-1.362561269750003
 10
5.264868596249996
 20
-1.368330602550003
 10
5.217766295450005
 20
-1.374060322550008
 10
5.170303997849998
 20
-1.37975175775
 10
5.122480905049997
 20
-1.385404288949999
 10
5.074298193049997
 20
-1.391016810549999
 10
5.025757039449999
 20
-1.396588216950007
 10
4.976856570649999
 20
-1.402117629750009
 10
4.927587727450003
 20
-1.407605079350005
 10
4.87793940265
 20
-1.413050828150005
 10
4.827900487449994
 20
-1.418455133750001
 10
4.777461237850005
 20
-1.423818007350007
 10
4.726617367450003
 20
-1.42913846495
 10
4.675365946650003
 20
-1.434415276150005
 10
4.623704053850005
 20
-1.439647208950006
 10
4.571631156249992
 20
-1.444832754550006
 10
4.519156295450002
 20
-1.449969290550001
 10
4.466290909850002
 20
-1.455053922550007
 10
4.413046434649999
 20
-1.460083751349998
  0
LWPOLYLINE
  5
94
330
2
100
AcDbEntity
  8
0
100
AcDbPolyline
 90
      103
 70
     0
 43
0.0
 10
4.413046434649999
 20
-1.460083751349998
 10
3.790710137049998
 20
-1.520061602550001
 10
3.169989941850005
 20
-1.582908469750009
 10
2.551681089049992
 20
-1.647858106550003
 10
1.936533780250002
 20
-1.71409551775001
 10
1.323246871449995
 20
-1.781004552950008
 10
0.7076527466499983
 20
-1.848313588150006
 10
0.5018976266500062
 20
-1.870737914550005
 10
0.296763689049996
 20
-1.893019864950005
 10
0.0932279114500006
 20
-1.915028388150005
 10
-0.0580266901500011
 20
-1.931300504950002
 10
-0.2088562533500067
 20
-1.94743381855001
 10
-0.5118107365500038
 20
-1.97948218335
 10
-0.6640738453500035
 20
-1.995375634550001
 10
-0.8176938021500035
 20
-2.01123123935001
 10
-0.9736672069499974
 20
-2.027118872949998
 10
-1.132990664550007
 20
-2.043108413750005
 10
-1.296522934950004
 20
-2.059251671350011
 10
-1.464571419750001
 20
-2.075528184950002
 10
-1.579293283750004
 20
-2.08644165055
 10
-1.69672873975
 20
-2.097430519349998
 10
-1.817508813350002
 20
-2.10852809215001
 10
-1.942067650149994
 20
-2.119748439350004
 10
-2.070051866149995
 20
-2.131028730549999
 10
-2.200911192549995
 20
-2.142286903349997
 10
-2.33423180055
 20
-2.153451927350005
 10
-2.470145603749998
 20
-2.164496904949999
 10
-2.608920946150007
 20
-2.175405972150002
 10
-2.750722512549998
 20
-2.186153356150001
 10
-2.895300318950006
 20
-2.196673669749998
 10
-3.042300718950002
 20
-2.206891615350002
 10
-3.265863528549999
 20
-2.221454828150001
 10
-3.490190357350002
 20
-2.234806181750002
 10
-3.716655989350002
 20
-2.246883554550009
 10
-3.944572746150001
 20
-2.257559757750001
 10
-4.172351899749997
 20
-2.266670248950006
 10
-4.398404726950005
 20
-2.27405048895001
 10
-4.621974622950006
 20
-2.279581288949998
 10
-4.844373672550005
 20
-2.28328223615
 10
-4.990795811750004
 20
-2.28469312415001
 10
-5.135130517350006
 20
-2.285258178550009
 10
-5.277097411750006
 20
-2.284991797750009
 10
-5.416502685349996
 20
-2.283907498550007
 10
-5.553498813350003
 20
-2.282015239350002
 10
-5.688324843749995
 20
-2.279324100150006
 10
-5.821145829350001
 20
-2.27584621375
 10
-5.951830845350002
 20
-2.271605952950011
 10
-6.080174974949997
 20
-2.266630746550006
 10
-6.230926584550005
 20
-2.25972073375
 10
-6.378361046950004
 20
-2.251789728950001
 10
-6.522827176549995
 20
-2.242835559349998
 10
-6.664673787750004
 20
-2.232856055349998
 10
-6.804249694950001
 20
-2.221849044150005
 10
-6.975927619749995
 20
-2.206648607350004
 10
-7.144502786149999
 20
-2.189874466550008
 10
-7.309875387749997
 20
-2.171561789750001
 10
-7.471945616550002
 20
-2.151745746550005
 10
-7.630603998949993
 20
-2.130470906550002
 10
-7.785702406949994
 20
-2.107819436150009
 10
-7.937083038950007
 20
-2.083882900150001
 10
-8.084588099750007
 20
-2.058752866550008
 10
-8.228105717350004
 20
-2.032514016950003
 10
-8.367707730150002
 20
-2.005223488950008
 10
-8.503511899749994
 20
-1.976931540150005
 10
-8.635635989350006
 20
-1.947688420150001
 10
-8.764200062949996
 20
-1.917539781750008
 10
-8.889333387749999
 20
-1.886512845750004
 10
-9.011167526950004
 20
-1.85463022815
 10
-9.129834050149995
 20
-1.821914544950004
 10
-9.245466514149995
 20
-1.788386968950007
 10
-9.358206432550005
 20
-1.754062900150003
 10
-9.468197312550003
 20
-1.718956293750011
 10
-9.575582661349997
 20
-1.683081106550005
 10
-9.714952806949995
 20
-1.634069380150009
 10
-9.850254347749995
 20
-1.58370901855001
 10
-9.981795619750002
 20
-1.531992940150004
 10
-10.10984037014999
 20
-1.478926255350003
 10
-10.23447402454999
 20
-1.424562855350004
 10
-10.35573742134999
 20
-1.368968818550001
 10
-10.47368263254999
 20
-1.312204002550004
 10
-10.58840665015
 20
-1.254303370550005
 10
-10.70001769655
 20
-1.195295660150009
 10
-10.80861464375
 20
-1.135211999350005
 10
-10.91425896535
 20
-1.074093069750006
 10
-11.01700278455
 20
-1.011981941750008
 10
-11.11689674135
 20
-0.9489214889500061
 10
-11.21398552854999
 20
-0.8849537961500004
 10
-11.30831234775
 20
-0.8201207497500035
 10
-11.39990707894999
 20
-0.7544755929500014
 10
-11.48874626935
 20
-0.6881169913500003
 10
-11.57479314294999
 20
-0.6211549657500087
 10
-11.65802400375
 20
-0.5536878329500042
 10
-11.73846752055
 20
-0.4857671049499999
 10
-11.81616544215
 20
-0.4174325865500066
 10
-11.89115881815
 20
-0.3487241225500099
 10
-11.96348586615
 20
-0.2796816921500067
 10
-12.03318410455
 20
-0.2103453193500115
 10
-12.10029202455
 20
-0.1407542921500067
 10
-12.16485202615
 20
-0.0709449897500036
 10
-12.22690748374999
 20
-0.0009530649500107
 10
-12.28650325014999
 20
0.0691883590499884
 10
-12.34369008534999
 20
0.1394562726499942
 10
-12.39852022614999
 20
0.2098301862500023
  0
LWPOLYLINE
  5
95
330
2
100
AcDbEntity
  8
0
100
AcDbPolyline
 90
        3
 70
     0
 43
0.0
 10
8.007327551450003
 20
-1.014190818550005
 10
7.982241169049999
 20
-1.015840287350002
 10
7.957268669849995
 20
-1.017533085750002
  0
LWPOLYLINE
  5
96
330
2
100
AcDbEntity
  8
0
100
AcDbPolyline
 90
        9
 70
     0
 43
0.0
 10
7.957268669849995
 20
-1.017533085750002
 10
7.922443157849997
 20
-1.019773762550002
 10
7.888258892249993
 20
-1.021660877750008
 10
7.854738813850005
 20
-1.02325218975001
 10
7.821905860249998
 20
-1.024605456949998
 10
7.779207261850004
 20
-1.02612732255001
 10
7.737646335449994
 20
-1.027393436150006
 10
7.697098409049999
 20
-1.028468564150003
 10
7.657446305050001
 20
-1.02941466015001
  0
LINE
  5
97
330
2
100
AcDbEntity
  8
0
100
AcDbLine
 10
8.057832271449994
 20
-1.010985023349996
 30
0.0
 11
8.007327551450002
 21
-1.014190818549999
 31
0.0
  0
LWPOLYLINE
  5
98
330
2
100
AcDbEntity
  8
0
100
AcDbPolyline
 90
        8
 70
     0
 43
0.0
 10
8.264176007450004
 20
-0.999219376950009
 10
8.238006701849997
 20
-1.000573976950008
 10
8.211942650650001
 20
-1.00196193695001
 10
8.185985461849995
 20
-1.003384378550009
 10
8.160136740249996
 20
-1.004842421749998
 10
8.134397677850003
 20
-1.00633612735001
 10
8.108767821849994
 20
-1.007861301750011
 10
8.057832271449996
 20
-1.010985023350002
  0
LWPOLYLINE
  5
99
330
2
100
AcDbEntity
  8
0
100
AcDbPolyline
 90
       26
 70
     0
 43
0.0
 10
7.543020461850005
 20
-1.031972151350004
 10
7.506109041049995
 20
-1.03287346495
 10
7.469661042650002
 20
-1.033855328950011
 10
7.415695865049997
 20
-1.035542901750005
 10
7.362497201050004
 20
-1.037557983349998
 10
7.309994394650004
 20
-1.039972242550007
 10
7.258103212250006
 20
-1.042842391350006
 10
7.206748351450002
 20
-1.046217256950001
 10
7.155903794650001
 20
-1.050129066549999
 10
7.105554311449992
 20
-1.054602685749998
 10
7.05567854505
 20
-1.05965012735001
 10
7.006282503449995
 20
-1.065272719350005
 10
6.957487813849994
 20
-1.071441887350005
 10
6.909435133849996
 20
-1.078118549750001
 10
6.862225660250004
 20
-1.085251487350006
 10
6.815883493849995
 20
-1.092797068150005
 10
6.770163842649992
 20
-1.100754160950003
 10
6.724771519450001
 20
-1.10913197375001
 10
6.679478636249996
 20
-1.117938599349997
 10
6.63413829225
 20
-1.127167653750007
 10
6.58886024425
 20
-1.136756007350001
 10
6.543812657049997
 20
-1.146626116150002
 10
6.499140679449993
 20
-1.156699543350001
 10
6.455003727450005
 20
-1.166891604150009
 10
6.411641300249996
 20
-1.177093506550008
 10
6.36925165865
 20
-1.187203917750011
  0
LINE
  5
9A
330
2
100
AcDbEntity
  8
0
100
AcDbLine
 10
7.657446305049999
 20
-1.029414660150004
 30
0.0
 11
7.543020461850003
 21
-1.031972151349997
 31
0.0
  0
LINE
  5
9B
330
2
100
AcDbEntity
  8
0
100
AcDbLine
 10
21.50035126505
 20
-0.8481176777500047
 30
0.0
 11
21.16340180744999
 21
-0.8471438073500019
 31
0.0
  0
LWPOLYLINE
  5
9C
330
2
100
AcDbEntity
  8
0
100
AcDbPolyline
 90
        3
 70
     0
 43
0.0
 10
21.16340180744999
 20
-0.8471438073500081
 10
20.81730219304999
 20
-0.8460020057500088
 10
20.64188150664999
 20
-0.8453785673500107
  0
LWPOLYLINE
  5
9D
330
2
100
AcDbEntity
  8
0
100
AcDbPolyline
 90
       51
 70
     0
 43
0.0
 10
18.63413198665
 20
-0.8374435129500028
 10
18.45497274505
 20
-0.8367782777499996
 10
18.09872649064999
 20
-0.8355379529500055
 10
17.86359128904999
 20
-0.8347941289500084
 10
17.63124346665
 20
-0.8341290665500054
 10
17.40241584265
 20
-0.8335522985500034
 10
17.23347783305
 20
-0.8331830009500009
 10
17.06683176424999
 20
-0.8328703721499977
 10
16.90227384745
 20
-0.8326160377500002
 10
16.73918664264999
 20
-0.8324215449500087
 10
16.41418459144999
 20
-0.8322221049500058
 10
16.08656995785
 20
-0.8323045817500087
 10
15.75945890024999
 20
-0.8327044905500002
 10
15.59697265385
 20
-0.8330310041500013
 10
15.43422415144999
 20
-0.8334491561500101
 10
15.26994868104999
 20
-0.8339670473500007
 10
15.10300775944999
 20
-0.8345966361500103
 10
14.93245186984999
 20
-0.8353510537500028
 10
14.75796117704999
 20
-0.8362442585500104
 10
14.57953922185
 20
-0.8372892777500027
 10
14.39785339624999
 20
-0.8384945881499987
 10
14.21354489385
 20
-0.8398688073500011
 10
14.02648627624999
 20
-0.8414256617500086
 10
13.83644758664999
 20
-0.8431796265500111
 10
13.64355745064999
 20
-0.8451430841500098
 10
13.44786475144999
 20
-0.8473303385500088
 10
13.24874081225
 20
-0.8497654793499975
 10
13.04554972264999
 20
-0.8524738857500011
 10
12.83830419624999
 20
-0.8554763065500026
 10
12.62729915785
 20
-0.8587899017500006
 10
12.41330973544999
 20
-0.8624221081499996
 10
12.19730973865
 20
-0.8663745305500043
 10
11.98058749064999
 20
-0.8706351545500012
 10
11.76410490345
 20
-0.875196575350003
 10
11.54720372264999
 20
-0.8800834297500017
 10
11.32891732425
 20
-0.8853284649500068
 10
11.10866574665
 20
-0.890964792950001
 10
10.88636618504999
 20
-0.8970135369499985
 10
10.66353778504999
 20
-0.9034475033500086
 10
10.44205584904999
 20
-0.9102241097500041
 10
10.22361835465
 20
-0.917287560950001
 10
10.00964862185
 20
-0.9245837481499989
 10
9.800648674650005
 20
-0.9320785337500012
 10
9.596639541849995
 20
-0.939753432949999
 10
9.396639577049995
 20
-0.9476325881500002
 10
9.199680868249998
 20
-0.9557410969500068
 10
9.005853129049995
 20
-0.9640652521500072
 10
8.815436130649999
 20
-0.9725842857500026
 10
8.628412253850001
 20
-0.981288013750003
 10
8.444689535449995
 20
-0.9901688905500094
 10
8.264176007450004
 20
-0.999219376950009
  0
LWPOLYLINE
  5
9E
330
2
100
AcDbEntity
  8
0
100
AcDbPolyline
 90
        3
 70
     0
 43
0.0
 10
20.64188150664999
 20
-0.8453785673500107
 10
20.28722363145
 20
-0.8440459545499976
 10
20.04556947624999
 20
-0.8430951353499978
  0
LINE
  5
9F
330
2
100
AcDbEntity
  8
0
100
AcDbLine
 10
19.05866164264999
 20
-0.8390989481500037
 30
0.0
 11
18.63413198665
 21
-0.8374435129499966
 31
0.0
  0
LINE
  5
A0
330
2
100
AcDbEntity
  8
0
100
AcDbLine
 10
20.04556947624999
 20
-0.8430951353499915
 30
0.0
 11
19.05866164264999
 21
-0.8390989481500037
 31
0.0
  0
LWPOLYLINE
  5
A1
330
2
100
AcDbEntity
  8
0
100
AcDbPolyline
 90
        3
 70
     0
 43
0.0
 10
12.05590505224999
 20
-4.603604498549998
 10
12.07809780264999
 20
-4.620160306550005
 10
12.09571489385
 20
-4.637545476150009
  0
LINE
  5
A2
330
2
100
AcDbEntity
  8
0
100
AcDbLine
 10
12.05590505224999
 20
20.93574601985
 30
0.0
 11
12.05324231464999
 21
20.93319303905
 31
0.0
  0
LWPOLYLINE
  5
A3
330
2
100
AcDbEntity
  8
0
100
AcDbPolyline
 90
        4
 70
     0
 43
0.0
 10
-8.839771635749997
 20
-2.542273669750002
 10
-8.850889645349994
 20
-2.544427154550007
 10
-8.862505726950004
 20
-2.548009045750006
 10
-8.874552629350006
 20
-2.553144298550009
  0
LWPOLYLINE
  5
A4
330
2
100
AcDbEntity
  8
0
100
AcDbPolyline
 90
        4
 70
     0
 43
0.0
 10
-13.21675745654999
 20
0.1837793510499921
 10
-13.28436921814999
 20
0.1787290870500016
 10
-13.35532003254999
 20
0.1728658278499893
 10
-13.42994198935
 20
0.1660700326499978
  0
LWPOLYLINE
  5
A5
330
2
100
AcDbEntity
  8
0
100
AcDbPolyline
 90
       42
 70
     0
 43
0.0
 10
-17.06356757495
 20
6.96566893184999
 10
-17.09416236695
 20
6.971737453449989
 10
-17.12359066455
 20
6.977662376650002
 10
-17.15316189815
 20
6.98375136544999
 10
-17.18107463415
 20
6.989659751049998
 10
-17.20911366295
 20
6.995795575049996
 10
-17.23470522935
 20
7.001745280649998
 10
-17.26042793975
 20
7.00854034305
 10
-17.28343109975
 20
7.015710247049995
 10
-17.30656388855
 20
7.024326658249989
 10
-17.32726542455
 20
7.033666183050002
 10
-17.34797276855
 20
7.04511500705
 10
-17.36699472215
 20
7.057933947849988
 10
-17.38591160695
 20
7.07336414305
 10
-17.40394182295
 20
7.090834842249989
 10
-17.42179434935
 20
7.110725797450001
 10
-17.43944775735
 20
7.132800568649997
 10
-17.45686021014999
 20
7.156787437449992
 10
-17.47432471895
 20
7.182937783049993
 10
-17.49147831735
 20
7.210610978249988
 10
-17.50887266134999
 20
7.240760423049991
 10
-17.52589337015
 20
7.272413357449991
 10
-17.54330338775
 20
7.307126274249995
 10
-17.56025721494999
 20
7.343368229449993
 10
-17.57720902615
 20
7.382247595849989
 10
-17.59358660534999
 20
7.422642245449992
 10
-17.60931685015
 20
7.464441967049992
 10
-17.62436929175
 20
7.507653251850001
 10
-17.63828609175
 20
7.550907488649997
 10
-17.65146597815
 20
7.59539968704999
 10
-17.66342746135
 20
7.639407994249992
 10
-17.67461622135
 20
7.684483203849993
 10
-17.68477415575
 20
7.729563221449993
 10
-17.69412088215
 20
7.775560416649994
 10
-17.70256571414999
 20
7.821995200649993
 10
-17.71016799894999
 20
7.869167709449996
 10
-17.71690315415
 20
7.916966967050001
 10
-17.72275525655
 20
7.965339762249996
 10
-17.72774335735
 20
8.014617405449996
 10
-17.73180037814999
 20
8.064308477449998
 10
-17.73496763575
 20
8.115075162249993
 10
-17.73718125655
 20
8.166070760650001
  0
LINE
  5
A6
330
2
100
AcDbEntity
  8
0
100
AcDbLine
 10
12.05590505224999
 20
-4.603604498549992
 30
0.0
 11
12.05324231464999
 21
-4.601051517750001
 31
0.0
  0
LWPOLYLINE
  5
A7
330
2
100
AcDbEntity
  8
0
100
AcDbPolyline
 90
       17
 70
     0
 43
0.0
 10
5.436945361049993
 20
8.166118682250001
 10
5.441473578650004
 20
7.649603389449993
 10
5.455068957850002
 20
7.135839602250001
 10
5.47772667625
 20
6.623164984649989
 10
5.509222834650003
 20
6.114862280650001
 10
5.549333106649996
 20
5.612601392649992
 10
5.597987039450003
 20
5.11536263584999
 10
5.654907412249997
 20
4.624476888649994
 10
5.719855874649994
 20
4.140555346249996
 10
5.79141469065
 20
3.671394290249992
 10
5.867060434649999
 20
3.22791723425
 10
5.946081445849998
 20
2.808064744649996
 10
6.028058986649995
 20
2.409159760649998
 10
6.112451442649998
 20
2.029910096649999
 10
6.19984112905
 20
1.664834368649991
 10
6.291210569049994
 20
1.308346259849997
 10
6.387406973850005
 20
0.9566776342499991
  0
LWPOLYLINE
  5
A8
330
2
100
AcDbEntity
  8
0
100
AcDbPolyline
 90
       24
 70
     0
 43
0.0
 10
5.436945359449993
 20
8.166090483849998
 10
5.437789687449992
 20
8.389824821449991
 10
5.440601618649992
 20
8.630353682249989
 10
5.445901388249993
 20
8.891378784650001
 10
5.453102108249993
 20
9.13902461664999
 10
5.462497647449993
 20
9.388495152649994
 10
5.475274884249998
 20
9.662064077449997
 10
5.489300604250004
 20
9.913323272649989
 10
5.50707572585
 20
10.18676260384998
 10
5.52920807145
 20
10.48160865024999
 10
5.553551122650006
 20
10.76656268704999
 10
5.581047949850002
 20
11.05377439584998
 10
5.611763753049999
 20
11.34292381345
 10
5.647538813850005
 20
11.64821982944999
 10
5.687406057049997
 20
11.95806502304998
 10
5.732204559449996
 20
12.27671540225
 10
5.779114932249996
 20
12.58397175905
 10
5.832148029850003
 20
12.90527539584999
 10
5.889862167450004
 20
13.22942940704999
 10
5.957632148249999
 20
13.58235173184999
 10
6.041011690649995
 20
13.98309943904999
 10
6.137038373850003
 20
14.40757057024998
 10
6.249834927449995
 20
14.86528805025
 10
6.387405786649992
 20
15.37545960065
  0
LWPOLYLINE
  5
A9
330
2
100
AcDbEntity
  8
0
100
AcDbPolyline
 90
       10
 70
     0
 43
0.0
 10
5.032990650649992
 20
8.166050781449996
 10
5.05275429705
 20
9.24434757985
 10
5.106750244249994
 20
10.24550105024999
 10
5.189297247449999
 20
11.18538298785
 10
5.295749994649995
 20
12.06753052224999
 10
5.417551209050003
 20
12.86765352065001
 10
5.554764122649999
 20
13.61843669505
 10
5.705369284249997
 20
14.32529552385
 10
5.857808429849995
 20
14.95391881985
 10
6.008714850649994
 20
15.51197637344998
  0
LWPOLYLINE
  5
AA
330
2
100
AcDbEntity
  8
0
100
AcDbPolyline
 90
       21
 70
     0
 43
0.0
 10
6.00871698665
 20
15.51197621344999
 10
6.019892503449995
 20
15.66009042945
 10
6.03127305865
 20
15.80750244544998
 10
6.042800866649997
 20
15.95346317504999
 10
6.054417282649993
 20
16.09723144545
 10
6.066086505049995
 20
16.23835751905
 10
6.077731522649997
 20
16.37590293344999
 10
6.089292362649999
 20
16.50916183104999
 10
6.10071288105
 20
16.63749069504999
 10
6.111937741849999
 20
16.76027101504999
 10
6.122912922650002
 20
16.87691471905
 10
6.133585676249992
 20
16.98686340705001
 10
6.143904698650004
 20
17.08959002944999
 10
6.153820457050002
 20
17.18460216225
 10
6.163285593050005
 20
17.27144561824999
 10
6.172254801050002
 20
17.34970275424998
 10
6.180682532250003
 20
17.41897431904999
 10
6.188515666650005
 20
17.47883347264999
 10
6.195732761049995
 20
17.52912335905
 10
6.202297941850005
 20
17.56958500864999
 10
6.208178274649995
 20
17.60000439104999
  0
LWPOLYLINE
  5
AC
330
2
100
AcDbEntity
  8
0
100
AcDbPolyline
 90
       43
 70
     0
 43
0.0
 10
32.76318155305
 20
6.36403464544999
 10
32.83029102825
 20
6.365576943050001
 10
32.89760948265
 20
6.369625261449996
 10
32.96465281384999
 20
6.376173816649995
 10
33.03113673705
 20
6.385201322249997
 10
33.09718341545
 20
6.396708053449998
 10
33.16290103305
 20
6.410709867850002
 10
33.22818667945
 20
6.427194826250001
 10
33.29290063144999
 20
6.446137637449993
 10
33.35688607944999
 20
6.467498971849991
 10
33.42001238345
 20
6.491235173449993
 10
33.48222349385
 20
6.517324010249993
 10
33.54346138984999
 20
6.545743715849994
 10
33.60363406025
 20
6.57645591744999
 10
33.66263548905
 20
6.609409239049995
 10
33.72039722984999
 20
6.644567951049992
 10
33.77680604584999
 20
6.681864368649996
 10
33.83183156584999
 20
6.72128020705
 10
33.88514736265
 20
6.762563536649992
 10
33.93696557705
 20
6.805860125449996
 10
33.98799661225
 20
6.851752725449998
 10
34.03664865544999
 20
6.898842938249998
 10
34.08357987305
 20
6.947793221449998
 10
34.12868664424999
 20
6.998504480649998
 10
34.17190716265
 20
7.05091289824999
 10
34.21317527944999
 20
7.104944154249992
 10
34.25243230344999
 20
7.16052727265
 10
34.28961744905
 20
7.21758192064999
 10
34.32465901064999
 20
7.276001832649996
 10
34.35748287305
 20
7.335662712649991
 10
34.38805432584999
 20
7.39649515424999
 10
34.41634910185
 20
7.45845390945
 10
34.44231759624999
 20
7.52143052545
 10
34.46594184744999
 20
7.585379219849997
 10
34.48715523305
 20
7.650125042249996
 10
34.50577925864999
 20
7.715040538249994
 10
34.52185989225
 20
7.78013034944999
 10
34.53564609705
 20
7.846523611849988
 10
34.54711228585
 20
7.914372309450001
 10
34.55605495144999
 20
7.982029890249989
 10
34.56247032105
 20
8.047681261449994
 10
34.56616353545
 20
8.109427843849999
 10
34.56726899944999
 20
8.166076464649989
  0
LWPOLYLINE
  5
AD
330
2
100
AcDbEntity
  8
0
100
AcDbPolyline
 90
       20
 70
     0
 43
0.0
 10
6.387406898649999
 20
0.9566776070499969
 10
6.422525527450005
 20
0.839633338249996
 10
6.470495970650006
 20
0.7118811974499977
 10
6.532612501849996
 20
0.5753247094500012
 10
6.607503373849993
 20
0.4359026502500001
 10
6.694851913050001
 20
0.2954508518499921
 10
6.795965789850001
 20
0.1532949958499898
 10
6.910129767450001
 20
0.0120058966499954
 10
7.034604418650005
 20
-0.1241543945500041
 10
7.167188449050001
 20
-0.2525374345500069
 10
7.303709217049998
 20
-0.3694519193499985
 10
7.440100093850006
 20
-0.472472797750001
 10
7.576585711449993
 20
-0.5627994393500018
 10
7.706926081049999
 20
-0.6376450041500022
 10
7.830535285850004
 20
-0.6984808601499993
 10
7.947648093850006
 20
-0.7469423113500114
 10
8.062086175450005
 20
-0.7854468025499984
 10
8.169347103449993
 20
-0.8132629769499999
 10
8.269728146649995
 20
-0.8316443193500049
 10
8.363638263449999
 20
-0.8417049433500096
  0
LWPOLYLINE
  5
AF
330
2
100
AcDbEntity
  8
0
100
AcDbPolyline
 90
       19
 70
     0
 43
0.0
 10
6.008714850649994
 20
0.8201651478499911
 10
5.927639143449994
 20
1.113019523849999
 10
5.849197007450001
 20
1.411832435850001
 10
5.770939068250001
 20
1.727294247049997
 10
5.695698393049994
 20
2.049367661449991
 10
5.620214741850006
 20
2.394096703049996
 10
5.548496938650004
 20
2.745444869449997
 10
5.480318860249994
 20
3.105491187849992
 10
5.416381146649996
 20
3.471468760649997
 10
5.354975740249997
 20
3.855357983049998
 10
5.298481396249997
 20
4.244728589449991
 10
5.243103356250003
 20
4.67143269345
 10
5.193862015449994
 20
5.103436351049992
 10
5.148529433050001
 20
5.566850912649996
 10
5.11048078505
 20
6.034929637449991
 10
5.078056477849997
 20
6.539359711049996
 10
5.054284085849999
 20
7.046934906250001
 10
5.038327570649997
 20
7.60507999584999
 10
5.032990650649992
 20
8.166050781449996
  0
LWPOLYLINE
  5
B0
330
2
100
AcDbEntity
  8
0
100
AcDbPolyline
 90
       21
 70
     0
 43
0.0
 10
6.208178274649995
 20
-1.267862869750004
 10
6.20230063145
 20
-1.237458808950009
 10
6.195733068249992
 20
-1.196983861749998
 10
6.188508837849994
 20
-1.146641970550007
 10
6.180664927449996
 20
-1.086693000950006
 10
6.17222438345
 20
-1.017303268150001
 10
6.163241706649998
 20
-0.9389109977499998
 10
6.153763589850001
 20
-0.8519269753500111
 10
6.143836676250003
 20
-0.7567836889500086
 10
6.133509620249995
 20
-0.6539512361500073
 10
6.122832612249993
 20
-0.5439324777500048
 10
6.111857337049997
 20
-0.4272622489500009
 10
6.100636809050001
 20
-0.3045055481500043
 10
6.089224996249996
 20
-0.1762534585500077
 10
6.077676340249993
 20
-0.0431174105500105
 10
6.066045788249994
 20
0.0942707014500002
 10
6.054392095449998
 20
0.2352182534500002
 10
6.042790364249995
 20
0.3788098118499903
 10
6.031273559449999
 20
0.5246326806500008
 10
6.019897372249999
 20
0.6719873062499886
 10
6.00871698665
 20
0.8201653078499901
  0
LWPOLYLINE
  5
B1
330
2
100
AcDbEntity
  8
0
100
AcDbPolyline
 90
       28
 70
     0
 43
0.0
 10
14.14432275625
 20
20.84658531265
 10
14.14508367304999
 20
20.84821984544999
 10
14.14481262664999
 20
20.85164488224998
 10
14.14213823785
 20
20.85512167105
 10
14.13716591304999
 20
20.85863295264999
 10
14.12998583305
 20
20.86217295584998
 10
14.12069978344999
 20
20.86572694304999
 10
14.10938367945
 20
20.86929011104999
 10
14.09611850505
 20
20.87285331904999
 10
14.08098707944999
 20
20.87640678464998
 10
14.06402749545
 20
20.87994985984999
 10
14.04532302664999
 20
20.88347077504999
 10
14.02488804905
 20
20.88697027104998
 10
14.00277320905
 20
20.89044082785
 10
13.97901671145
 20
20.89387654944999
 10
13.95360405705
 20
20.89727779744998
 10
13.92659382985
 20
20.90063388224999
 10
13.89794559464999
 20
20.90394583744998
 10
13.86768398504999
 20
20.90720543264998
 10
13.83580077864999
 20
20.91040739425
 10
13.80225935145
 20
20.91354789024998
 10
13.76709703464999
 20
20.91661512384999
 10
13.73024365864999
 20
20.91960584065
 10
13.69173099785
 20
20.92250694304999
 10
13.65150620584999
 20
20.92531088544999
 10
13.60959876104999
 20
20.92800297184999
 10
13.56599730345
 20
20.93057038624999
 10
13.52069156425
 20
20.93299880544998
  0
LWPOLYLINE
  5
B2
330
2
100
AcDbEntity
  8
0
100
AcDbPolyline
 90
       28
 70
     0
 43
0.0
 10
14.14432275625
 20
-4.514443791350004
 10
14.14508367304999
 20
-4.516078324150001
 10
14.14481262664999
 20
-4.519503360950011
 10
14.14213823785
 20
-4.522980149749997
 10
14.13716591304999
 20
-4.526491431350009
 10
14.12998583305
 20
-4.530031434550011
 10
14.12069978344999
 20
-4.533585421750004
 10
14.10938367945
 20
-4.537148589750003
 10
14.09611850505
 20
-4.540711797750006
 10
14.08098707944999
 20
-4.544265263349998
 10
14.06402749545
 20
-4.547808338549998
 10
14.04532302664999
 20
-4.551329253749997
 10
14.02488804905
 20
-4.554828749750001
 10
14.00277320905
 20
-4.558299306549997
 10
13.97901671145
 20
-4.56173502815001
 10
13.95360405705
 20
-4.565136276149999
 10
13.92659382985
 20
-4.568492360950003
 10
13.89794559464999
 20
-4.571804316150007
 10
13.86768398504999
 20
-4.57506391135
 10
13.83580077864999
 20
-4.578265872949998
 10
13.80225935145
 20
-4.581406368949998
 10
13.76709703464999
 20
-4.584473602550005
 10
13.73024365864999
 20
-4.587464319350004
 10
13.69173099785
 20
-4.590365421750007
 10
13.65150620584999
 20
-4.59316936415
 10
13.60959876104999
 20
-4.595861450550003
 10
13.56599730345
 20
-4.598428864950008
 10
13.52069156425
 20
-4.600857284150009
  0
LWPOLYLINE
  5
B3
330
2
100
AcDbEntity
  8
0
100
AcDbPolyline
 90
        4
 70
     0
 43
0.0
 10
-13.59464057974999
 20
0.1163430214499925
 10
-13.54047247895
 20
0.1322500758499956
 10
-13.48552604855
 20
0.1488314214499979
 10
-13.42994853655
 20
0.1660827382499974
  0
LWPOLYLINE
  5
B4
330
2
100
AcDbEntity
  8
0
100
AcDbPolyline
 90
       22
 70
     0
 43
0.0
 10
32.76318155305
 20
9.968106875849997
 10
32.62971844745
 20
9.963655818250003
 10
32.49679694344999
 20
9.949174263049997
 10
32.36544643304999
 20
9.92477984704999
 10
32.23605734825
 20
9.89054353825
 10
32.10945156904999
 20
9.846651293450008
 10
31.98633300105
 20
9.793323837450003
 10
31.86752249705
 20
9.730908275849998
 10
31.75351903944999
 20
9.659650402249994
 10
31.64514319145
 20
9.580046803849995
 10
31.54281213225
 20
9.492379994250001
 10
31.44722146824999
 20
9.397200608649995
 10
31.35896088904999
 20
9.295075560649991
 10
31.27847627945
 20
9.186489903049988
 10
31.20627681224999
 20
9.072085763849997
 10
31.14286589865
 20
8.952657919049997
 10
31.08861342505
 20
8.828956515849995
 10
31.04369108905
 20
8.701355312649994
 10
31.00840782505
 20
8.570606176649988
 10
30.98303956425001
 20
8.437710759049991
 10
30.96757803305
 20
8.301733440649996
 10
30.96246783625
 20
8.166070760650001
  0
LWPOLYLINE
  5
B5
330
2
100
AcDbEntity
  8
0
100
AcDbPolyline
 90
        9
 70
     0
 43
0.0
 10
38.77425075465
 20
6.853570760650001
 10
38.77021897065
 20
6.853890114249992
 10
38.75486120105
 20
6.860970210250002
 10
38.73960260904999
 20
6.877331095049996
 10
38.72450785865
 20
6.902995216649998
 10
38.70973233384999
 20
6.937786133449989
 10
38.69539144584999
 20
6.981462928649989
 10
38.68160480585
 20
7.033660914249992
 10
38.66847202504999
 20
7.093978413449988
  0
LWPOLYLINE
  5
B6
330
2
100
AcDbEntity
  8
0
100
AcDbPolyline
 90
        4
 70
     0
 43
0.0
 10
-13.42994853655
 20
16.16605878305
 10
-13.48552604855
 20
16.18331009984999
 10
-13.54047247895
 20
16.19989144544999
 10
-13.59464057974999
 20
16.21579849984999
  0
LWPOLYLINE
  5
B7
330
2
100
AcDbEntity
  8
0
100
AcDbPolyline
 90
       33
 70
     0
 43
0.0
 10
2.829625658650002
 20
21.43218937025
 10
2.869084321049996
 20
21.35462873184999
 10
2.944063522649997
 20
21.21779929984998
 10
3.025300260250006
 20
21.08236001984999
 10
3.112804362649995
 20
20.94850486465
 10
3.206579511450001
 20
20.81643177985
 10
3.306624396250001
 20
20.68634099265
 10
3.41293171465
 20
20.55843662945
 10
3.525475269850005
 20
20.43294052224999
 10
3.644216002649997
 20
20.31008129825
 10
3.769105181849994
 20
20.19008984224999
 10
3.900072185049992
 20
20.07320969984999
 10
4.037028682650003
 20
19.95968986784999
 10
4.179843847450001
 20
19.84980128704998
 10
4.328357746649999
 20
19.74381933345
 10
4.482404250650006
 20
19.64200569504998
 10
4.641810252249996
 20
19.54461127905
 10
4.806391993049999
 20
19.45187996064999
 10
4.975951042649995
 20
19.36405118305001
 10
5.150234767450001
 20
19.28137746145
 10
5.328953213849999
 20
19.20410881025
 10
5.51180337705
 20
19.13247921344998
 10
5.698466041049996
 20
19.06670809184999
 10
5.888588085850003
 20
19.00700508385
 10
6.081798602649996
 20
18.95356198145
 10
6.277717114650002
 20
18.90654992065
 10
6.47594474505
 20
18.86612131424999
 10
6.676054175450005
 20
18.83240978944999
 10
6.877609189850005
 20
18.80552438945
 10
7.080168113049992
 20
18.78554893665
 10
7.283285500250002
 20
18.77254187424998
 10
7.486518545050003
 20
18.76653605984998
 10
7.687375657049997
 20
18.76749420384999
  0
LWPOLYLINE
  5
B8
330
2
100
AcDbEntity
  8
0
100
AcDbPolyline
 90
       27
 70
     0
 43
0.0
 10
5.638776255449997
 20
-4.921999610550003
 10
5.66514423625
 20
-4.875837077750006
 10
5.719415257050002
 20
-4.787866632949999
 10
5.777691397850006
 20
-4.70215667455001
 10
5.839806522649993
 20
-4.618934589749997
 10
5.905668716250005
 20
-4.53830731935001
 10
5.975164569049994
 20
-4.460409084150001
 10
6.048124442649992
 20
-4.385424964150004
 10
6.124405801050002
 20
-4.313493844150002
 10
6.203886234649999
 20
-4.244728764150011
 10
6.286390004249994
 20
-4.17928136735
 10
6.371725076250001
 20
-4.117299304950009
 10
6.459762348249995
 20
-4.058873557750004
 10
6.550325617049992
 20
-4.004122335350004
 10
6.643195066649994
 20
-3.953176444150003
 10
6.738224111449994
 20
-3.906114352949998
 10
6.835222613849992
 20
-3.86303144735001
 10
6.933983226649999
 20
-3.824019933750008
 10
7.034316685850001
 20
-3.789154256949998
 10
7.136025445849995
 20
-3.75850351935
 10
7.238911847449998
 20
-3.732128271350006
 10
7.342769172250001
 20
-3.710082735349999
 10
7.447382781849995
 20
-3.692413111350006
 10
7.552553529050001
 20
-3.679153839350007
 10
7.658091452250005
 20
-3.670331578550005
 10
7.763752780250001
 20
-3.665968607350009
 10
7.869325412250006
 20
-3.666073472950003
  0
LWPOLYLINE
  5
B9
330
2
100
AcDbEntity
  8
0
100
AcDbPolyline
 90
       21
 70
     0
 43
0.0
 10
38.77424960745
 20
9.478570760650001
 10
38.78046534185
 20
9.477812016649991
 10
38.79505388904999
 20
9.470036763849989
 10
38.80957678185
 20
9.453790939849994
 10
38.82397843785
 20
9.428954749449999
 10
38.83811126025
 20
9.395593672649994
 10
38.85184782665
 20
9.353877642249997
 10
38.86505795305
 20
9.304123448649988
 10
38.87762429385
 20
9.24675571745
 10
38.88947150345
 20
9.182122309449994
 10
38.90051514504999
 20
9.110689410249989
 10
38.91069390184999
 20
9.032859459850001
 10
38.91992214344999
 20
8.949328890250001
 10
38.92816861545
 20
8.860429783049994
 10
38.93538044425
 20
8.766738695049994
 10
38.94150714824999
 20
8.668961760649992
 10
38.94647367944999
 20
8.568690803849989
 10
38.95027161704999
 20
8.467081696649998
 10
38.95291512745
 20
8.365452154249993
 10
38.95445296264999
 20
8.264734442249988
 10
38.95494778184999
 20
8.166070760650001
  0
LWPOLYLINE
  5
BA
330
2
100
AcDbEntity
  8
0
100
AcDbPolyline
 90
       27
 70
     0
 43
0.0
 10
5.638776255449997
 20
21.25414113184999
 10
5.66514423625
 20
21.20797859904999
 10
5.719415257050002
 20
21.12000815425
 10
5.777691397850006
 20
21.03429819585
 10
5.839806522649993
 20
20.95107611104998
 10
5.905668716250005
 20
20.87044884064999
 10
5.975164569049994
 20
20.79255060705
 10
6.048124442649992
 20
20.71756648544999
 10
6.124405801050002
 20
20.64563536545
 10
6.203886234649999
 20
20.57687028544998
 10
6.286390004249994
 20
20.51142288865
 10
6.371725076250001
 20
20.44944082624999
 10
6.459762348249995
 20
20.39101507904999
 10
6.550325617049992
 20
20.33626385664999
 10
6.643195066649994
 20
20.28531796544999
 10
6.738224111449994
 20
20.23825587425
 10
6.835222613849992
 20
20.19517296864998
 10
6.933983226649999
 20
20.15616145504998
 10
7.034316685850001
 20
20.12129577824998
 10
7.136025445849995
 20
20.09064504065
 10
7.238911847449998
 20
20.06426979265
 10
7.342769172250001
 20
20.04222425665
 10
7.447382781849995
 20
20.02455463264999
 10
7.552553529050001
 20
20.01129536064999
 10
7.658091452250005
 20
20.00247309984999
 10
7.763752780250001
 20
19.99811013024998
 10
7.869325412250006
 20
19.99821499424999
  0
LWPOLYLINE
  5
BB
330
2
100
AcDbEntity
  8
0
100
AcDbPolyline
 90
        5
 70
     0
 43
0.0
 10
5.638774743449999
 20
-4.921999692150009
 10
5.637477601049994
 20
-4.923606220150006
 10
5.63394233065
 20
-4.926131455350002
 10
5.628377244250003
 20
-4.928841124150011
 10
5.620669044249993
 20
-4.931734912950005
  0
LWPOLYLINE
  5
BC
330
2
100
AcDbEntity
  8
0
100
AcDbPolyline
 90
       36
 70
     0
 43
0.0
 10
-17.07497807415
 20
9.364216751049994
 10
-17.01177137495
 20
9.376672954249997
 10
-16.97824584695
 20
9.383331034249991
 10
-16.94491024535
 20
9.390080624649996
 10
-16.90922317335
 20
9.397534215050001
 10
-16.87375321654999
 20
9.40526757984999
 10
-16.83560225015
 20
9.41405511264999
 10
-16.79770283255
 20
9.423323298249997
 10
-16.75681774774999
 20
9.433936224649997
 10
-16.71623269655
 20
9.445113951049989
 10
-16.67238414615
 20
9.457924509449995
 10
-16.62889509335
 20
9.471398867849998
 10
-16.58189367255
 20
9.486841778249996
 10
-16.53532384695
 20
9.503066083850001
 10
-16.48560496695
 20
9.521424621449995
 10
-16.43634109335
 20
9.540681847049995
 10
-16.38501707895
 20
9.561877496649998
 10
-16.33408265015
 20
9.584057128650002
 10
-16.27994545655
 20
9.608900815049992
 10
-16.22612755894999
 20
9.634925775049993
 10
-16.16951702615
 20
9.663762128649992
 10
-16.11313542295
 20
9.694007408649994
 10
-16.05434647895
 20
9.727207634249992
 10
-15.99569613495
 20
9.76206715104999
 10
-15.93500588535
 20
9.800029819849982
 10
-15.87436564855
 20
9.839950040649995
 10
-15.81573085654999
 20
9.880509639049989
 10
-15.75728047095
 20
9.922938199050008
 10
-15.69695357655
 20
9.968915394249989
 10
-15.63704594455
 20
10.01687930944999
 10
-15.57331859095
 20
10.07054830945
 10
-15.51033443255
 20
10.12642501184998
 10
-15.44162103095
 20
10.19079015424998
 10
-15.37399671895
 20
10.25781650945001
 10
-15.29967442774999
 20
10.33591673825
 10
-15.22654627095
 20
10.41743670944998
  0
LWPOLYLINE
  5
BD
330
2
100
AcDbEntity
  8
0
100
AcDbPolyline
 90
        4
 70
     0
 43
0.0
 10
-13.42994198935
 20
16.16607148865
 10
-13.35530678295
 20
16.15927454465
 10
-13.28435538295
 20
16.15341134624998
 10
-13.21675745654999
 20
16.14836217024998
  0
LWPOLYLINE
  5
BE
330
2
100
AcDbEntity
  8
0
100
AcDbPolyline
 90
        5
 70
     0
 43
0.0
 10
5.638774743449999
 20
21.25414121344999
 10
5.637477601049994
 20
21.25574774144999
 10
5.63394233065
 20
21.25827297665
 10
5.628377244250003
 20
21.26098264544998
 10
5.620669044249993
 20
21.26387643424999
  0
LWPOLYLINE
  5
BF
330
2
100
AcDbEntity
  8
0
100
AcDbPolyline
 90
       20
 70
     0
 43
0.0
 10
8.363638263449999
 20
17.17384646464998
 10
8.268477636249997
 20
17.16360425984999
 10
8.168776903449995
 20
17.14527853024998
 10
8.063868188249998
 20
17.11811695264998
 10
7.953151137049999
 20
17.08113804544999
 10
7.840328337049996
 20
17.03501910784999
 10
7.721851769050005
 20
16.97765619584998
 10
7.596856903450003
 20
16.90730581824999
 10
7.465499820250002
 20
16.82236910624999
 10
7.332459069850003
 20
16.72441215584998
 10
7.198251773850003
 20
16.61256964065001
 10
7.065590828249995
 20
16.48772716864999
 10
6.938377202650002
 20
16.35252348065
 10
6.819189685850005
 20
16.20906140385
 10
6.711625415450001
 20
16.06160148544998
 10
6.617977695449994
 20
15.91416222784999
 10
6.538149209050004
 20
15.76791583265
 10
6.472339276249996
 20
15.62469740385
 10
6.422618796250006
 20
15.49278524704999
 10
6.387406898649999
 20
15.37546391424999
  0
LWPOLYLINE
  5
C0
330
2
100
AcDbEntity
  8
0
100
AcDbPolyline
 90
       25
 70
     0
 43
0.0
 10
10.79062333544999
 20
18.91287733504998
 10
10.96515297224999
 20
18.92875766624999
 10
11.13866462984999
 20
18.95121277025
 10
11.31089688104999
 20
18.98020618945
 10
11.48145205385
 20
19.01566072385
 10
11.65022595624999
 20
19.05754571264998
 10
11.81695902504999
 20
19.10579705665
 10
11.98125265384999
 20
19.16029061825
 10
12.14301327785
 20
19.22098724865
 10
12.30197831145
 20
19.28778941344998
 10
12.45775594984999
 20
19.36052204704998
 10
12.61026817065
 20
19.43913858624998
 10
12.75926961864999
 20
19.52351269664998
 10
12.90439665385
 20
19.61342669345
 10
13.04557924424999
 20
19.70882581505
 10
13.18259139785
 20
19.80955708704999
 10
13.31510475144999
 20
19.91536633345001
 10
13.44305184904999
 20
20.02618716704998
 10
13.56623123625
 20
20.14184444865
 10
13.68435850505
 20
20.26205801505
 10
13.79736463624999
 20
20.38674456224998
 10
13.90507558664999
 20
20.51571152225
 10
14.00725673864999
 20
20.64866575425
 10
14.10383300105
 20
20.78549692064999
 10
14.14432297224999
 20
20.84658529825
  0
LWPOLYLINE
  5
C1
330
2
100
AcDbEntity
  8
0
100
AcDbPolyline
 90
       80
 70
     0
 43
0.0
 10
23.01506602825
 20
18.99281131424999
 10
22.52060764265
 20
18.96547310944998
 10
21.98409391145
 20
18.93494705025
 10
21.39043329704999
 20
18.90035297824999
 10
20.71444548105
 20
18.86022021664999
 10
19.93631581225
 20
18.81347148385001
 10
19.09734154825
 20
18.76295577664999
 10
18.34253147465
 20
18.71789017185
 10
17.67789270185
 20
18.67884446144998
 10
17.09487064104999
 20
18.64531902145
 10
16.58617615145
 20
18.61679105024998
 10
16.13515963624999
 20
18.59219197664998
 10
15.72605141385
 20
18.57054968545
 10
15.35051318185
 20
18.55133669024999
 10
15.00509908425
 20
18.53429799424998
 10
14.68126694825
 20
18.51895019264998
 10
14.36746456425
 20
18.50473202464999
 10
14.05383312905
 20
18.49124798624998
 10
13.73763939785
 20
18.47847874305
 10
13.41286046825
 20
18.46632621505
 10
13.06417891465
 20
18.45448834145
 10
12.67443927945
 20
18.44289519104998
 10
12.22826105865
 20
18.43195529824998
 10
11.72039991785
 20
18.42279186625001
 10
11.17789498505
 20
18.41711804224999
 10
10.68475902984999
 20
18.41577720544998
 10
10.25410517224999
 20
18.41760069344999
 10
9.871815317849993
 20
18.42152789344999
 10
9.501055793049999
 20
18.42734867744999
 10
9.095869540249992
 20
18.43581885345
 10
8.628852690649992
 20
18.44807741664999
 10
8.093554618650003
 20
18.46513006944999
 10
7.485955661849999
 20
18.48803769344999
 10
6.828398087449997
 20
18.51673379585
 10
6.226034116250005
 20
18.54631976704999
 10
5.700130381850001
 20
18.57457883904999
 10
5.242230337050003
 20
18.60095296705
 10
4.839373855450006
 20
18.62548201824998
 10
4.475396937049993
 20
18.64869491905
 10
4.140800325849994
 20
18.67091052704998
 10
3.831812743450001
 20
18.69217461664999
 10
3.540204735450004
 20
18.71290994624999
 10
3.257772253849992
 20
18.73361521025
 10
2.978208945049999
 20
18.75469627264999
 10
2.698687860250004
 20
18.77633166465
 10
2.419515879450003
 20
18.79846576545
 10
2.140756018649994
 20
18.82105493985
 10
1.862143828249998
 20
18.84407619424999
 10
1.582890700250004
 20
18.86754522145
 10
1.301973746650006
 20
18.89149050944999
 10
1.018438573850005
 20
18.91592565344998
 10
0.7313940314499945
 20
18.94084689024998
 10
0.4399177466499964
 20
18.96623598304998
 10
0.1426437386499941
 20
18.99209044385
 10
-0.1621048197499988
 20
19.01840330785
 10
-0.4767434261499944
 20
19.04518573984998
 10
-0.8045020149500032
 20
19.07244890785
 10
-1.147684694950001
 20
19.10003244544998
 10
-1.511225509349998
 20
19.12785898145
 10
-1.904025579749998
 20
19.15590328064999
 10
-2.31267327735
 20
19.18239102625
 10
-2.716010392550003
 20
19.20552972704999
 10
-3.108585856550007
 20
19.22491284545
 10
-3.495466597350002
 20
19.24069936544998
 10
-3.877376034150003
 20
19.25273625664999
 10
-4.254403621349993
 20
19.26082770144998
 10
-4.627287165349997
 20
19.26477410465
 10
-4.995559050150006
 20
19.26434525824999
 10
-5.358139606950004
 20
19.25934039264999
 10
-5.713594552550006
 20
19.24962732065
 10
-6.061317907749995
 20
19.23511442464999
 10
-6.40186942455
 20
19.21567212544999
 10
-6.735509714149998
 20
19.19115957344999
 10
-7.062061373350005
 20
19.16146093025
 10
-7.381857790949993
 20
19.12640787264999
 10
-7.695682574949998
 20
19.08573354144999
 10
-8.001751082149993
 20
19.03950972064999
 10
-8.296472282150006
 20
18.98829541985
 10
-8.576765002149997
 20
18.93289780064998
 10
-8.839771803749997
 20
18.87441738945
  0
LWPOLYLINE
  5
C2
330
2
100
AcDbEntity
  8
0
100
AcDbPolyline
 90
        6
 70
     0
 43
0.0
 10
7.687375658649997
 20
18.76749420064999
 10
8.309041575449995
 20
18.78419779744999
 10
8.930266725850003
 20
18.80709073984999
 10
9.550983775449992
 20
18.83617053825
 10
10.17112509224999
 20
18.87143401504999
 10
10.79062333544999
 20
18.91287733504998
  0
LINE
  5
C3
330
2
100
AcDbEntity
  8
0
100
AcDbLine
 10
19.67272658985
 20
17.17373295585
 30
0.0
 11
19.85433924265
 21
17.17447017665001
 31
0.0
  0
LWPOLYLINE
  5
C4
330
2
100
AcDbEntity
  8
0
100
AcDbPolyline
 90
        3
 70
     0
 43
0.0
 10
19.12559447465
 20
17.17150885665
 10
19.30742313704999
 20
17.17224403104998
 10
19.67272658985
 20
17.17373295585
  0
LINE
  5
C5
330
2
100
AcDbEntity
  8
0
100
AcDbLine
 10
19.85433924265
 20
17.17447017665001
 30
0.0
 11
20.21216742825
 21
17.17589548224999
 31
0.0
  0
LINE
  5
C6
330
2
100
AcDbEntity
  8
0
100
AcDbLine
 10
18.76700297544999
 20
17.17009280065
 30
0.0
 11
19.12559447465
 21
17.17150885665001
 31
0.0
  0
LINE
  5
C7
330
2
100
AcDbEntity
  8
0
100
AcDbLine
 10
20.21216742825
 20
17.17589548224999
 30
0.0
 11
20.56398887624999
 21
17.17723499425
 31
0.0
  0
LINE
  5
C8
330
2
100
AcDbEntity
  8
0
100
AcDbLine
 10
20.56398887624999
 20
17.17723499425
 30
0.0
 11
20.91227462665
 21
17.17846942304999
 31
0.0
  0
LWPOLYLINE
  5
C9
330
2
100
AcDbEntity
  8
0
100
AcDbPolyline
 90
      123
 70
     0
 43
0.0
 10
20.91227462665
 20
17.17846942304999
 10
21.25404900744999
 20
17.17956189825
 10
21.42145908745
 20
17.18004491745
 10
21.58636180905
 20
17.18048257825
 10
21.80236752585
 20
17.18099282624999
 10
22.01421135625
 20
17.18141679104999
 10
22.22221210665
 20
17.18175191104998
 10
22.42662476264999
 20
17.18199573345001
 10
22.62744902984999
 20
17.18214622464998
 10
22.82462078985
 20
17.18220145825
 10
23.01809649544999
 20
17.18215972864999
 10
23.20791487785
 20
17.18202020224998
 10
23.39413523784999
 20
17.18178226784999
 10
23.57681687624999
 20
17.18144531104999
 10
23.75601909225
 20
17.18100871904999
 10
23.93180118665
 20
17.18047187905
 10
24.13832063945
 20
17.17969538144998
 10
24.34017499944999
 20
17.17877798784999
 10
24.53753875465
 20
17.17772404224999
 10
24.73058639785
 20
17.17653789024998
 10
24.91949241384999
 20
17.17522387585001
 10
25.10442914665
 20
17.17378303744999
 10
25.28556034025
 20
17.17220319904998
 10
25.46304759304999
 20
17.17046887904999
 10
25.63705249864999
 20
17.16856459265
 10
25.80773665705
 20
17.16647486144998
 10
26.01666431465
 20
17.16357500224998
 10
26.22094789544999
 20
17.16031102784998
 10
26.42087950024999
 20
17.15663276864998
 10
26.61675122344999
 20
17.15249005984998
 10
26.80885409545
 20
17.14783380385
 10
26.99747486344999
 20
17.14261916864998
 10
27.18289920265
 20
17.13680239264999
 10
27.36541279144999
 20
17.13033971265
 10
27.60471716265
 20
17.12064024705
 10
27.83995385385
 20
17.10959790465
 10
28.07172198185
 20
17.09709588544998
 10
28.30063447464999
 20
17.08301261824999
 10
28.52735947464999
 20
17.06720746464998
 10
28.75257893385
 20
17.04953501664999
 10
28.97687240585
 20
17.02984663104999
 10
29.20040985865
 20
17.00798071424998
 10
29.42325886665
 20
16.98377244065
 10
29.64531956905
 20
16.95708370624998
 10
29.86582238184999
 20
16.92788332384998
 10
30.08383028104999
 20
16.89616682944998
 10
30.24515503785
 20
16.87073150784999
 10
30.40427278504999
 20
16.84391207265
 10
30.56090697704999
 20
16.81574223104999
 10
30.71478106665
 20
16.78625569504998
 10
30.86562709864999
 20
16.75549919265
 10
31.01321149544999
 20
16.72357155264998
 10
31.15730926825
 20
16.69058461985
 10
31.29769543464999
 20
16.65665024544998
 10
31.43422496105
 20
16.62186341505
 10
31.56707264745
 20
16.58625167265
 10
31.69649324424999
 20
16.54982570145
 10
31.82274150345
 20
16.51259618464999
 10
31.94603921225
 20
16.47457500544999
 10
32.06647628905
 20
16.43577884064998
 10
32.18410968585
 20
16.39622556704998
 10
32.29899635305
 20
16.35593306465
 10
32.44797182185
 20
16.30111188864998
 10
32.59210546504999
 20
16.24517775104999
 10
32.73133727785
 20
16.18830009664998
 10
32.86560363144999
 20
16.13065834144998
 10
32.99482636585
 20
16.07247179104999
 10
33.11892369384999
 20
16.01396971904998
 10
33.20858804264999
 20
15.97002312064998
 10
33.29531344744999
 20
15.92611929825
 10
33.37909001705
 20
15.88234953824999
 10
33.45990785385
 20
15.83880513024999
 10
33.53777140424999
 20
15.79556675744998
 10
33.61274246505
 20
15.75267268224999
 10
33.68489717385
 20
15.71015056224999
 10
33.75431167144999
 20
15.66802805825
 10
33.84273863305
 20
15.61253661505
 10
33.92664147945
 20
15.55788513984998
 10
34.00623222505
 20
15.50415400225
 10
34.08172646184999
 20
15.45141507265
 10
34.15335406504999
 20
15.39970621185
 10
34.22134848585
 20
15.34905677825
 10
34.28593824585
 20
15.29949178625
 10
34.34733215945
 20
15.25101887905
 10
34.40573411625
 20
15.20364135584998
 10
34.46133945065
 20
15.15736234464998
 10
34.51430931624999
 20
15.11218428864998
 10
34.56479631304999
 20
15.06810946465
 10
34.61295066984999
 20
15.02513616064999
 10
34.65891313384999
 20
14.98324670944998
 10
34.70282207945
 20
14.94241945984998
 10
34.76511707944999
 20
14.88312558305
 10
34.82344544105
 20
14.82611625344998
 10
34.87814815785
 20
14.77132290304999
 10
34.92956045225
 20
14.71862942945
 10
34.97799420744999
 20
14.66792040224999
 10
35.02367368585
 20
14.61913061344998
 10
35.06679581704999
 20
14.57220686784998
 10
35.10753577705
 20
14.52709382784999
 10
35.14606130024999
 20
14.48373180064999
 10
35.18253208745
 20
14.44204583104999
 10
35.21709875624999
 20
14.40195900544998
 10
35.24988361225
 20
14.36340181184999
 10
35.28100292105
 20
14.32630194304999
 10
35.31057712905
 20
14.29056847264999
 10
35.33871268585
 20
14.25612208224998
 10
35.36545590184999
 20
14.22294848704999
 10
35.39083369065
 20
14.19105485024999
 10
35.41485551785
 20
14.16046908704998
 10
35.43752830664999
 20
14.13122235424998
 10
35.45886626505
 20
14.10333801984998
 10
35.47891593865
 20
14.07679531425
 10
35.49784596105
 20
14.05140468064999
 10
35.53310974665
 20
14.00316485664998
 10
35.56609521385
 20
13.95676878784999
 10
35.59809586345
 20
13.91035099104999
 10
35.62957006825
 20
13.86303956865001
 10
35.66015328585
 20
13.81508040545
 10
35.68965585064999
 20
13.76662022464998
 10
35.71811126985
 20
13.71770852865
 10
35.74564047465
 20
13.66836510305
 10
35.77243556905
 20
13.61859929184999
 10
35.79878398024999
 20
13.56839371744999
  0
LWPOLYLINE
  5
CA
330
2
100
AcDbEntity
  8
0
100
AcDbPolyline
 90
        9
 70
     0
 43
0.0
 10
7.657446860250004
 20
17.36155614304999
 10
7.69709842345
 20
17.36061008544999
 10
7.737644985049996
 20
17.35953505185
 10
7.779205261849995
 20
17.35826898144998
 10
7.821905877849999
 20
17.35674697664998
 10
7.854742853849998
 20
17.35539343425
 10
7.888267879449998
 20
17.35380177984998
 10
7.922456341849994
 20
17.35191437505
 10
7.957283626649996
 20
17.34967357504999
  0
LWPOLYLINE
  5
CB
330
2
100
AcDbEntity
  8
0
100
AcDbPolyline
 90
       52
 70
     0
 43
0.0
 10
8.264176007450004
 20
17.33136089824998
 10
8.445362034650003
 20
17.32227734464999
 10
8.629491956249992
 20
17.31337842144998
 10
8.816651879450006
 20
17.30467042464999
 10
9.006927908250005
 20
17.29615965184999
 10
9.200342289049999
 20
17.28785468064998
 10
9.396661825050003
 20
17.27977321345
 10
9.595804897050001
 20
17.27192728545
 10
9.798551628249995
 20
17.26429713504998
 10
10.00569359944999
 20
17.25686366944998
 10
10.21720645224999
 20
17.24964225344999
 10
10.43268133705
 20
17.24266077664998
 10
10.65098735944999
 20
17.23596277184998
 10
10.87075851944999
 20
17.22959346625001
 10
11.09041043464999
 20
17.22358921184999
 10
11.30869655784999
 20
17.21797275584998
 10
11.52594004584999
 20
17.21272130464998
 10
11.96025638665
 20
17.20319199425
 10
12.17850005385
 20
17.19887401504999
 10
12.39643177864999
 20
17.19486199105
 10
12.61255930504999
 20
17.19117285664998
 10
12.82565514824999
 20
17.18780909504999
 10
13.03471583945
 20
17.18476629184999
 10
13.23936921544999
 20
17.18202688705
 10
13.43960020744999
 20
17.17956859584998
 10
13.63619081704999
 20
17.17736335264999
 10
13.82991679305
 20
17.17538461505
 10
14.02073182185
 20
17.17361770624998
 10
14.20848079465
 20
17.17205028864998
 10
14.39339551304999
 20
17.17066753345
 10
14.57562011144999
 20
17.16945526464999
 10
14.75456117864999
 20
17.16840442944999
 10
14.92959451625
 20
17.16750620704999
 10
15.10071034825
 20
17.16674756385001
 10
15.26820020904999
 20
17.16611462464999
 10
15.43294645544999
 20
17.16559432865
 10
15.59600984745
 20
17.16517473504998
 10
15.75857396425
 20
17.16484755425
 10
16.08490032265
 20
17.16444731104999
 10
16.24807507785
 20
17.16436782784998
 10
16.41047845705
 20
17.16436289985
 10
16.57170871145
 20
17.16442732704999
 10
16.73244978184999
 20
17.16455632865
 10
16.89362300585
 20
17.16474574624999
 10
17.05601359304999
 20
17.16499346624999
 10
17.22024262505
 20
17.16529779904999
 10
17.38641078185
 20
17.16565670144999
 10
17.61085306664999
 20
17.16621578145
 10
17.83813570504999
 20
17.16685907265
 10
18.06770401705
 20
17.16757756384998
 10
18.41531986824999
 20
17.16877594945001
 10
18.76700297544999
 20
17.17009280064999
  0
LWPOLYLINE
  5
CC
330
2
100
AcDbEntity
  8
0
100
AcDbPolyline
 90
        6
 70
     0
 43
0.0
 10
8.134410114649995
 20
17.33847691105
 10
8.160145815449993
 20
17.33698342464998
 10
8.185991777050006
 20
17.33552555424998
 10
8.211946719449997
 20
17.33410324384999
 10
8.238008756249996
 20
17.33271539264998
 10
8.264176007450004
 20
17.33136089824998
  0
LINE
  5
CD
330
2
100
AcDbEntity
  8
0
100
AcDbLine
 10
8.083264509849994
 20
17.34155307424999
 30
0.0
 11
8.134410114649993
 21
17.33847691105001
 31
0.0
  0
LWPOLYLINE
  5
CE
330
2
100
AcDbEntity
  8
0
100
AcDbPolyline
 90
        5
 70
     0
 43
0.0
 10
7.957283626649996
 20
17.34967357504999
 10
7.982255058649997
 20
17.34798089025
 10
8.007342866650006
 20
17.34633135424999
 10
8.032542951449997
 20
17.34471587265
 10
8.083264509849996
 20
17.34155307424998
  0
LINE
  5
CF
330
2
100
AcDbEntity
  8
0
100
AcDbLine
 10
6.208174781850003
 20
17.59995473345001
 30
0.0
 11
6.22987600425
 21
17.59830611745
 31
0.0
  0
LWPOLYLINE
  5
D0
330
2
100
AcDbEntity
  8
0
100
AcDbPolyline
 90
       27
 70
     0
 43
0.0
 10
4.413046434649999
 20
17.79222527265
 10
4.466317450649995
 20
17.78719291425
 10
4.51920779305
 20
17.78210581504998
 10
4.571706050649993
 20
17.77696688065
 10
4.623800810649996
 20
17.77177901344998
 10
4.67548303465
 20
17.76654484065
 10
4.726753177049999
 20
17.76126588865
 10
4.777614065050002
 20
17.75594340704998
 10
4.82806852585
 20
17.75057864544999
 10
4.878120759449998
 20
17.74517260864999
 10
4.927780441050003
 20
17.73972529984999
 10
4.977058615450005
 20
17.73423647584999
 10
5.025966330649993
 20
17.72870589504998
 10
5.074512585050001
 20
17.72313354304998
 10
5.122698191449998
 20
17.71752031425001
 10
5.170521914649995
 20
17.71186733344998
 10
5.217982521050004
 20
17.70617572385001
 10
5.26508075465
 20
17.70044612384998
 10
5.311825285850005
 20
17.69467722305
 10
5.358226757850005
 20
17.68886722624998
 10
5.404295818649998
 20
17.68301433824999
 10
5.465221073050003
 20
17.67514226624999
 10
5.525590655450002
 20
17.66719611585
 10
5.585420917850001
 20
17.65918125344998
 10
5.644721410649992
 20
17.65110008704999
 10
5.703474484249994
 20
17.64294321344999
 10
5.761655687450002
 20
17.63469827104998
  0
LWPOLYLINE
  5
D1
330
2
100
AcDbEntity
  8
0
100
AcDbPolyline
 90
       17
 70
     0
 43
0.0
 10
5.761655687450002
 20
17.63469827104998
 10
5.78963894345
 20
17.63065103585
 10
5.817600549849998
 20
17.62652801184998
 10
5.845543625049998
 20
17.62231752225
 10
5.873471290650002
 20
17.61800789025
 10
5.901381786650006
 20
17.61359001824999
 10
5.92925386185
 20
17.60906510945
 10
5.957061383449996
 20
17.60443694304998
 10
5.984778221849992
 20
17.59970930464999
 10
6.012378077850002
 20
17.59488500224998
 10
6.039833980249994
 20
17.58996296064998
 10
6.067118789849999
 20
17.58494113985
 10
6.094205364250001
 20
17.57981749185
 10
6.121072244250001
 20
17.57459066465
 10
6.147720703450005
 20
17.56926205024998
 10
6.174157689050005
 20
17.56383373664999
 10
6.200390154649994
 20
17.55830780704999
  0
LINE
  5
D2
330
2
100
AcDbEntity
  8
0
100
AcDbLine
 10
6.200390154649992
 20
17.55830780705
 30
0.0
 11
6.222370204249996
 21
17.55354128705
 31
0.0
  0
LINE
  5
D3
330
2
100
AcDbEntity
  8
0
100
AcDbLine
 10
6.222370204249996
 20
17.55354128705
 30
0.0
 11
6.243979949849999
 21
17.54874627905
 31
0.0
  0
LINE
  5
D4
330
2
100
AcDbEntity
  8
0
100
AcDbLine
 10
6.243979949849999
 20
17.54874627905
 30
0.0
 11
6.265193637850002
 21
17.54396661344999
 31
0.0
  0
LWPOLYLINE
  5
D5
330
2
100
AcDbEntity
  8
0
100
AcDbPolyline
 90
        4
 70
     0
 43
0.0
 10
6.265193637850003
 20
17.54396661344998
 10
6.286161089049997
 20
17.53915894944998
 10
6.300085505050006
 20
17.53591048704999
 10
6.313967500250001
 20
17.53262752224998
  0
LWPOLYLINE
  5
D6
330
2
100
AcDbEntity
  8
0
100
AcDbPolyline
 90
       28
 70
     0
 43
0.0
 10
6.313967500250001
 20
17.53262752224998
 10
6.36925165865
 20
17.51934543905
 10
6.411641301849996
 20
17.50923502784999
 10
6.455003727450005
 20
17.49903312544998
 10
6.499140681049993
 20
17.48884106464998
 10
6.543812660249997
 20
17.47876763585
 10
6.58886024745
 20
17.46889752704999
 10
6.63413829545
 20
17.45930917345001
 10
6.679478639449996
 20
17.45008011904999
 10
6.724771522650001
 20
17.44127349504998
 10
6.770163847449992
 20
17.43289568065
 10
6.815883497049995
 20
17.42493858784999
 10
6.862225665050004
 20
17.41739300705001
 10
6.909435140249996
 20
17.41026006945
 10
6.957487818649994
 20
17.40358340705
 10
7.006282509849995
 20
17.39741423904999
 10
7.05567855145
 20
17.39179164864998
 10
7.105554319449993
 20
17.38674420704998
 10
7.155903802650001
 20
17.38227058785
 10
7.206748362650003
 20
17.37835877665
 10
7.258103220249992
 20
17.37498391105001
 10
7.309994394650004
 20
17.37211376384999
 10
7.362497212250005
 20
17.36969950464998
 10
7.415695911450001
 20
17.36768442145
 10
7.469661053850003
 20
17.36599685024998
 10
7.506108954650002
 20
17.36501499265
 10
7.543020329049994
 20
17.36411368225
 10
7.657446860250004
 20
17.36155614304999
  0
LWPOLYLINE
  5
D7
330
2
100
AcDbEntity
  8
0
100
AcDbPolyline
 90
        3
 70
     0
 43
0.0
 10
5.50383045385
 20
-4.973663338550011
 10
5.561017634649999
 20
-4.952519328950003
 10
5.620669044249993
 20
-4.931734912950005
  0
LWPOLYLINE
  5
D8
330
2
100
AcDbEntity
  8
0
100
AcDbPolyline
 90
       22
 70
     0
 43
0.0
 10
5.50383045385
 20
-4.973663338550011
 10
5.494835765849998
 20
-4.976747588150004
 10
5.483579775449996
 20
-4.979982532150003
 10
5.470032082649993
 20
-4.983352213750009
 10
5.454230287450002
 20
-4.986828509749997
 10
5.436291980250004
 20
-4.99037380735001
 10
5.41629789705
 20
-4.993964410550006
 10
5.394414353049995
 20
-4.997565156150002
 10
5.370847786650003
 20
-5.00114014975
 10
5.345783743449999
 20
-5.004661405749999
 10
5.319394034650002
 20
-5.00810556415
 10
5.292002706649995
 20
-5.011433244149998
 10
5.263877930649996
 20
-5.014617605750004
 10
5.235263193050002
 20
-5.017638176950001
 10
5.206359885850005
 20
-5.020481340149999
 10
5.177382074649997
 20
-5.023134060149999
 10
5.148466525849997
 20
-5.025591783350009
 10
5.119805701849998
 20
-5.02784610015
 10
5.091488204249998
 20
-5.029897792950009
 10
5.063662050649995
 20
-5.031743517750001
 10
5.03638096745
 20
-5.033386652149999
 10
5.009772345049995
 20
-5.034826053750009
  0
LWPOLYLINE
  5
D9
330
2
100
AcDbEntity
  8
0
100
AcDbPolyline
 90
       21
 70
     0
 43
0.0
 10
10.73969946984999
 20
20.14142019425
 10
10.82173230665
 20
20.14967340384998
 10
10.90311540585
 20
20.16162607904999
 10
10.98369360104999
 20
20.17726092224998
 10
11.06328337704999
 20
20.19655027905
 10
11.14165671144999
 20
20.21944384065
 10
11.21870778185
 20
20.24591818465001
 10
11.29418968264999
 20
20.27589671584999
 10
11.36796099465
 20
20.30932910945
 10
11.43986712265
 20
20.34615589665
 10
11.50969392585
 20
20.38627600064998
 10
11.57734818985
 20
20.42964768544999
 10
11.64260907144999
 20
20.47614302944998
 10
11.70534333864999
 20
20.52567773024998
 10
11.76541173065
 20
20.57815733505
 10
11.82263208105
 20
20.63343604224999
 10
11.87691146184999
 20
20.69144026305
 10
11.92807144104999
 20
20.75199695584998
 10
11.97599735145
 20
20.81498381184999
 10
12.02057094184999
 20
20.88026241344999
 10
12.05324284104999
 20
20.93319300704999
  0
LWPOLYLINE
  5
DA
330
2
100
AcDbEntity
  8
0
100
AcDbPolyline
 90
        6
 70
     0
 43
0.0
 10
7.869325412250006
 20
19.99821499424999
 10
8.444485916250002
 20
20.01415591584998
 10
9.019180847450002
 20
20.03645031265
 10
9.593332809049996
 20
20.06509519585
 10
10.16686473385
 20
20.10008672384998
 10
10.73969946984999
 20
20.14142019425
  0
LWPOLYLINE
  5
DB
330
2
100
AcDbEntity
  8
0
100
AcDbPolyline
 90
        6
 70
     0
 43
0.0
 10
29.57042492745
 20
19.14788420864999
 10
28.66461185545
 20
19.17364707584999
 10
27.48582901544999
 20
19.17083121184998
 10
26.12888367305
 20
19.13683973344999
 10
24.69369306985
 20
19.07869052384998
 10
23.01506602825
 20
18.99281131424999
  0
LWPOLYLINE
  5
DC
330
2
100
AcDbEntity
  8
0
100
AcDbPolyline
 90
        6
 70
     0
 43
0.0
 10
-1.185021472550005
 20
21.34973014624998
 10
-0.1961627829499974
 20
21.30600369825001
 10
0.7889315514500055
 20
21.26165318784998
 10
1.712963052250003
 20
21.21936527585
 10
2.595821893850001
 20
21.17836679744999
 10
2.978512657050004
 20
21.16036511264999
  0
LWPOLYLINE
  5
DD
330
2
100
AcDbEntity
  8
0
100
AcDbPolyline
 90
       22
 70
     0
 43
0.0
 10
12.50035633864999
 20
20.98502533984998
 10
12.47453096584999
 20
20.98626013025
 10
12.44849752585
 20
20.98733810465
 10
12.42239206505
 20
20.98824822784999
 10
12.39626751625
 20
20.98898271424999
 10
12.37026371944999
 20
20.98953100705
 10
12.34445222825
 20
20.98988423904998
 10
12.31899461704999
 20
20.99003209824999
 10
12.29401363145
 20
20.98996530464998
 10
12.26971142345
 20
20.98967564385
 10
12.24623531784999
 20
20.98915601024998
 10
12.22378171625
 20
20.98840149024999
 10
12.20259320584999
 20
20.98741214624999
 10
12.18289247945
 20
20.98619253025
 10
12.16480194185
 20
20.98474464865
 10
12.14850610025
 20
20.98307744384999
 10
12.13422104904999
 20
20.98121143424998
 10
12.12210131784999
 20
20.97917331265
 10
12.11218072744999
 20
20.97698109505
 10
12.10447281704999
 20
20.97465211425
 10
12.09899243945
 20
20.97221169024999
 10
12.09571489385
 20
20.96968699744999
  0
LWPOLYLINE
  5
DE
330
2
100
AcDbEntity
  8
0
100
AcDbPolyline
 90
       25
 70
     0
 43
0.0
 10
3.355265369050002
 20
21.45133030304998
 10
3.312752463449996
 20
21.45338587104999
 10
3.272010029849994
 20
21.45513535424999
 10
3.233086737050001
 20
21.45658909984999
 10
3.195923305050001
 20
21.45776085024999
 10
3.160527562650003
 20
21.45866070304998
 10
3.126855665050001
 20
21.45929907744999
 10
3.094947007450002
 20
21.45968382144999
 10
3.064747205849997
 20
21.45982331905
 10
3.036283370649996
 20
21.45972414144998
 10
3.009550353050002
 20
21.45939239264998
 10
2.984531748250006
 20
21.45883272065
 10
2.96127107945
 20
21.45805017985
 10
2.939742788250001
 20
21.45704676385
 10
2.920002639450004
 20
21.45582661825
 10
2.902062378650001
 20
21.45439102304999
 10
2.885956345050004
 20
21.45274121985
 10
2.871744233049994
 20
21.45088053185
 10
2.859451101849998
 20
21.44880679105
 10
2.849152362650002
 20
21.44652416705
 10
2.840895442649994
 20
21.44403073825
 10
2.834752549849994
 20
21.44132871905
 10
2.830795775449999
 20
21.43842107424998
 10
2.829094818650006
 20
21.43530628704999
 10
2.829624961050001
 20
21.43218940865
  0
LWPOLYLINE
  5
DF
330
2
100
AcDbEntity
  8
0
100
AcDbPolyline
 90
        9
 70
     0
 43
0.0
 10
5.783902249050001
 20
21.02597687265
 10
6.303978668249996
 20
21.00057435265
 10
7.05366372585
 20
20.96367580065
 10
7.796688029850002
 20
20.92684441824999
 10
8.603482764250003
 20
20.88658185824999
 10
9.469009949850004
 20
20.84309780704998
 10
10.38603640105
 20
20.79671048705
 10
11.40044388904999
 20
20.74503157985
 10
11.90050379464999
 20
20.71936587425
  0
LINE
  5
E0
330
2
100
AcDbEntity
  8
0
100
AcDbLine
 10
13.52069156425
 20
20.93299880544999
 30
0.0
 11
12.50035633864999
 21
20.98502533984999
 31
0.0
  0
LINE
  5
E1
330
2
100
AcDbEntity
  8
0
100
AcDbLine
 10
5.009772345049993
 20
21.36696757504999
 30
0.0
 11
3.35526536905
 21
21.45133030304999
 31
0.0
  0
LWPOLYLINE
  5
E2
330
2
100
AcDbEntity
  8
0
100
AcDbPolyline
 90
        7
 70
     0
 43
0.0
 10
13.97902073384999
 20
20.61192613824999
 10
14.93466604744999
 20
20.56207847105
 10
16.34908986025
 20
20.48764537024999
 10
17.82761992265
 20
20.40911982624999
 10
19.44122218824999
 20
20.32260191744998
 10
21.20175935144999
 20
20.22725917984999
 10
23.12031262025
 20
20.12226253344999
  0
LWPOLYLINE
  5
E3
330
2
100
AcDbEntity
  8
0
100
AcDbPolyline
 90
        7
 70
     0
 43
0.0
 10
23.12031262025
 20
20.12226253344999
 10
24.07256906345
 20
20.06990026944998
 10
25.02601422985
 20
20.01667981184999
 10
26.10086416105
 20
19.95601824544999
 10
27.17681654825
 20
19.89489627104998
 10
28.37326638985
 20
19.82686075744999
 10
29.57051727465
 20
19.75912918784999
  0
LWPOLYLINE
  5
E4
330
2
100
AcDbEntity
  8
0
100
AcDbPolyline
 90
       37
 70
     0
 43
0.0
 10
29.57051727465
 20
19.75912918784999
 10
29.76120657705
 20
19.74580142304998
 10
29.96382517704999
 20
19.72640299585
 10
30.17797987145
 20
19.70044444224998
 10
30.40318732744999
 20
19.66747918145
 10
30.63836596585
 20
19.62719323745
 10
30.88188272585
 20
19.57945265345
 10
31.13184271465
 20
19.52428511745
 10
31.38638037225
 20
19.46181835904999
 10
31.64149120745
 20
19.39287055744998
 10
31.89115322025
 20
19.31916679425
 10
32.12960172424999
 20
19.24283297184999
 10
32.35185643145
 20
19.16618512224999
 10
32.55876762984999
 20
19.08972751585
 10
32.75457473864999
 20
19.01257240064998
 10
32.94262513065
 20
18.93393270305
 10
33.12556771785
 20
18.85303405184998
 10
33.30560279945
 20
18.76907340865
 10
33.48418683785
 20
18.68138957024999
 10
33.66262279625
 20
18.58904869184999
 10
33.84067083305
 20
18.49172496545
 10
34.01724706665
 20
18.38960465344999
 10
34.19108130505
 20
18.28314089184999
 10
34.36066979944999
 20
18.17316274945
 10
34.52576261705
 20
18.05991339745
 10
34.68829537545
 20
17.94214241665
 10
34.85003053545
 20
17.81852763584998
 10
35.01191170024999
 20
17.68824296385
 10
35.17489516745
 20
17.55039730945
 10
35.34006952904999
 20
17.40368482944998
 10
35.50741588744999
 20
17.24754591904999
 10
35.67525493065
 20
17.08312924224998
 10
35.84269471464999
 20
16.91112193185
 10
36.00960216264999
 20
16.73143592705
 10
36.17532806024999
 20
16.54443501024999
 10
36.33884172105
 20
16.35096833825
 10
36.49914282025
 20
16.15196267105
  0
LWPOLYLINE
  5
E5
330
2
100
AcDbEntity
  8
0
100
AcDbPolyline
 90
       22
 70
     0
 43
0.0
 10
5.50383045385
 20
21.30580485984998
 10
5.494835765849998
 20
21.30888910945
 10
5.483579775449996
 20
21.31212405504999
 10
5.470032082649993
 20
21.31549373504998
 10
5.454230287450002
 20
21.31897003104998
 10
5.436291980250004
 20
21.32251532864998
 10
5.41629789705
 20
21.32610593185
 10
5.394414353049995
 20
21.32970667744999
 10
5.370847786650003
 20
21.33328167105
 10
5.345783743449999
 20
21.33680292705
 10
5.319394034650002
 20
21.34024708544998
 10
5.292002706649995
 20
21.34357476544999
 10
5.263877930649996
 20
21.34675912705
 10
5.235263193050002
 20
21.34977969824999
 10
5.206359885850005
 20
21.35262286144998
 10
5.177382074649997
 20
21.35527558145
 10
5.148466525849997
 20
21.35773330464999
 10
5.119805701849998
 20
21.35998762144998
 10
5.091488204249998
 20
21.36203931424998
 10
5.063662050649995
 20
21.36388503904999
 10
5.03638096745
 20
21.36552817345
 10
5.009772345049995
 20
21.36696757504998
  0
LWPOLYLINE
  5
E6
330
2
100
AcDbEntity
  8
0
100
AcDbPolyline
 90
        3
 70
     0
 43
0.0
 10
5.50383045385
 20
21.30580485984998
 10
5.561017634649999
 20
21.28466085024999
 10
5.620669044249993
 20
21.26387643424999
  0
LWPOLYLINE
  5
E7
330
2
100
AcDbEntity
  8
0
100
AcDbPolyline
 90
       15
 70
     0
 43
0.0
 10
-4.728036566949995
 20
22.57371090624999
 10
-5.149483178150006
 20
22.57441347105
 10
-5.549628779749994
 20
22.57325446625
 10
-5.927391653349999
 20
22.57011993825
 10
-6.282169214950002
 20
22.56493900864998
 10
-6.605085669350003
 20
22.55790684064999
 10
-6.903550896550001
 20
22.54900398465
 10
-7.187615338149996
 20
22.53807173664998
 10
-7.462475616549994
 20
22.52505412544999
 10
-7.729648014950001
 20
22.50997334625
 10
-7.989507442149999
 20
22.49288314144999
 10
-8.242416888549996
 20
22.47383276704999
 10
-8.488720187750004
 20
22.45287030944999
 10
-8.728743278950005
 20
22.43004183105
 10
-8.96280836695
 20
22.40538783745
  0
LWPOLYLINE
  5
E8
330
2
100
AcDbEntity
  8
0
100
AcDbPolyline
 90
        9
 70
     0
 43
0.0
 10
-2.76578178135
 20
22.55222157184999
 10
-2.942177226149993
 20
22.55626328865
 10
-3.126503266149995
 20
22.55987505504998
 10
-3.329293603750002
 20
22.56315031585001
 10
-3.55416723415
 20
22.56606897505
 10
-3.802847901350006
 20
22.56871392384999
 10
-4.078109405350005
 20
22.57106257825
 10
-4.384758814950004
 20
22.57285071424999
 10
-4.728036566949995
 20
22.57371090624999
  0
LINE
  5
E9
330
2
100
AcDbEntity
  8
0
100
AcDbLine
 10
-2.431441786150005
 20
22.54273082145
 30
0.0
 11
-2.519938675749999
 21
22.54543547264999
 31
0.0
  0
LWPOLYLINE
  5
EA
330
2
100
AcDbEntity
  8
0
100
AcDbPolyline
 90
        4
 70
     0
 43
0.0
 10
-2.519938675749997
 20
22.54543547264998
 10
-2.538964381349998
 20
22.54607532545
 10
-2.556862552550001
 20
22.54662690945
 10
-2.76578178135
 20
22.55222157184999
  0
LINE
  5
EB
330
2
100
AcDbEntity
  8
0
100
AcDbLine
 10
-2.340889688550008
 20
22.53969864224999
 30
0.0
 11
-2.431441786150005
 21
22.54273082145
 31
0.0
  0
LINE
  5
EC
330
2
100
AcDbEntity
  8
0
100
AcDbLine
 10
-2.278293675750008
 20
22.53734999585001
 30
0.0
 11
-2.340889688550008
 21
22.53969864224999
 31
0.0
  0
LINE
  5
ED
330
2
100
AcDbEntity
  8
0
100
AcDbLine
 10
-2.253866891750009
 20
22.53631578784999
 30
0.0
 11
-2.278293675750008
 21
22.53734999585001
 31
0.0
  0
LINE
  5
EE
330
2
100
AcDbEntity
  8
0
100
AcDbLine
 10
-2.239073330150008
 20
22.53560876545001
 30
0.0
 11
-2.253866891750009
 21
22.53631578784999
 31
0.0
  0
LINE
  5
EF
330
2
100
AcDbEntity
  8
0
100
AcDbLine
 10
-2.230722563750008
 20
22.53515035424999
 30
0.0
 11
-2.239073330150008
 21
22.53560876545001
 31
0.0
  0
LINE
  5
F0
330
2
100
AcDbEntity
  8
0
100
AcDbLine
 10
29.01798555784999
 20
20.69218954305001
 30
0.0
 11
-1.474267630949997
 21
22.49055176065
 31
0.0
  0
LINE
  5
F1
330
2
100
AcDbEntity
  8
0
100
AcDbLine
 10
-1.474267630949997
 20
22.49055176065
 30
0.0
 11
-2.230722563750008
 21
22.53515035424999
 31
0.0
  0
LWPOLYLINE
  5
F2
330
2
100
AcDbEntity
  8
0
100
AcDbPolyline
 90
        4
 70
     0
 43
0.0
 10
30.65910803625
 20
20.59511035904998
 10
30.12298408264999
 20
20.62688753025
 10
29.57369162825
 20
20.65938057184999
 10
29.01798555784999
 20
20.69218954305
  0
LWPOLYLINE
  5
F3
330
2
100
AcDbEntity
  8
0
100
AcDbPolyline
 90
        3
 70
     0
 43
0.0
 10
30.73970208104999
 20
20.58993702305
 10
30.69938292745
 20
20.59262293505
 10
30.65910803625
 20
20.59511035904998
  0
LWPOLYLINE
  5
F4
330
2
100
AcDbEntity
  8
0
100
AcDbPolyline
 90
       34
 70
     0
 43
0.0
 10
-8.96280836695
 20
22.40538783745
 10
-9.205362746150001
 20
22.37723699744998
 10
-9.441872638950002
 20
22.34710535425
 10
-9.672660594150002
 20
22.31503080384999
 10
-9.89799641815
 20
22.28105240864999
 10
-10.11815047735
 20
22.24520378784998
 10
-10.33338818935
 20
22.20751355905
 10
-10.54395720374999
 20
22.16800753025001
 10
-10.75009895895
 20
22.12670657985
 10
-10.95202873495
 20
22.08363085664998
 10
-11.14994804855
 20
22.03879806144999
 10
-11.34411824535
 20
21.99220574624999
 10
-11.53467441015
 20
21.94387533504999
 10
-11.72144514455
 20
21.89390784865
 10
-11.90440390135
 20
21.84237504384998
 10
-12.08385011895
 20
21.78926011584999
 10
-12.26002320695
 20
21.73455291585
 10
-12.43303617175
 20
21.67827582945
 10
-12.60317072694999
 20
21.62039018145
 10
-12.77052468694999
 20
21.56091123905
 10
-12.93517199415
 20
21.49986051745
 10
-13.09735069175
 20
21.43719169184998
 10
-13.25728005495
 20
21.37285734624998
 10
-13.41510301975
 20
21.30683231904999
 10
-13.57092639895
 20
21.23910158785
 10
-13.72499484535
 20
21.16958311425
 10
-13.87745194295
 20
21.09822993984999
 10
-14.02836446935
 20
21.02502652864998
 10
-14.17784160055
 20
20.94993234304999
 10
-14.32611892375
 20
20.87283461024998
 10
-14.47336334615
 20
20.79364667585
 10
-14.61968308054999
 20
20.71230632544998
 10
-14.76536227735
 20
20.62864425025
 10
-14.91058739255
 20
20.54253257504999
  0
LWPOLYLINE
  5
F5
330
2
100
AcDbEntity
  8
0
100
AcDbPolyline
 90
       13
 70
     0
 43
0.0
 10
-4.310888030949996
 20
26.56420733504998
 10
-4.507909320549998
 20
26.56555251904999
 10
-4.698321851749994
 20
26.56462761025
 10
-4.885075115749998
 20
26.56148431105
 10
-5.071858200549996
 20
26.55613484225
 10
-5.259684942950002
 20
26.54852912224999
 10
-5.447195619750004
 20
26.53871068864998
 10
-5.634855765349996
 20
26.52665645024999
 10
-5.822556536549996
 20
26.51236769824999
 10
-6.010242374949996
 20
26.49584491745
 10
-6.197912158950003
 20
26.47708428864999
 10
-6.385515382950003
 20
26.45608665185
 10
-6.57299352535
 20
26.43285511905
  0
LINE
  5
F6
330
2
100
AcDbEntity
  8
0
100
AcDbLine
 10
-4.253880558950003
 20
26.56355770305001
 30
0.0
 11
-4.310888030949998
 21
26.56420733504999
 31
0.0
  0
LWPOLYLINE
  5
F7
330
2
100
AcDbEntity
  8
0
100
AcDbPolyline
 90
        5
 70
     0
 43
0.0
 10
-3.372830685349995
 20
26.53116680545
 10
-3.592932539749995
 20
26.54323297024999
 10
-3.813160658149996
 20
26.55265417345001
 10
-4.033488640550004
 20
26.55942942305
 10
-4.253880558950001
 20
26.56355770305001
  0
LINE
  5
F8
330
2
100
AcDbEntity
  8
0
100
AcDbLine
 10
28.98476206185
 20
24.57024389345
 30
0.0
 11
-3.144221816550002
 21
26.51724990304999
 31
0.0
  0
LINE
  5
F9
330
2
100
AcDbEntity
  8
0
100
AcDbLine
 10
-3.336610528549998
 20
27.13128387424999
 30
0.0
 11
29.02113546184999
 21
25.17053831745
 31
0.0
  0
LINE
  5
FA
330
2
100
AcDbEntity
  8
0
100
AcDbLine
 10
-3.144221816550002
 20
26.51724990304999
 30
0.0
 11
-3.372830685349997
 21
26.53116680545
 31
0.0
  0
LWPOLYLINE
  5
FB
330
2
100
AcDbEntity
  8
0
100
AcDbPolyline
 90
       22
 70
     0
 43
0.0
 10
-6.57299352535
 20
26.43285511905
 10
-6.777100214949996
 20
26.40506952704999
 10
-6.981108941350001
 20
26.37466692544998
 10
-7.184963134949995
 20
26.34164921344998
 10
-7.388608515750007
 20
26.30601937025
 10
-7.591997437350002
 20
26.26778047105
 10
-7.795112261349999
 20
26.22693024225
 10
-7.997953797350007
 20
26.18346168224999
 10
-8.200519277349997
 20
26.13736783585
 10
-8.402749099749996
 20
26.08865456064998
 10
-8.604612570149996
 20
26.03732189344998
 10
-8.806059288550002
 20
25.98337539265
 10
-9.007061106150004
 20
25.92681496545
 10
-9.207595232550005
 20
25.86763965824999
 10
-9.407631088550004
 20
25.80585091744998
 10
-9.607151240549995
 20
25.74144605985
 10
-9.806110254949999
 20
25.67443148704998
 10
-10.00445799095
 20
25.60481575744998
 10
-10.20216908055
 20
25.53259986944999
 10
-10.39922190615
 20
25.45778354304999
 10
-10.59558729495
 20
25.38036921984999
 10
-10.79123389014999
 20
25.30036037664999
  0
LWPOLYLINE
  5
FC
330
2
100
AcDbEntity
  8
0
100
AcDbPolyline
 90
       12
 70
     0
 43
0.0
 10
30.81846326985
 20
24.33081812545001
 10
30.65591963625
 20
24.36257039904998
 10
30.49299315464999
 20
24.39230467265
 10
30.32971461065
 20
24.42001557345
 10
30.16610879785
 20
24.44569921504998
 10
30.00219568424999
 20
24.46935266144999
 10
29.83800295624999
 20
24.49097203745
 10
29.67355467305
 20
24.51055430144998
 10
29.50887626985
 20
24.52809651424999
 10
29.34399328105
 20
24.54359603104999
 10
29.17893127464999
 20
24.55705051744999
 10
29.01371665064999
 20
24.56845789344999
  0
LWPOLYLINE
  5
FD
330
2
100
AcDbEntity
  8
0
100
AcDbPolyline
 90
       22
 70
     0
 43
0.0
 10
30.96246783625
 20
8.166070760650001
 10
30.96751521224999
 20
8.031242205449999
 10
30.98272930985
 20
7.896475938249992
 10
31.00767144104999
 20
7.764749034250002
 10
31.04249263305
 20
7.634661330249997
 10
31.08712251625
 20
7.50697487264999
 10
31.14123071624999
 20
7.38287158144999
 10
31.20447945225
 20
7.263161936649993
 10
31.27648776105
 20
7.148561552649994
 10
31.35681668904999
 20
7.039748287049988
 10
31.44499694664999
 20
6.937332424649994
 10
31.54060954345
 20
6.841799568649989
 10
31.64309014024999
 20
6.753726611849998
 10
31.75169711785
 20
6.673728695050002
 10
31.86599283945
 20
6.602112312649992
 10
31.98506126504999
 20
6.539426581450001
 10
32.10834625385
 20
6.485920864649997
 10
32.23510769544999
 20
6.441887971849993
 10
32.36471576264999
 20
6.407526045449998
 10
32.49632672744999
 20
6.383036522249994
 10
32.62950790345
 20
6.368500664649999
 10
32.76318155305
 20
6.36403464544999
  0
LWPOLYLINE
  5
FE
330
2
100
AcDbEntity
  8
0
100
AcDbPolyline
 90
        7
 70
     0
 43
0.0
 10
38.80515488905
 20
9.458737426249996
 10
38.80148082025
 20
9.454795943050001
 10
38.78638994345
 20
9.429133413449989
 10
38.77161817705
 20
9.394349016649996
 10
38.75727751624999
 20
9.350672131849989
 10
38.74349153065
 20
9.29847625504999
 10
38.73036043304999
 20
9.23815957184999
  0
LWPOLYLINE
  5
FF
330
2
100
AcDbEntity
  8
0
100
AcDbPolyline
 90
       43
 70
     0
 43
0.0
 10
34.56726899944999
 20
8.166076464649989
 10
34.56629215305
 20
8.219329485449989
 10
34.56289621384999
 20
8.27899369184999
 10
34.55648448424999
 20
8.346340266249995
 10
34.54726787945
 20
8.41673199585
 10
34.53577637865
 20
8.484925856649994
 10
34.52206266505
 20
8.551118965450001
 10
34.50586223304999
 20
8.616790608649992
 10
34.48716392745
 20
8.681988738249998
 10
34.46594905545
 20
8.746742120649997
 10
34.44231193864999
 20
8.810725938250001
 10
34.41638262185
 20
8.873610851849988
 10
34.38818044105
 20
8.935383639050002
 10
34.35766657704999
 20
8.996129915849991
 10
34.32481493224999
 20
9.055868675849993
 10
34.28975126345
 20
9.114345946249997
 10
34.25255734344999
 20
9.171430277449999
 10
34.21326101705
 20
9.227080933449997
 10
34.17194140744999
 20
9.281185749449988
 10
34.12866727624999
 20
9.333659909449991
 10
34.08348462185
 20
9.384451677450002
 10
34.03651588104999
 20
9.433432210249989
 10
33.98784207145
 20
9.480533093449992
 10
33.93804303304999
 20
9.525346066249994
 10
33.88645006184999
 20
9.568529227849992
 10
33.83283359785
 20
9.610114483849997
 10
33.77775487625
 20
9.64962374145
 10
33.72128441225
 20
9.687010378249993
 10
33.66348063305
 20
9.722239178249992
 10
33.60442178344999
 20
9.75526472704999
 10
33.54419555145
 20
9.786040227850008
 10
33.48288988265
 20
9.814523299850009
 10
33.42063085544999
 20
9.840660538250006
 10
33.35747051785
 20
9.864435259849983
 10
33.29343611464999
 20
9.885836277449982
 10
33.22863801705
 20
9.904823816650008
 10
33.16327637384999
 20
9.921344447049989
 10
33.09752632264999
 20
9.935367226250008
 10
33.03142714345
 20
9.946895336649987
 10
32.96478425705
 20
9.955952543049988
 10
32.89765574025
 20
9.962512787849988
 10
32.83032960744999
 20
9.966563095049991
 10
32.76318155305
 20
9.968106875849997
  0
LWPOLYLINE
  5
100
330
2
100
AcDbEntity
  8
CENTER
 48
4.0
100
AcDbPolyline
 90
        3
 70
   128
 43
0.0
 10
32.76417600745
 20
3.803007327049996
 10
32.76417600745
 20
8.166070760650001
 10
32.76417600745
 20
12.56344589504999
  0
LINE
  5
104
330
2
100
AcDbEntity
  8
0
100
AcDbLine
 10
36.49914282025
 20
16.15196267105
 30
0.0
 11
36.48899367785
 21
16.09718081985
 31
0.0
  0
LINE
  5
105
330
2
100
AcDbEntity
  8
0
100
AcDbLine
 10
36.46000193704999
 20
15.98650642145001
 30
0.0
 11
36.48898084104999
 21
16.09719772545
 31
0.0
  0
LINE
  5
106
330
2
100
AcDbEntity
  8
0
100
AcDbLine
 10
36.45999658344999
 20
0.345626007050007
 30
0.0
 11
36.48898333385
 21
0.2349472534500085
 31
0.0
  0
LINE
  5
107
330
2
100
AcDbEntity
  8
0
100
AcDbLine
 10
36.48899367785
 20
0.2349607014499986
 30
0.0
 11
36.49914282025
 21
0.1801788502500079
 31
0.0
  0
LINE
  5
108
330
2
100
AcDbEntity
  8
0
100
AcDbLine
 10
36.71849180904999
 20
9.605285293450002
 30
0.0
 11
36.71864003624999
 21
9.397429498249998
 31
0.0
  0
LWPOLYLINE
  5
109
330
2
100
AcDbEntity
  8
0
100
AcDbPolyline
 90
        3
 70
     0
 43
0.0
 10
36.71860246985
 20
7.462454355849999
 10
36.71867787145
 20
7.201166347849991
 10
36.71868203145
 20
7.140193077449993
  0
LINE
  5
10A
330
2
100
AcDbEntity
  8
0
100
AcDbLine
 10
36.71864003624999
 20
9.397429498249998
 30
0.0
 11
36.71868098985
 21
9.231172063050003
 31
0.0
  0
LINE
  5
10B
330
2
100
AcDbEntity
  8
0
100
AcDbLine
 10
36.71827806505
 20
8.166080835850003
 30
0.0
 11
36.71860246985
 21
7.462454355850005
 31
0.0
  0
LINE
  5
10C
330
2
100
AcDbEntity
  8
0
100
AcDbLine
 10
36.71868098985
 20
9.231172063050003
 30
0.0
 11
36.71865128905
 21
9.002902962249997
 31
0.0
  0
LINE
  5
10D
330
2
100
AcDbEntity
  8
0
100
AcDbLine
 10
36.71868203145
 20
7.140193077449999
 30
0.0
 11
36.71864613545
 21
6.946402154250001
 31
0.0
  0
LINE
  5
10E
330
2
100
AcDbEntity
  8
0
100
AcDbLine
 10
36.71832461865
 20
8.343809437449998
 30
0.0
 11
36.71827806505
 21
8.166080835850003
 31
0.0
  0
LINE
  5
10F
330
2
100
AcDbEntity
  8
0
100
AcDbLine
 10
36.71865128905
 20
9.002902962249997
 30
0.0
 11
36.71846793704999
 21
8.610726635850006
 31
0.0
  0
LINE
  5
110
330
2
100
AcDbEntity
  8
0
100
AcDbLine
 10
36.71846793704999
 20
8.610726635850006
 30
0.0
 11
36.71832461865
 21
8.343809437449998
 31
0.0
  0
LWPOLYLINE
  5
111
330
2
100
AcDbEntity
  8
0
100
AcDbPolyline
 90
       72
 70
     0
 43
0.0
 10
36.71864613545
 20
6.946402154249994
 10
36.71851537064999
 20
6.75352986144999
 10
36.71844394664999
 20
6.692791711049991
 10
36.71822696104999
 20
6.573407363849995
 10
36.71781704904999
 20
6.456340751049992
 10
36.71705970025
 20
6.33911921024999
 10
36.71626250504999
 20
6.259356407049992
 10
36.71507987945
 20
6.17732293985
 10
36.71335373705
 20
6.092211491849994
 10
36.71160407144999
 20
6.026019535049996
 10
36.70937339145
 20
5.958184743049997
 10
36.70756880745
 20
5.912210483849989
 10
36.70544094825
 20
5.865269922249993
 10
36.70291870344999
 20
5.816885727049992
 10
36.69993979784999
 20
5.766761080649999
 10
36.69647729704999
 20
5.715321200649995
 10
36.69251310504999
 20
5.663171816649992
 10
36.68563447945
 20
5.584886127049998
 10
36.67781281224999
 20
5.508073285449995
 10
36.66922761864999
 20
5.433924727049998
 10
36.65987051624999
 20
5.361572253449992
 10
36.64970426985
 20
5.28989992065
 10
36.63876412585
 20
5.21886043744999
 10
36.62712000745
 20
5.148707482249989
 10
36.61490804745
 20
5.079829973449989
 10
36.60228092744999
 20
5.012650632649993
 10
36.58939133225
 20
4.947592184649991
 10
36.57636836265
 20
4.884966309449993
 10
36.56324677384999
 20
4.824640515849992
 10
36.55003773865
 20
4.76637127104999
 10
36.53675243144999
 20
4.709915039049988
 10
36.51894614824999
 20
4.637128315849992
 10
36.50109139465
 20
4.567088123849998
 10
36.48325543465
 20
4.499750807049991
 10
36.46549816744999
 20
4.435053407049991
 10
36.44785004905
 20
4.372855736649995
 10
36.43033417065
 20
4.312998307849994
 10
36.41297284584999
 20
4.255332253449992
 10
36.39578529385
 20
4.199751210249999
 10
36.37878995145
 20
4.146159432649994
 10
36.35369364585
 20
4.069299995849988
 10
36.32910941065
 20
3.996424594250001
 10
36.30507220264999
 20
3.92726488865
 10
36.28160438665
 20
3.86158477024999
 10
36.25872326504999
 20
3.799162123849995
 10
36.23643850025
 20
3.739798560650001
 10
36.21475702505
 20
3.683306349449992
 10
36.19368251944999
 20
3.629516650249996
 10
36.17321666984999
 20
3.578268912649988
 10
36.15335645864999
 20
3.529416832649999
 10
36.13409699464999
 20
3.482821056649996
 10
36.11543058824999
 20
3.438355760649997
 10
36.09734844745
 20
3.395901498249997
 10
36.07984018505
 20
3.35535079905
 10
36.06289486505
 20
3.316601320649994
 10
36.04650097065
 20
3.279559282249991
 10
36.03064646024999
 20
3.244134539849994
 10
36.01531774825
 20
3.21024293184999
 10
36.00050138505
 20
3.177804840649997
 10
35.98618598185
 20
3.14675278624999
 10
35.97235912425
 20
3.117021269449992
 10
35.95900222185
 20
3.088540520649999
 10
35.94609675305
 20
3.061243883849996
 10
35.93363065225
 20
3.03508140225
 10
35.92159320745
 20
3.010007411849997
 10
35.90997269384999
 20
2.98597671745
 10
35.88793696905
 20
2.940871026249993
 10
35.86745767625
 20
2.899469775049993
 10
35.84849685064999
 20
2.861540391049999
 10
35.83086729225
 20
2.826588544649993
 10
35.81437671784999
 20
2.794145506249989
 10
35.79877140585
 20
2.763723584649994
  0
LWPOLYLINE
  5
112
330
2
100
AcDbEntity
  8
0
100
AcDbPolyline
 90
      118
 70
     0
 43
0.0
 10
35.79877140585
 20
2.763723584649994
 10
35.77256624745
 20
2.713788613449992
 10
35.74588581704999
 20
2.664224723849997
 10
35.71846536104999
 20
2.615055215049991
 10
35.69012279624999
 20
2.566306525449988
 10
35.66074049705
 20
2.518003965449992
 10
35.63027411944999
 20
2.470182135049995
 10
35.59890157865
 20
2.422979626249997
 10
35.56698670984999
 20
2.376645877450002
 10
35.53408279305
 20
2.33032664385
 10
35.49891222025
 20
2.28217694944999
 10
35.48003889544999
 20
2.256843216649997
 10
35.46005390185
 20
2.230366311049991
 10
35.43878822185
 20
2.202555667849992
 10
35.41619294345
 20
2.173387167049995
 10
35.39225137705
 20
2.142880776649988
 10
35.36695562504999
 20
2.11106636385
 10
35.34029629705
 20
2.077971874249996
 10
35.31224924585
 20
2.043607666249997
 10
35.28277143465
 20
2.007963147849991
 10
35.25175902505
 20
1.970961515849992
 10
35.21909402504999
 20
1.932513989450001
 10
35.18466263784999
 20
1.892550053449994
 10
35.14834482345
 20
1.851001520650001
 10
35.10999138664999
 20
1.807791216649988
 10
35.06944203784999
 20
1.76284170945
 10
35.02652126024999
 20
1.716083515850002
 10
34.98104783305
 20
1.667453437449992
 10
34.93283296104999
 20
1.616905504649992
 10
34.88166286345
 20
1.564383859849996
 10
34.82723140105
 20
1.509775898249998
 10
34.76920575145
 20
1.452964669449997
 10
34.70723873225
 20
1.393872599049998
 10
34.66355945705
 20
1.353177463050002
 10
34.61783826505
 20
1.311419402249995
 10
34.56994086025
 20
1.268579291849988
 10
34.51972995145
 20
1.224641362249997
 10
34.46705627625
 20
1.179603242249996
 10
34.41176757865
 20
1.133465903049994
 10
34.35370381705
 20
1.08623097505
 10
34.29267381225
 20
1.037902715849995
 10
34.22847860105
 20
0.9884860310500016
 10
34.16091194985
 20
0.9379884966499929
 10
34.08973855624999
 20
0.8864283622500011
 10
34.01471584745
 20
0.833826538249994
 10
33.93560610665
 20
0.7802139846499899
 10
33.85219102505
 20
0.725661839049991
 10
33.76425715304999
 20
0.6702512838499928
 10
33.67160017064999
 20
0.6140628998499978
 10
33.57405230665
 20
0.5571748486499928
 10
33.47145492104999
 20
0.4996646902500004
 10
33.36367373704999
 20
0.4416295270499973
 10
33.25067193225
 20
0.3832446486499918
 10
33.13243704105
 20
0.3247048838499893
 10
33.00897854345
 20
0.2662136918499982
 10
32.88039367304999
 20
0.2080090262499965
 10
32.74680160104999
 20
0.1503374710499941
 10
32.60830048424999
 20
0.0934288790499949
 10
32.46490441224999
 20
0.0374462102499962
 10
32.31660645545
 20
-0.0174643017500102
 10
32.16339043785
 20
-0.0711688089500058
 10
32.00520318984999
 20
-0.1235830233500081
 10
31.84198229224999
 20
-0.1746350457500085
 10
31.71619266985
 20
-0.2119899737500077
 10
31.58731176425
 20
-0.2485265193500084
 10
31.45511483305
 20
-0.2842329769500083
 10
31.31937713064999
 20
-0.3190976441500055
 10
31.17993941384999
 20
-0.3530941081500032
 10
31.03690443785
 20
-0.3861371177500103
 10
30.89044045865
 20
-0.4181267145499988
 10
30.74071573544999
 20
-0.4489629449500115
 10
30.58791554024999
 20
-0.4785563913500113
 10
30.43229322505
 20
-0.5068598153499977
 10
30.27411915624999
 20
-0.533836520950004
 10
30.11366370185
 20
-0.5594498121500067
 10
29.89667718824999
 20
-0.5914313353500092
 10
29.67697007145
 20
-0.6209253465500098
 10
29.45539688904999
 20
-0.647933421750011
 10
29.23269480585
 20
-0.6724806169500113
 10
29.00913148905
 20
-0.6946859161500072
 10
28.78485723145
 20
-0.7146917865500058
 10
28.55987981545
 20
-0.7326427481499991
 10
28.33363698345
 20
-0.7486915145500035
 10
28.10542396904999
 20
-0.7629928537500064
 10
27.87455566024999
 20
-0.7756953161500065
 10
27.64042557704999
 20
-0.7869225881500057
 10
27.40244689384999
 20
-0.7967921369500033
 10
27.22107308584999
 20
-0.803373181750004
 10
27.03688995624999
 20
-0.8093014905499984
 10
26.84958310985
 20
-0.814621967350007
 10
26.65883815304999
 20
-0.8193795193500079
 10
26.46434034985
 20
-0.8236196121500114
 10
26.26577360105
 20
-0.8273899529499999
 10
26.06282146184999
 20
-0.8307388089500022
 10
25.85516749225
 20
-0.8337144489500047
 10
25.68545002345
 20
-0.8358573737500023
 10
25.51238088264999
 20
-0.8378091945500045
 10
25.33582008905
 20
-0.8395867785500001
 10
25.15562766665
 20
-0.841206989750006
 10
24.97166363465
 20
-0.8426866937500108
 10
24.78378854825
 20
-0.8440392297500096
 10
24.59186509385
 20
-0.8452638473500115
 10
24.39575649385
 20
-0.8463562745500041
 10
24.19532596905
 20
-0.847312234550003
 10
23.99043673705
 20
-0.8481274553500099
 10
23.81618928425
 20
-0.8486967369500035
 10
23.63866062664999
 20
-0.8491659849500052
 10
23.45776086825
 20
-0.8495358745499999
 10
23.27340011145
 20
-0.8498070761500002
 10
23.08548846185
 20
-0.8499802617500051
 10
22.89393602344999
 20
-0.8500561033499991
 10
22.69867007464999
 20
-0.8500354089500063
 10
22.49968659945
 20
-0.8499195161500097
 10
22.29699875785
 20
-0.8497099001500032
 10
22.09054671945
 20
-0.8494080937500001
 10
21.87997870344999
 20
-0.8490158793500057
 10
21.66486994185
 20
-0.8485351033500023
 10
21.50035126505
 20
-0.848117677750011
  0
LWPOLYLINE
  5
113
330
2
100
AcDbEntity
  8
0
100
AcDbPolyline
 90
       37
 70
     0
 43
0.0
 10
36.49914282025
 20
0.1801788502500017
 10
36.33895698825
 20
-0.0186871081500044
 10
36.17562819465
 20
-0.2119466729500061
 10
36.01012745065
 20
-0.3987153993500101
 10
35.84345244265
 20
-0.5781834601500009
 10
35.67635712105
 20
-0.7498816505500088
 10
35.50935648425
 20
-0.9135484345500088
 10
35.34298622825
 20
-1.068887272950007
 10
35.17809563625
 20
-1.21548104575001
 10
35.01513236424999
 20
-1.353442364149998
 10
34.85326408905
 20
-1.483848138550001
 10
34.69140085864999
 20
-1.60768823295001
 10
34.52886475465
 20
-1.725583199349998
 10
34.36471082824999
 20
-1.838323448950006
 10
34.19628881225
 20
-1.947714303350011
 10
34.02119667945
 20
-2.055111264949999
 10
33.84154563145
 20
-2.159091602550006
 10
33.66088350024999
 20
-2.257831496950004
 10
33.48083490665
 20
-2.350935935350008
 10
33.30202584424999
 20
-2.43864267455001
 10
33.12255798824999
 20
-2.522259100150009
 10
32.93941690024999
 20
-2.603170786550009
 10
32.75075591945
 20
-2.681981226550007
 10
32.55547226185
 20
-2.758843980150004
 10
32.34997761705
 20
-2.83471468095
 10
32.12849146665
 20
-2.911060682550001
 10
31.89052761544999
 20
-2.98721773695
 10
31.64016696745
 20
-3.061103352949999
 10
31.38435159305
 20
-3.130199610550008
 10
31.13021131465
 20
-3.192523519350004
 10
30.88047276585
 20
-3.247604701750006
 10
30.63704754184999
 20
-3.295293663350008
 10
30.40213508745
 20
-3.335504632950005
 10
30.17727948424999
 20
-3.368396488950011
 10
29.96344248424999
 20
-3.394302904950009
 10
29.76105453705
 20
-3.41367245375001
 10
29.57051727465
 20
-3.426987666550004
  0
LWPOLYLINE
  5
114
330
2
100
AcDbEntity
  8
0
100
AcDbPolyline
 90
       19
 70
     0
 43
0.0
 10
36.45998310505
 20
15.98653047105
 10
36.23346514825
 20
16.26206829985
 10
35.94043017225
 20
16.56682418144998
 10
35.61659019945
 20
16.86429778305
 10
35.31739742665
 20
17.11840838784999
 10
34.99859386344999
 20
17.37195069505
 10
34.66871979145
 20
17.61593258464998
 10
34.29922411945
 20
17.86411473825
 10
33.93025357224999
 20
18.08106772864999
 10
33.57517712425
 20
18.26118034305
 10
33.19981163465
 20
18.42458110945
 10
32.81610049225
 20
18.56972723584999
 10
32.42007073544999
 20
18.70133600385
 10
32.03705710504999
 20
18.81013767745
 10
31.61284532105
 20
18.90937166944999
 10
31.14005799624999
 20
18.99586908704998
 10
30.70101377064999
 20
19.05669659584998
 10
30.18569845544999
 20
19.10839968544999
 10
29.57042492745
 20
19.14788420864999
  0
LWPOLYLINE
  5
115
330
2
100
AcDbEntity
  8
0
100
AcDbPolyline
 90
       67
 70
     0
 43
0.0
 10
35.79878398024999
 20
13.56839371744999
 10
35.81470712585
 20
13.53734822785
 10
35.83152907144999
 20
13.50424609825
 10
35.84951524745
 20
13.46857310945
 10
35.86885471465
 20
13.42986231264998
 10
35.88972499944999
 20
13.38763278945001
 10
35.91215926504999
 20
13.34165603105
 10
35.92398428584999
 20
13.31716820865
 10
35.93622974505
 20
13.29162193664998
 10
35.94890686185
 20
13.26497232545
 10
35.96202701385
 20
13.23717175425
 10
35.97560302345
 20
13.20816799105
 10
35.98965332425
 20
13.17789310624999
 10
36.00419609064999
 20
13.14627653664999
 10
36.01924283145
 20
13.11325287905001
 10
36.03480417705
 20
13.07875432545
 10
36.05089388585
 20
13.04269831425
 10
36.06752580744999
 20
13.00499782144999
 10
36.08471101864999
 20
12.96556273344998
 10
36.10246003304999
 20
12.92429918624998
 10
36.12078388745
 20
12.88110141664998
 10
36.13969302024999
 20
12.83585835105
 10
36.15919496425
 20
12.78844961184998
 10
36.17929594505
 20
12.73874846785
 10
36.19999988265
 20
12.68661212224998
 10
36.22130890984999
 20
12.63189043424998
 10
36.24322034185
 20
12.57441998945
 10
36.26572933705
 20
12.51402914144998
 10
36.28882727625
 20
12.45052658624999
 10
36.31250247785
 20
12.38371008064999
 10
36.33673480745
 20
12.31335325825
 10
36.36149910345
 20
12.23921466145
 10
36.38675853545
 20
12.16101657184998
 10
36.40385268584999
 20
12.10648341825
 10
36.42113193705
 20
12.04990840224999
 10
36.43857899625
 20
11.99118134304998
 10
36.45617486505
 20
11.93018509025
 10
36.47389373865
 20
11.86677464544999
 10
36.49170810664999
 20
11.80079805184999
 10
36.50958696105
 20
11.73209986144999
 10
36.52748530184999
 20
11.66051069344999
 10
36.54535463144999
 20
11.58585767745
 10
36.56313878185
 20
11.50794047265
 10
36.58075091144999
 20
11.42644883904998
 10
36.59809650824999
 20
11.34104506464999
 10
36.61503958504999
 20
11.25160830145
 10
36.63127824425
 20
11.15888516384998
 10
36.64646911625
 20
11.06383913664998
 10
36.66663875624999
 20
10.91891910145
 10
36.67539295304999
 20
10.84590190944999
 10
36.68327038504999
 20
10.77171009344999
 10
36.69028942344999
 20
10.69566234145
 10
36.69635440905
 20
10.61862457665
 10
36.69981597064999
 20
10.56738017505
 10
36.70281906184999
 20
10.51689663265
 10
36.70538442345
 20
10.46781804545
 10
36.70754055464999
 20
10.42059632384999
 10
36.70934697385
 20
10.37491464544999
 10
36.71087095625
 20
10.33026400545
 10
36.71274953065
 20
10.26443938944999
 10
36.71422104744999
 20
10.20006106624998
 10
36.71567421384999
 20
10.11674889504999
 10
36.71667032585
 20
10.03597198624998
 10
36.71733899145
 20
9.957211344650005
 10
36.71796486504999
 20
9.841373595850001
 10
36.71830288264999
 20
9.725101159049984
 10
36.71849180904999
 20
9.605285293449995
  0
LWPOLYLINE
  5
116
330
2
100
AcDbEntity
  8
0
100
AcDbPolyline
 90
       12
 70
     0
 43
0.0
 10
39.65890750664999
 20
10.53194485664999
 10
39.65330276265
 20
10.75787985984999
 10
39.64606824105
 20
10.95826256064998
 10
39.63735457865
 20
11.13782788065
 10
39.62733874185
 20
11.30047692385
 10
39.61595908744999
 20
11.45226588545
 10
39.60306263145
 20
11.59782002784999
 10
39.58855934505
 20
11.73940500544998
 10
39.57217232105
 20
11.88018691265
 10
39.55383546665
 20
12.02075088064998
 10
39.53359951144999
 20
12.16077608224998
 10
39.51148242505
 20
12.30023676544999
  0
LWPOLYLINE
  5
117
330
2
100
AcDbEntity
  8
0
100
AcDbPolyline
 90
       13
 70
     0
 43
0.0
 10
38.65151014504999
 20
8.166070760650001
 10
38.65209751784999
 20
8.063069759049994
 10
38.65386488905
 20
7.960119426249988
 10
38.65680755625
 20
7.858065111049995
 10
38.66091402345
 20
7.75754331585
 10
38.66614951945
 20
7.659472677449997
 10
38.67248374825
 20
7.564417626249991
 10
38.67985218024999
 20
7.473287275849997
 10
38.68821364905
 20
7.386515152649991
 10
38.69749469705
 20
7.304806266249997
 10
38.70766751465
 20
7.228401386249998
 10
38.71865847785
 20
7.157905075849996
 10
38.73036043304999
 20
7.093981949449997
  0
LWPOLYLINE
  5
118
330
2
100
AcDbEntity
  8
0
100
AcDbPolyline
 90
        8
 70
     0
 43
0.0
 10
39.66373239784999
 20
8.166070759050001
 10
39.66413010825
 20
7.703647827849991
 10
39.66491638505
 20
7.294292079049995
 10
39.66556392744999
 20
6.929450411849998
 10
39.66563972904999
 20
6.602464474249998
 10
39.66476633864999
 20
6.307233152649999
 10
39.66259842984999
 20
6.04024410465
 10
39.65890750664999
 20
5.800196664650002
  0
LWPOLYLINE
  5
119
330
2
100
AcDbEntity
  8
0
100
AcDbPolyline
 90
        8
 70
     0
 43
0.0
 10
39.66373239784999
 20
8.166070759050001
 10
39.66413010825
 20
8.628493693449996
 10
39.66491638505
 20
9.037849442249992
 10
39.66556392744999
 20
9.402691109449989
 10
39.66563972904999
 20
9.729677047049989
 10
39.66476633864999
 20
10.02490836864998
 10
39.66259842984999
 20
10.29189741664998
 10
39.65890750664999
 20
10.53194485664999
  0
LWPOLYLINE
  5
11A
330
2
100
AcDbEntity
  8
0
100
AcDbPolyline
 90
       20
 70
     0
 43
0.0
 10
38.95494778184999
 20
8.166070760650001
 10
38.95442860424999
 20
8.065013005449998
 10
38.95280922505
 20
7.961600624649989
 10
38.95001425065
 20
7.857023608649996
 10
38.94598311145
 20
7.752300199049997
 10
38.94069169065
 20
7.648846952649989
 10
38.93415402185
 20
7.54811797344999
 10
38.92646408425
 20
7.45197901665
 10
38.91767716264999
 20
7.361143077449995
 10
38.90784920105
 20
7.276193146249994
 10
38.89701825064999
 20
7.197517008649995
 10
38.88528591625
 20
7.125892368649999
 10
38.87271590025
 20
7.061714096649993
 10
38.85942437865
 20
7.005566015049993
 10
38.84547934984999
 20
6.957725272649994
 10
38.83100383625
 20
6.91861462304999
 10
38.81609002025
 20
6.88847856065
 10
38.80091728425
 20
6.867626927049997
 10
38.78558818185
 20
6.85609847744999
 10
38.77425075465
 20
6.853570760650001
  0
LWPOLYLINE
  5
11B
330
2
100
AcDbEntity
  8
0
100
AcDbPolyline
 90
       13
 70
     0
 43
0.0
 10
38.58961839145
 20
8.166070760650001
 10
38.59020538184999
 20
8.269042747849994
 10
38.59197202664999
 20
8.371981464649991
 10
38.59491386665
 20
8.474030251849995
 10
38.59901987464999
 20
8.574557351049989
 10
38.60425503464999
 20
8.672632631049992
 10
38.61058944904999
 20
8.76769701984999
 10
38.61795861064999
 20
8.858839003849993
 10
38.62632115465
 20
8.945621711049994
 10
38.63560360584999
 20
9.027340031050002
 10
38.64577626185
 20
9.103740399049996
 10
38.65676755145
 20
9.174236335049997
 10
38.66847202504999
 20
9.238163107849999
  0
LWPOLYLINE
  5
11C
330
2
100
AcDbEntity
  8
0
100
AcDbPolyline
 90
       12
 70
     0
 43
0.0
 10
39.65890750664999
 20
5.800196664650002
 10
39.65330276265
 20
5.574261661449995
 10
39.64606824105
 20
5.373878960649989
 10
39.63735457865
 20
5.194313642249994
 10
39.62733874185
 20
5.031664597449989
 10
39.61595908744999
 20
4.879875635849998
 10
39.60306263145
 20
4.734321493449996
 10
39.58855934505
 20
4.592736515849992
 10
39.57217232105
 20
4.451954608649998
 10
39.55383546665
 20
4.311390640649989
 10
39.53359951144999
 20
4.171365439049992
 10
39.51148242505
 20
4.031904755849993
  0
LWPOLYLINE
  5
11D
330
2
100
AcDbEntity
  8
0
100
AcDbPolyline
 90
       92
 70
     0
 43
0.0
 10
39.51148242505
 20
4.031904755849993
 10
39.48638852745
 20
3.886828391049988
 10
39.45924898824999
 20
3.742373583049996
 10
39.43001150505
 20
3.59824299105
 10
39.39867057704999
 20
3.45446622304999
 10
39.36530138665
 20
3.31141087425
 10
39.32994163945
 20
3.169212955849999
 10
39.29259762824999
 20
3.027869299849996
 10
39.25335574185
 20
2.887672141449996
 10
39.21228850344999
 20
2.748813640649999
 10
39.16942077224999
 20
2.611297330249996
 10
39.12476455305
 20
2.475099904649994
 10
39.07834438185
 20
2.34024173505
 10
39.03016292744999
 20
2.206683152650001
 10
38.98036614025
 20
2.07476925185
 10
38.92900445865
 20
1.944552239049997
 10
38.87576717224999
 20
1.815217090250001
 10
38.82009063625
 20
1.685467445450001
 10
38.76154664745
 20
1.554402080649992
 10
38.69996475944999
 20
1.421785786249998
 10
38.63537494025
 20
1.287824712649992
 10
38.56765846345
 20
1.15241065344999
 10
38.49679906825
 20
1.015654181449988
 10
38.42285084584999
 20
0.8777910982500003
 10
38.34585056905
 20
0.7390091654499998
 10
38.26588137224999
 20
0.5995624582499915
 10
38.18308318824999
 20
0.4597804822499967
 10
38.09751552265
 20
0.3198370294499995
 10
38.00926920425
 20
0.1799469702500005
 10
37.91852498824999
 20
0.0404519942499917
 10
37.82550560264999
 20
-0.0982691129500069
 10
37.73051202345
 20
-0.2357547433500002
 10
37.63382561384999
 20
-0.3716071401500045
 10
37.53565667145
 20
-0.50555418175
 10
37.43614141224999
 20
-0.6374385897500048
 10
37.33586068584999
 20
-0.7665389913500036
 10
37.23518951145
 20
-0.8924553433500079
 10
37.13410737065
 20
-1.015297160949998
 10
37.03297708744999
 20
-1.134701596150009
 10
36.93273419464999
 20
-1.249690410550002
 10
36.83439068424999
 20
-1.359274157750007
 10
36.73837993384999
 20
-1.46315796895
 10
36.64417561064999
 20
-1.562106282550004
 10
36.55105598025
 20
-1.657025330549998
 10
36.45873889224999
 20
-1.74831631615001
 10
36.36708385545
 20
-1.836223389750003
 10
36.27588605225
 20
-1.921042437750003
 10
36.18478470824999
 20
-2.003189263350009
 10
36.09349013544999
 20
-2.082981898550002
 10
36.00153063944999
 20
-2.160866648950005
 10
35.90864777385
 20
-2.237075085750007
 10
35.81472031305
 20
-2.311713815350003
 10
35.71962159464999
 20
-2.384890941750001
 10
35.62297384424999
 20
-2.456893592950009
 10
35.52429861224999
 20
-2.528052648950009
 10
35.42318015784999
 20
-2.598622589750007
 10
35.31922802984999
 20
-2.668813984950006
 10
35.21214308585
 20
-2.73875589375001
 10
35.10159654505
 20
-2.80858410975
 10
34.98689738985
 20
-2.87863927135001
 10
34.86772174345
 20
-2.94900793535001
 10
34.74305806344999
 20
-3.02015428735001
 10
34.61225341865
 20
-3.092292967350005
 10
34.47663367945
 20
-3.164574832950009
 10
34.33942040425
 20
-3.235220389749997
 10
34.20255113864999
 20
-3.30322801055
 10
34.06591049544999
 20
-3.368692860150005
 10
33.92946775945
 20
-3.431662631350008
 10
33.79335742665
 20
-3.492108541749999
 10
33.65738894985
 20
-3.550145954550004
 10
33.52133371944999
 20
-3.605895636150009
 10
33.38513768104999
 20
-3.659397535350009
 10
33.24927724104999
 20
-3.710490452150011
 10
33.11390994664999
 20
-3.75915497055
 10
32.97884909225
 20
-3.805494381750008
 10
32.84413312584999
 20
-3.849525996150006
 10
32.70969879784999
 20
-3.891295728949998
 10
32.57540297865
 20
-3.93086830975001
 10
32.44084330184999
 20
-3.968368108150002
 10
32.30670791465
 20
-4.003613466550007
 10
32.17323683785
 20
-4.036571599350011
 10
32.04026367305
 20
-4.067314140150003
 10
31.90778155785
 20
-4.095868269749999
 10
31.77582466824999
 20
-4.122251322549999
 10
31.64441524424999
 20
-4.146483317750011
 10
31.51346980744999
 20
-4.168601952949998
 10
31.38296595145
 20
-4.188629983349997
 10
31.25304741704999
 20
-4.20656560735
 10
31.12372770025
 20
-4.222429964150009
 10
30.99502755624999
 20
-4.236243754550002
 10
30.86700098665
 20
-4.248025322550006
 10
30.73970208104999
 20
-4.25779550175001
  0
LWPOLYLINE
  5
11E
330
2
100
AcDbEntity
  8
0
100
AcDbPolyline
 90
       13
 70
     0
 43
0.0
 10
38.73036043304999
 20
9.23815957184999
 10
38.71868912265
 20
9.174417891849998
 10
38.70772052744999
 20
9.10410799425
 10
38.69756430504999
 20
9.027900768649999
 10
38.68829458025
 20
8.946398531849993
 10
38.67994223945
 20
8.859871744649993
 10
38.67258102184999
 20
8.769043487049998
 10
38.66624677225
 20
8.67428927425
 10
38.66099755144999
 20
8.576369530249991
 10
38.65686584105
 20
8.47574718944999
 10
38.65389542184999
 20
8.373347267849993
 10
38.65210617865
 20
8.269827803849992
 10
38.65151014504999
 20
8.166070760650001
  0
LWPOLYLINE
  5
11F
330
2
100
AcDbEntity
  8
0
100
AcDbPolyline
 90
        9
 70
     0
 43
0.0
 10
38.66847202504999
 20
9.238163107849999
 10
38.68113767305
 20
9.296521427849995
 10
38.69442922825
 20
9.347374176649992
 10
38.70822789544999
 20
9.390247543049994
 10
38.72238434505
 20
9.424750546249995
 10
38.73679471785
 20
9.450763642249995
 10
38.75130786984999
 20
9.468200608649993
 10
38.76588234345
 20
9.477194867850002
 10
38.77424960745
 20
9.478570760650001
  0
LWPOLYLINE
  5
120
330
2
100
AcDbEntity
  8
0
100
AcDbPolyline
 90
        7
 70
     0
 43
0.0
 10
38.73036043304999
 20
7.093981949449997
 10
38.74302463944999
 20
7.035623432649998
 10
38.75631581544999
 20
6.984772059850001
 10
38.77011266984999
 20
6.941903402249991
 10
38.78426951145
 20
6.907397864649993
 10
38.79868109384999
 20
6.881381279049989
 10
38.80521412905
 20
6.873532007050002
  0
LWPOLYLINE
  5
121
330
2
100
AcDbEntity
  8
0
100
AcDbPolyline
 90
       13
 70
     0
 43
0.0
 10
38.66847202504999
 20
7.093978413449988
 10
38.65679874025
 20
7.157720522249988
 10
38.64582888104999
 20
7.228036008649993
 10
38.63567097704999
 20
7.304254162249989
 10
38.62640131624999
 20
7.385755011849994
 10
38.61804905385
 20
7.472280690249988
 10
38.61068801864999
 20
7.563107288650002
 10
38.60435413704999
 20
7.657857525449998
 10
38.59910530345
 20
7.755772392650001
 10
38.59497405224999
 20
7.856385810249989
 10
38.59200371305
 20
7.958784645449995
 10
38.59021448265
 20
8.062304147849999
 10
38.58961839145
 20
8.166070760650001
  0
LWPOLYLINE
  5
122
330
2
100
AcDbEntity
  8
0
100
AcDbPolyline
 90
       92
 70
     0
 43
0.0
 10
39.51148242505
 20
12.30023676544999
 10
39.48638852745
 20
12.44531313024998
 10
39.45924898824999
 20
12.58976793824999
 10
39.43001150505
 20
12.73389853025
 10
39.39867057704999
 20
12.87767529824998
 10
39.36530138665
 20
13.02073064704998
 10
39.32994163945
 20
13.16292856544998
 10
39.29259762824999
 20
13.30427222144999
 10
39.25335574185
 20
13.44446937985
 10
39.21228850344999
 20
13.58332788064998
 10
39.16942077224999
 20
13.72084419104999
 10
39.12476455305
 20
13.85704161665
 10
39.07834438185
 20
13.99189978625
 10
39.03016292744999
 20
14.12545836864998
 10
38.98036614025
 20
14.25737226945
 10
38.92900445865
 20
14.38758928384999
 10
38.87576717224999
 20
14.51692443105
 10
38.82009063625
 20
14.64667407585
 10
38.76154664745
 20
14.77773944065001
 10
38.69996475944999
 20
14.91035573664999
 10
38.63537494025
 20
15.04431680864999
 10
38.56765846345
 20
15.17973086784999
 10
38.49679906825
 20
15.31648733985
 10
38.42285084584999
 20
15.45435042304998
 10
38.34585056905
 20
15.59313235585
 10
38.26588137224999
 20
15.73257906304999
 10
38.18308318824999
 20
15.87236103904999
 10
38.09751552265
 20
16.01230449184998
 10
38.00926920425
 20
16.15219455265
 10
37.91852498824999
 20
16.29168952704998
 10
37.82550560264999
 20
16.43041063424999
 10
37.73051202345
 20
16.56789626464998
 10
37.63382561384999
 20
16.70374866144999
 10
37.53565667145
 20
16.83769570305
 10
37.43614141224999
 20
16.96958011104999
 10
37.33586068584999
 20
17.09868051264999
 10
37.23518951145
 20
17.22459686464998
 10
37.13410737065
 20
17.34743868224998
 10
37.03297708744999
 20
17.46684311744999
 10
36.93273419464999
 20
17.58183193184999
 10
36.83439068424999
 20
17.69141567904998
 10
36.73837993384999
 20
17.79529949024998
 10
36.64417561064999
 20
17.89424780544999
 10
36.55105598025
 20
17.98916685185
 10
36.45873889224999
 20
18.08045783744998
 10
36.36708385545
 20
18.16836491104999
 10
36.27588605225
 20
18.25318395905
 10
36.18478470824999
 20
18.33533078464998
 10
36.09349013544999
 20
18.41512341985
 10
36.00153063944999
 20
18.49300817024999
 10
35.90864777385
 20
18.56921660705
 10
35.81472031305
 20
18.64385533665
 10
35.71962159464999
 20
18.71703246305
 10
35.62297384424999
 20
18.78903511424999
 10
35.52429861224999
 20
18.86019417024999
 10
35.42318015784999
 20
18.93076411104999
 10
35.31922802984999
 20
19.00095550624999
 10
35.21214308585
 20
19.07089741504998
 10
35.10159654505
 20
19.14072563105
 10
34.98689738985
 20
19.21078079264998
 10
34.86772174345
 20
19.28114945664998
 10
34.74305806344999
 20
19.35229580864998
 10
34.61225341865
 20
19.42443448865
 10
34.47663367945
 20
19.49671635424999
 10
34.33942040425
 20
19.56736191104999
 10
34.20255113864999
 20
19.63536953184998
 10
34.06591049544999
 20
19.70083438304999
 10
33.92946775945
 20
19.76380415264998
 10
33.79335742665
 20
19.82425006304998
 10
33.65738894985
 20
19.88228747585
 10
33.52133371944999
 20
19.93803715744999
 10
33.38513768104999
 20
19.99153905824999
 10
33.24927724104999
 20
20.04263197345
 10
33.11390994664999
 20
20.09129649184998
 10
32.97884909225
 20
20.13763590304998
 10
32.84413312584999
 20
20.18166751744999
 10
32.70969879784999
 20
20.22343725024998
 10
32.57540297865
 20
20.26300983105
 10
32.44084330184999
 20
20.30050962945
 10
32.30670791465
 20
20.33575498785001
 10
32.17323683785
 20
20.36871312065
 10
32.04026367305
 20
20.39945566144999
 10
31.90778155785
 20
20.42800979104999
 10
31.77582466824999
 20
20.45439284385
 10
31.64441524424999
 20
20.47862483904998
 10
31.51346980744999
 20
20.50074347424998
 10
31.38296595145
 20
20.52077150464998
 10
31.25304741704999
 20
20.53870712865
 10
31.12372770025
 20
20.55457148544999
 10
30.99502755624999
 20
20.56838527585
 10
30.86700098665
 20
20.58016684385
 10
30.73970208104999
 20
20.58993702305
  0
LWPOLYLINE
  5
123
330
2
100
AcDbEntity
  8
0
100
AcDbPolyline
 90
       14
 70
     0
 43
0.0
 10
41.90649210985
 20
8.16607075265
 10
41.90507201065
 20
8.446951411849994
 10
41.90081392585
 20
8.727676554249995
 10
41.89372465705
 20
9.00804659904999
 10
41.88381431304999
 20
9.287893261449994
 10
41.87109611304999
 20
9.56708613984999
 10
41.85558993545
 20
9.845426837449991
 10
41.83731915625
 20
10.12273054624998
 10
41.81630952105
 20
10.39885167744998
 10
41.79259176265
 20
10.67363637824999
 10
41.76620206984999
 20
10.94690577024999
 10
41.73717648584999
 20
11.21852568225
 10
41.70555100585
 20
11.48839509984998
 10
41.67138222184999
 20
11.75626615904999
  0
LWPOLYLINE
  5
124
330
2
100
AcDbEntity
  8
0
100
AcDbPolyline
 90
       13
 70
     0
 43
0.0
 10
41.90649210985
 20
8.16607075265
 10
41.90482553385
 20
7.861790759049995
 10
41.89982881544999
 20
7.557709903049996
 10
41.89151100425
 20
7.254076179849988
 10
41.87988603305
 20
6.951102325449994
 10
41.86497259624999
 20
6.648962872649988
 10
41.84679858984999
 20
6.347923298249995
 10
41.82539466825
 20
6.048189293449993
 10
41.80079623304999
 20
5.749938325449988
 10
41.77304793064999
 20
5.453402047049991
 10
41.74219595464999
 20
5.158770051849998
 10
41.70828420904999
 20
4.866160815049994
 10
41.67138222184999
 20
4.575875362250002
  0
LWPOLYLINE
  5
125
330
2
100
AcDbEntity
  8
0
100
AcDbPolyline
 90
       10
 70
     0
 43
0.0
 10
41.67138222184999
 20
4.575875362250002
 10
41.63469395465
 20
4.309997135049997
 10
41.59554942664999
 20
4.046332743050001
 10
41.55400436745
 20
3.785024047050001
 10
41.51011456105
 20
3.526191887049989
 10
41.46393271945
 20
3.269917923850002
 10
41.41554110024999
 20
3.016411767050001
 10
41.36500363144999
 20
2.765766378249992
 10
41.31237469065
 20
2.518029295049998
 10
41.25771499305
 20
2.273270519050001
  0
LWPOLYLINE
  5
126
330
2
100
AcDbEntity
  8
0
100
AcDbPolyline
 90
        8
 70
     0
 43
0.0
 10
41.78162038505
 20
1.843236333449993
 10
41.97399965545
 20
2.706415967049991
 10
42.13789151784999
 20
3.587980309449989
 10
42.27274408744999
 20
4.48496080545
 10
42.37810326505
 20
5.394336983049996
 10
42.45361426504999
 20
6.313046631049999
 10
42.49902281545
 20
7.237996107849994
 10
42.51417600745
 20
8.166070760650001
  0
LWPOLYLINE
  5
127
330
2
100
AcDbEntity
  8
0
100
AcDbPolyline
 90
        3
 70
     0
 43
0.0
 10
41.25771499305
 20
2.273270519050001
 10
41.22435727785
 20
2.129299899849996
 10
41.19032822824999
 20
1.98649643585
  0
LWPOLYLINE
  5
128
330
2
100
AcDbEntity
  8
0
100
AcDbPolyline
 90
       85
 70
     0
 43
0.0
 10
41.19032822824999
 20
1.98649643585
 10
41.14665876105
 20
1.810946570249996
 10
41.10062441384999
 20
1.636004442249998
 10
41.05223286185
 20
1.461701653449992
 10
41.00149270984999
 20
1.288068760649991
 10
40.94841206024999
 20
1.115133943049997
 10
40.89299897384999
 20
0.9429249430500021
 10
40.83526581705
 20
0.7714811702499987
 10
40.77522147464999
 20
0.6008282630499906
 10
40.71287730825
 20
0.4309989014499962
 10
40.64824806025
 20
0.2620328534499947
 10
40.58134282345
 20
0.0939531910499909
 10
40.51217406505
 20
-0.0732087497500089
 10
40.44075558984999
 20
-0.2394203433500053
 10
40.36710099785
 20
-0.404650927350005
 10
40.29122160104999
 20
-0.5688750553500057
 10
40.21313063465
 20
-0.7320612377500027
 10
40.13284010984999
 20
-0.8941830825500005
 10
40.05036385704999
 20
-1.055211488950007
 10
39.96571899785
 20
-1.21511216895
 10
39.87892105064999
 20
-1.373855285750011
 10
39.78998380425
 20
-1.531414703350009
 10
39.69892343625
 20
-1.687761036150007
 10
39.60575638025
 20
-1.842865597750005
 10
39.51050042664999
 20
-1.996698327350003
 10
39.41317352425
 20
-2.149230167349998
 10
39.31379336425
 20
-2.300433338550007
 10
39.21237772425
 20
-2.450280592950008
 10
39.10894561064999
 20
-2.598743916149999
 10
39.00351570185
 20
-2.745796487350006
 10
38.89610647945
 20
-2.891412471350008
 10
38.78673747304999
 20
-3.035565368950003
 10
38.67543051465
 20
-3.178226530550006
 10
38.56220602825
 20
-3.31936975775001
 10
38.44708394825
 20
-3.45897025855001
 10
38.33008693385
 20
-3.597001056950006
 10
38.21123329385
 20
-3.733440650550008
 10
38.09054586185
 20
-3.868263124150004
 10
37.96805267144999
 20
-4.001437981750001
 10
37.84377323945
 20
-4.132944941750011
 10
37.71773110664999
 20
-4.262760039349998
 10
37.58995091145
 20
-4.390858786549998
 10
37.46045398824999
 20
-4.51722046975
 10
37.32926188585
 20
-4.641824375349997
 10
37.19640232425
 20
-4.76464452735
 10
37.06189630344999
 20
-4.885661725749997
 10
36.92576700745
 20
-5.00485516095
 10
36.78804670984999
 20
-5.122196764150004
 10
36.64875408905
 20
-5.237670540150006
 10
36.50791413544999
 20
-5.351255602550011
 10
36.36555479464999
 20
-5.462929087350005
 10
36.22169762825
 20
-5.572673509750003
 10
36.07636591464999
 20
-5.68047053375001
 10
35.92958917385
 20
-5.786297506549999
 10
35.78139622665
 20
-5.890133069750007
 10
35.63180928905
 20
-5.991961092150006
 10
35.48085945545
 20
-6.091759853750005
 10
35.32857085544999
 20
-6.189512680950002
 10
35.17496811785
 20
-6.285202972150003
 10
35.02008430345
 20
-6.378809656950011
 10
34.86394744105
 20
-6.47031541535
 10
34.70658721544999
 20
-6.559702813750007
 10
34.54803207624999
 20
-6.646955839349999
 10
34.38831325865
 20
-6.73205754975001
 10
34.22745791785
 20
-6.814993719349999
 10
34.06549611305
 20
-6.895748903350011
 10
33.90245945385
 20
-6.97430762655
 10
33.73837769225
 20
-7.050656055350003
 10
33.57328097705
 20
-7.12478033695001
 10
33.40719602665
 20
-7.19666854655
 10
33.24014812425
 20
-7.26630961695001
 10
33.07217842025
 20
-7.33368640735
 10
32.90331653545
 20
-7.398786860150011
 10
32.73358479625
 20
-7.461602279350003
 10
32.56301957865
 20
-7.522119253750005
 10
32.39165242504999
 20
-7.580326717749997
 10
32.21951135944999
 20
-7.636215108150011
 10
32.04663269705
 20
-7.689772748150005
 10
31.87304930025
 20
-7.74098975775
 10
31.69879028264999
 20
-7.789857709750009
 10
31.52388399145
 20
-7.836368928950008
 10
31.34836854824999
 20
-7.880513536950005
 10
31.17227263625
 20
-7.922284493749998
 10
30.99562416745
 20
-7.961675136950006
 10
30.81846326985
 20
-7.998676604150006
  0
LWPOLYLINE
  5
129
330
2
100
AcDbEntity
  8
0
100
AcDbPolyline
 90
       85
 70
     0
 43
0.0
 10
41.19032822824999
 20
14.34564508545
 10
41.14665876105
 20
14.52119495105
 10
41.10062441384999
 20
14.69613707905
 10
41.05223286185
 20
14.87043986784999
 10
41.00149270984999
 20
15.04407276064998
 10
40.94841206024999
 20
15.21700757824999
 10
40.89299897384999
 20
15.38921657825
 10
40.83526581705
 20
15.56066035104999
 10
40.77522147464999
 20
15.73131325824999
 10
40.71287730825
 20
15.90114262144999
 10
40.64824806025
 20
16.07010866785
 10
40.58134282345
 20
16.23818833024998
 10
40.51217406505
 20
16.40535027104999
 10
40.44075558984999
 20
16.57156186464999
 10
40.36710099785
 20
16.73679244864999
 10
40.29122160104999
 20
16.90101657664999
 10
40.21313063465
 20
17.06420275905
 10
40.13284010984999
 20
17.22632460385
 10
40.05036385704999
 20
17.38735301024999
 10
39.96571899785
 20
17.54725369024998
 10
39.87892105064999
 20
17.70599680704998
 10
39.78998380425
 20
17.86355622464998
 10
39.69892343625
 20
18.01990255744999
 10
39.60575638025
 20
18.17500712065
 10
39.51050042664999
 20
18.32883984865
 10
39.41317352425
 20
18.48137168865
 10
39.31379336425
 20
18.63257485984999
 10
39.21237772425
 20
18.78242211424998
 10
39.10894561064999
 20
18.93088543745
 10
39.00351570185
 20
19.07793800864999
 10
38.89610647945
 20
19.22355399264998
 10
38.78673747304999
 20
19.36770689024999
 10
38.67543051465
 20
19.51036805345
 10
38.56220602825
 20
19.65151127905
 10
38.44708394825
 20
19.79111177984998
 10
38.33008693385
 20
19.92914257825001
 10
38.21123329385
 20
20.06558217184999
 10
38.09054586185
 20
20.20040464544999
 10
37.96805267144999
 20
20.33357950305
 10
37.84377323945
 20
20.46508646304999
 10
37.71773110664999
 20
20.59490156064998
 10
37.58995091145
 20
20.72300030784998
 10
37.46045398824999
 20
20.84936199104999
 10
37.32926188585
 20
20.97396589824998
 10
37.19640232425
 20
21.09678604864999
 10
37.06189630344999
 20
21.21780324704999
 10
36.92576700745
 20
21.33699668225
 10
36.78804670984999
 20
21.45433828545
 10
36.64875408905
 20
21.56981206144999
 10
36.50791413544999
 20
21.68339712384999
 10
36.36555479464999
 20
21.79507060865
 10
36.22169762825
 20
21.90481503104999
 10
36.07636591464999
 20
22.01261205504999
 10
35.92958917385
 20
22.11843902785
 10
35.78139622665
 20
22.22227459104999
 10
35.63180928905
 20
22.32410261345
 10
35.48085945545
 20
22.42390137505001
 10
35.32857085544999
 20
22.52165420225
 10
35.17496811785
 20
22.61734449344999
 10
35.02008430345
 20
22.71095117824998
 10
34.86394744105
 20
22.80245693665
 10
34.70658721544999
 20
22.89184433504999
 10
34.54803207624999
 20
22.97909736065
 10
34.38831325865
 20
23.06419907104998
 10
34.22745791785
 20
23.14713524064998
 10
34.06549611305
 20
23.22789042464998
 10
33.90245945385
 20
23.30644914785
 10
33.73837769225
 20
23.38279757665
 10
33.57328097705
 20
23.45692185824998
 10
33.40719602665
 20
23.52881006785
 10
33.24014812425
 20
23.59845113825
 10
33.07217842025
 20
23.66582792865
 10
32.90331653545
 20
23.73092838144998
 10
32.73358479625
 20
23.79374380064999
 10
32.56301957865
 20
23.85426077504999
 10
32.39165242504999
 20
23.91246823904998
 10
32.21951135944999
 20
23.96835662945
 10
32.04663269705
 20
24.02191426945
 10
31.87304930025
 20
24.07313127904998
 10
31.69879028264999
 20
24.12199923104998
 10
31.52388399145
 20
24.16851045024998
 10
31.34836854824999
 20
24.21265505824999
 10
31.17227263625
 20
24.25442601505
 10
30.99562416745
 20
24.29381665824999
 10
30.81846326985
 20
24.33081812545001
  0
LWPOLYLINE
  5
12A
330
2
100
AcDbEntity
  8
0
100
AcDbPolyline
 90
        3
 70
     0
 43
0.0
 10
41.25771499305
 20
14.05887100224998
 10
41.22435727785
 20
14.20284162145
 10
41.19032822824999
 20
14.34564508545
  0
LWPOLYLINE
  5
12B
330
2
100
AcDbEntity
  8
0
100
AcDbPolyline
 90
        8
 70
     0
 43
0.0
 10
41.78162038505
 20
14.48890518785001
 10
41.97399965545
 20
13.62572555584998
 10
42.13789151784999
 20
12.74416121184998
 10
42.27274408744999
 20
11.84718071584998
 10
42.37810326505
 20
10.93780453824999
 10
42.45361426504999
 20
10.01909489024998
 10
42.49902281545
 20
9.094145413449993
 10
42.51417600745
 20
8.166070760650001
  0
LWPOLYLINE
  5
12C
330
2
100
AcDbEntity
  8
0
100
AcDbPolyline
 90
       10
 70
     0
 43
0.0
 10
41.67138222184999
 20
11.75626615904999
 10
41.63469395465
 20
12.02214438785
 10
41.59554942664999
 20
12.28580877984998
 10
41.55400436745
 20
12.54711747425
 10
41.51011456105
 20
12.80594963425
 10
41.46393271945
 20
13.06222359744998
 10
41.41554110024999
 20
13.31572975424998
 10
41.36500363144999
 20
13.56637514304998
 10
41.31237469065
 20
13.81411222624999
 10
41.25771499305
 20
14.05887100224998
  0
ARC
  5
12D
330
2
100
AcDbEntity
  8
0
100
AcDbCircle
 10
28.17434659465
 20
5.135970760650002
 30
0.0
 40
14.0
100
AcDbArc
 50
273.4676471399
 51
346.3968637264999
  0
ARC
  5
12E
330
2
100
AcDbEntity
  8
0
100
AcDbCircle
 10
28.17434659465
 20
11.19617076065001
 30
0.0
 40
14.0
100
AcDbArc
 50
13.6031362735
 51
86.5323528601
  0
ARC
  5
12F
330
2
100
AcDbEntity
  8
0
100
AcDbCircle
 10
-4.485823992549997
 20
8.166070760650008
 30
0.0
 40
19.0
100
AcDbArc
 50
86.5323528601
 51
273.4676471399
  0
CIRCLE
  5
130
330
2
100
AcDbEntity
  8
0
100
AcDbCircle
 10
32.76417600745
 20
8.166070760650008
 30
0.0
 40
1.2714466096
  0
LWPOLYLINE
  5
131
330
2
100
AcDbEntity
  8
CENTER
 48
4.0
100
AcDbPolyline
 90
        3
 70
   128
 43
0.0
 10
37.12723944105
 20
8.166070760650001
 10
32.76417600745
 20
8.166070760650001
 10
28.36680087305001
 20
8.166070760650001
  0
ENDSEC
  0
SECTION
  2
OBJECTS
  0
DICTIONARY
  5
C
330
0
100
AcDbDictionary
  3
ACAD_COLOR
350
2E
  3
ACAD_GROUP
350
29
  3
ACAD_LAYOUT
350
B
  3
ACAD_MATERIAL
350
2D
  3
ACAD_MLINESTYLE
350
2A
  3
ACAD_PLOTSETTINGS
350
2B
  3
ACAD_PLOTSTYLENAME
350
2C
  3
ACAD_TABLESTYLE
350
2F
  3
ACDBHEADERROUNDTRIPXREC
350
1EB
  3
ACDBVARIABLEDICTIONARY
350
137
  0
DICTIONARY
  5
12
330
11
100
AcDbDictionary
280
     1
  3
ACAD_LAYERFILTERS
360
13
  3
ACLYDICTIONARY
360
14
  0
DICTIONARY
  5
3
330
2
100
AcDbDictionary
280
     1
  3
ACAD_LAYOUTSELFREF
360
20C
  3
ACAD_SORTENTS
360
132
  0
DICTIONARY
  5
1A1
330
D
100
AcDbDictionary
280
     1
  3
ACAD_LAYOUTSELFREF
360
20D
  0
DICTIONARY
  5
2E
102
{ACAD_REACTORS
330
C
102
}
330
C
100
AcDbDictionary
  0
DICTIONARY
  5
29
102
{ACAD_REACTORS
330
C
102
}
330
C
100
AcDbDictionary
  0
DICTIONARY
  5
B
102
{ACAD_REACTORS
330
C
102
}
330
C
100
AcDbDictionary
  0
DICTIONARY
  5
2D
102
{ACAD_REACTORS
330
C
102
}
330
C
100
AcDbDictionary
  0
DICTIONARY
  5
2A
102
{ACAD_REACTORS
330
C
102
}
330
C
100
AcDbDictionary
  3
STANDARD
350
30
  0
DICTIONARY
  5
2B
102
{ACAD_REACTORS
330
C
102
}
330
C
100
AcDbDictionary
  0
ACDBDICTIONARYWDFLT
  5
2C
102
{ACAD_REACTORS
330
C
102
}
330
C
100
AcDbDictionary
281
     1
  3
Normal
350
7
100
AcDbDictionaryWithDefault
340
7
  0
DICTIONARY
  5
2F
102
{ACAD_REACTORS
330
C
102
}
330
C
100
AcDbDictionary
  3
STANDARD
350
31
  0
DICTIONARY
  5
1EB
102
{ACAD_REACTORS
330
C
102
}
330
C
100
AcDbDictionary
  3
CEPSNTYPE
350
1F5
  3
DIMSTYLEDATA
350
1F9
  3
FINGERPRINTGUID
350
1F6
  3
HYPERLINKBASE
350
1EE
  3
INSUNITS
350
1F4
  3
LAYOUTDICT
350
1F0
  3
LWETCUNION
350
1F3
  3
PLOTSETDICT
350
1F1
  3
PLOTSTYLNAMDICT
350
1F2
  3
PSVPSCALE
350
1F8
  3
PUCSBASE
350
1FC
  3
PUCSORGBACK
350
202
  3
PUCSORGBOTTOM
350
1FE
  3
PUCSORGFRONT
350
201
  3
PUCSORGLEFT
350
1FF
  3
PUCSORGRIGHT
350
200
  3
PUCSORGTOP
350
1FD
  3
PUCSORTHOREF
350
1FA
  3
PUCSORTHOVIEW
350
1FB
  3
STYLESHEET
350
1EF
  3
TSTACKALIGN
350
1EC
  3
TSTACKSIZE
350
1ED
  3
UCSBASE
350
205
  3
UCSORGBACK
350
20B
  3
UCSORGBOTTOM
350
207
  3
UCSORGFRONT
350
20A
  3
UCSORGLEFT
350
208
  3
UCSORGRIGHT
350
209
  3
UCSORGTOP
350
206
  3
UCSORTHOREF
350
203
  3
UCSORTHOVIEW
350
204
  3
VERSIONGUID
350
1F7
  0
DICTIONARY
  5
137
102
{ACAD_REACTORS
330
C
102
}
330
C
100
AcDbDictionary
  3
CTABLESTYLE
350
138
  3
DIMASSOC
350
15C
  3
HIDETEXT
350
15B
  3
PROJECTNAME
350
15D
  0
DICTIONARY
  5
13
102
{ACAD_REACTORS
330
12
102
}
330
12
100
AcDbDictionary
  0
DICTIONARY
  5
14
102
{ACAD_REACTORS
330
12
102
}
330
12
100
AcDbDictionary
1001
ACAD
1000
<All
  0
XRECORD
  5
20C
102
{ACAD_REACTORS
330
3
102
}
330
3
100
AcDbXrecord
340
2
  0
SORTENTSTABLE
  5
132
102
{ACAD_REACTORS
330
3
102
}
330
3
100
AcDbSortentsTable
330
2
  0
XRECORD
  5
20D
102
{ACAD_REACTORS
330
1A1
102
}
330
1A1
100
AcDbXrecord
340
D
  0
MLINESTYLE
  5
30
102
{ACAD_REACTORS
330
2A
102
}
330
2A
100
AcDbMlineStyle
  2
STANDARD
 70
     0
  3

 62
   256
 51
90.0
 52
90.0
 71
     2
 49
0.5
 62
   256
  6
BYLAYER
 49
-0.5
 62
   256
  6
BYLAYER
  0
ACDBPLACEHOLDER
  5
7
102
{ACAD_REACTORS
330
2C
102
}
330
0
100
AcDbPlaceHolder
280
     0
  0
ACAD_PROXY_OBJECT
  5
31
102
{ACAD_REACTORS
330
2F
102
}
330
2F
100
AcDbProxyObject
 90
      499
 91
      525
 93
     1841
310
4214DD185B99185C9928B81E85EB51B8AE3F2E07A17AD46E2B8FC02B5E8DC0F42B1CFD028000000C1008070000C3001FDFF8000000C1003FBFF000000182007F7FE00000030400FEFFC00000060801FDFF8000000C1003FBFF00000018200000000000000681FA0B0000001820100E000186003FBFF000000182007F7FE000
310
00030400FEFFC00000060801FDFF8000000C1003FBFF000000182007F7FE000000304000AD7A3703D0AC73F4160000003040201C00030C007F7FE00000030400FEFFC00000060801FDFF8000000C1003FBFF000000182007F7FE00000030400FEFFC000000608018
340
17
340
17
340
17
 94
        0
1001
ACAD
1000
AcadProxyRoundTripData
1071
      524
1071
   851991
1070
     0
  0
XRECORD
  5
1F5
102
{ACAD_REACTORS
330
1EB
102
}
330
1EB
100
AcDbXrecord
 90
        0
  0
XRECORD
  5
1F9
102
{ACAD_REACTORS
330
1EB
102
}
330
1EB
100
AcDbXrecord
1000
DSTYLE
1002
{
1070
   341
340
23
1070
   342
340
23
1002
}
  0
XRECORD
  5
1F6
102
{ACAD_REACTORS
330
1EB
102
}
330
1EB
100
AcDbXrecord
  1
{8BB2600B-64B6-4F8D-9E73-1CD359E8D653}
  0
XRECORD
  5
1EE
102
{ACAD_REACTORS
330
1EB
102
}
330
1EB
100
AcDbXrecord
  1

  0
XRECORD
  5
1F4
102
{ACAD_REACTORS
330
1EB
102
}
330
1EB
100
AcDbXrecord
 90
        1
  0
XRECORD
  5
1F0
102
{ACAD_REACTORS
330
1EB
102
}
330
1EB
100
AcDbXrecord
340
B
  0
XRECORD
  5
1F3
102
{ACAD_REACTORS
330
1EB
102
}
330
1EB
100
AcDbXrecord
 90
    10781
  0
XRECORD
  5
1F1
102
{ACAD_REACTORS
330
1EB
102
}
330
1EB
100
AcDbXrecord
340
2B
  0
XRECORD
  5
1F2
102
{ACAD_REACTORS
330
1EB
102
}
330
1EB
100
AcDbXrecord
340
2C
  0
XRECORD
  5
1F8
102
{ACAD_REACTORS
330
1EB
102
}
330
1EB
100
AcDbXrecord
 40
0.0
  0
XRECORD
  5
1FC
102
{ACAD_REACTORS
330
1EB
102
}
330
1EB
100
AcDbXrecord
340
0
  0
XRECORD
  5
202
102
{ACAD_REACTORS
330
1EB
102
}
330
1EB
100
AcDbXrecord
 10
0.0
 20
0.0
 30
0.0
  0
XRECORD
  5
1FE
102
{ACAD_REACTORS
330
1EB
102
}
330
1EB
100
AcDbXrecord
 10
0.0
 20
0.0
 30
0.0
  0
XRECORD
  5
201
102
{ACAD_REACTORS
330
1EB
102
}
330
1EB
100
AcDbXrecord
 10
0.0
 20
0.0
 30
0.0
  0
XRECORD
  5
1FF
102
{ACAD_REACTORS
330
1EB
102
}
330
1EB
100
AcDbXrecord
 10
0.0
 20
0.0
 30
0.0
  0
XRECORD
  5
200
102
{ACAD_REACTORS
330
1EB
102
}
330
1EB
100
AcDbXrecord
 10
0.0
 20
0.0
 30
0.0
  0
XRECORD
  5
1FD
102
{ACAD_REACTORS
330
1EB
102
}
330
1EB
100
AcDbXrecord
 10
0.0
 20
0.0
 30
0.0
  0
XRECORD
  5
1FA
102
{ACAD_REACTORS
330
1EB
102
}
330
1EB
100
AcDbXrecord
340
0
  0
XRECORD
  5
1FB
102
{ACAD_REACTORS
330
1EB
102
}
330
1EB
100
AcDbXrecord
 70
     0
  0
XRECORD
  5
1EF
102
{ACAD_REACTORS
330
1EB
102
}
330
1EB
100
AcDbXrecord
  1

  0
XRECORD
  5
1EC
102
{ACAD_REACTORS
330
1EB
102
}
330
1EB
100
AcDbXrecord
 90
        1
  0
XRECORD
  5
1ED
102
{ACAD_REACTORS
330
1EB
102
}
330
1EB
100
AcDbXrecord
 90
       70
  0
XRECORD
  5
205
102
{ACAD_REACTORS
330
1EB
102
}
330
1EB
100
AcDbXrecord
340
0
  0
XRECORD
  5
20B
102
{ACAD_REACTORS
330
1EB
102
}
330
1EB
100
AcDbXrecord
 10
0.0
 20
0.0
 30
0.0
  0
XRECORD
  5
207
102
{ACAD_REACTORS
330
1EB
102
}
330
1EB
100
AcDbXrecord
 10
0.0
 20
0.0
 30
0.0
  0
XRECORD
  5
20A
102
{ACAD_REACTORS
330
1EB
102
}
330
1EB
100
AcDbXrecord
 10
0.0
 20
0.0
 30
0.0
  0
XRECORD
  5
208
102
{ACAD_REACTORS
330
1EB
102
}
330
1EB
100
AcDbXrecord
 10
0.0
 20
0.0
 30
0.0
  0
XRECORD
  5
209
102
{ACAD_REACTORS
330
1EB
102
}
330
1EB
100
AcDbXrecord
 10
0.0
 20
0.0
 30
0.0
  0
XRECORD
  5
206
102
{ACAD_REACTORS
330
1EB
102
}
330
1EB
100
AcDbXrecord
 10
0.0
 20
0.0
 30
0.0
  0
XRECORD
  5
203
102
{ACAD_REACTORS
330
1EB
102
}
330
1EB
100
AcDbXrecord
340
0
  0
XRECORD
  5
204
102
{ACAD_REACTORS
330
1EB
102
}
330
1EB
100
AcDbXrecord
 70
     0
  0
XRECORD
  5
1F7
102
{ACAD_REACTORS
330
1EB
102
}
330
1EB
100
AcDbXrecord
  1
{FD95CF11-1433-4604-9814-2DB931794D3B}
  0
DICTIONARYVAR
  5
138
102
{ACAD_REACTORS
330
137
102
}
330
137
100
DictionaryVariables
280
     0
  1
STANDARD
  0
DICTIONARYVAR
  5
15C
102
{ACAD_REACTORS
330
137
102
}
330
137
100
DictionaryVariables
280
     0
  1
1
  0
DICTIONARYVAR
  5
15B
102
{ACAD_REACTORS
330
137
102
}
330
137
100
DictionaryVariables
280
     0
  1
1
  0
DICTIONARYVAR
  5
15D
102
{ACAD_REACTORS
330
137
102
}
330
137
100
DictionaryVariables
280
     0
  1

  0
ENDSEC
  0
EOF
