  0
SECTION
  2
HEADER
  9
$ACADVER
  1
AC1014
  9
$ACADMAINTVER
 70
     9
  9
$DWGCODEPAGE
  3
ANSI_1252
  9
$INSBASE
 10
196.8450197458572
 20
-46.52027818909873
 30
0.0
  9
$EXTMIN
 10
183.3350817626026
 20
-49.84953549140968
 30
-0.0015258207003583
  9
$EXTMAX
 10
225.3538123740302
 20
-24.38182577008751
 30
0.0000000349246037
  9
$LIMMIN
 10
0.0
 20
0.0
  9
$LIMMAX
 10
17.0
 20
11.0
  9
$ORTHOMODE
 70
     1
  9
$REGENMODE
 70
     1
  9
$FILLMODE
 70
     1
  9
$QTEXTMODE
 70
     0
  9
$MIRRTEXT
 70
     1
  9
$DRAGMODE
 70
     2
  9
$LTSCALE
 40
2.0
  9
$OSMODE
 70
    55
  9
$ATTMODE
 70
     1
  9
$TEXTSIZE
 40
0.2
  9
$TRACEWID
 40
0.05
  9
$TEXTSTYLE
  7
STANDARD
  9
$CLAYER
  8
0
  9
$CELTYPE
  6
BYLAYER
  9
$CECOLOR
 62
   256
  9
$CELTSCALE
 40
1.0
  9
$DELOBJ
 70
     1
  9
$DISPSILH
 70
     0
  9
$DIMSCALE
 40
16.0
  9
$DIMASZ
 40
0.1875
  9
$DIMEXO
 40
0.0625
  9
$DIMDLI
 40
0.38
  9
$DIMRND
 40
0.0
  9
$DIMDLE
 40
0.0
  9
$DIMEXE
 40
0.18
  9
$DIMTP
 40
0.0
  9
$DIMTM
 40
0.0
  9
$DIMTXT
 40
0.125
  9
$DIMCEN
 40
0.09
  9
$DIMTSZ
 40
0.0
  9
$DIMTOL
 70
     0
  9
$DIMLIM
 70
     0
  9
$DIMTIH
 70
     1
  9
$DIMTOH
 70
     1
  9
$DIMSE1
 70
     0
  9
$DIMSE2
 70
     0
  9
$DIMTAD
 70
     0
  9
$DIMZIN
 70
     4
  9
$DIMBLK
  1
_FILLED
  9
$DIMASO
 70
     1
  9
$DIMSHO
 70
     1
  9
$DIMPOST
  1

  9
$DIMAPOST
  1

  9
$DIMALT
 70
     0
  9
$DIMALTD
 70
     2
  9
$DIMALTF
 40
25.4
  9
$DIMLFAC
 40
1.0
  9
$DIMTOFL
 70
     0
  9
$DIMTVP
 40
0.0
  9
$DIMTIX
 70
     0
  9
$DIMSOXD
 70
     0
  9
$DIMSAH
 70
     0
  9
$DIMBLK1
  1

  9
$DIMBLK2
  1

  9
$DIMSTYLE
  2
STANDARD
  9
$DIMCLRD
 70
     0
  9
$DIMCLRE
 70
     0
  9
$DIMCLRT
 70
     0
  9
$DIMTFAC
 40
1.0
  9
$DIMGAP
 40
0.09
  9
$DIMJUST
 70
     0
  9
$DIMSD1
 70
     0
  9
$DIMSD2
 70
     0
  9
$DIMTOLJ
 70
     1
  9
$DIMTZIN
 70
     4
  9
$DIMALTZ
 70
     0
  9
$DIMALTTZ
 70
     0
  9
$DIMFIT
 70
     3
  9
$DIMUPT
 70
     0
  9
$DIMUNIT
 70
     2
  9
$DIMDEC
 70
     3
  9
$DIMTDEC
 70
     3
  9
$DIMALTU
 70
     2
  9
$DIMALTTD
 70
     2
  9
$DIMTXSTY
  7
STANDARD
  9
$DIMAUNIT
 70
     0
  9
$LUNITS
 70
     2
  9
$LUPREC
 70
     4
  9
$SKETCHINC
 40
0.1
  9
$FILLETRAD
 40
0.0
  9
$AUNITS
 70
     0
  9
$AUPREC
 70
     0
  9
$MENU
  1
acad
  9
$ELEVATION
 40
0.0
  9
$PELEVATION
 40
0.0
  9
$THICKNESS
 40
0.0
  9
$LIMCHECK
 70
     0
  9
$BLIPMODE
 70
     0
  9
$CHAMFERA
 40
0.0
  9
$CHAMFERB
 40
0.0
  9
$CHAMFERC
 40
0.0
  9
$CHAMFERD
 40
0.0
  9
$SKPOLY
 70
     0
  9
$TDCREATE
 40
2453681.610012523
  9
$TDUPDATE
 40
2453685.497490393
  9
$TDINDWG
 40
0.0538690162
  9
$TDUSRTIMER
 40
0.0538690162
  9
$USRTIMER
 70
     1
  9
$ANGBASE
 50
0.0
  9
$ANGDIR
 70
     0
  9
$PDMODE
 70
     3
  9
$PDSIZE
 40
0.3125
  9
$PLINEWID
 40
0.0
  9
$COORDS
 70
     1
  9
$SPLFRAME
 70
     0
  9
$SPLINETYPE
 70
     6
  9
$SPLINESEGS
 70
     8
  9
$ATTDIA
 70
     0
  9
$ATTREQ
 70
     1
  9
$HANDLING
 70
 22529
  9
$HANDSEED
  5
291
  9
$SURFTAB1
 70
     6
  9
$SURFTAB2
 70
     6
  9
$SURFTYPE
 70
     6
  9
$SURFU
 70
     6
  9
$SURFV
 70
     6
  9
$UCSNAME
  2

  9
$UCSORG
 10
0.0
 20
0.0
 30
0.0
  9
$UCSXDIR
 10
1.0
 20
0.0
 30
0.0
  9
$UCSYDIR
 10
0.0
 20
1.0
 30
0.0
  9
$PUCSNAME
  2

  9
$PUCSORG
 10
0.0
 20
0.0
 30
0.0
  9
$PUCSXDIR
 10
1.0
 20
0.0
 30
0.0
  9
$PUCSYDIR
 10
0.0
 20
1.0
 30
0.0
  9
$USERI1
 70
     0
  9
$USERI2
 70
     0
  9
$USERI3
 70
     0
  9
$USERI4
 70
     0
  9
$USERI5
 70
     0
  9
$USERR1
 40
0.0
  9
$USERR2
 40
0.0
  9
$USERR3
 40
0.0
  9
$USERR4
 40
0.0
  9
$USERR5
 40
0.0
  9
$WORLDVIEW
 70
     1
  9
$SHADEDGE
 70
     3
  9
$SHADEDIF
 70
    70
  9
$TILEMODE
 70
     1
  9
$MAXACTVP
 70
    16
  9
$PINSBASE
 10
0.0
 20
0.0
 30
0.0
  9
$PLIMCHECK
 70
     0
  9
$PEXTMIN
 10
1.000000000000000E+20
 20
1.000000000000000E+20
 30
1.000000000000000E+20
  9
$PEXTMAX
 10
-1.000000000000000E+20
 20
-1.000000000000000E+20
 30
-1.000000000000000E+20
  9
$PLIMMIN
 10
0.0
 20
0.0
  9
$PLIMMAX
 10
12.0
 20
9.0
  9
$UNITMODE
 70
     0
  9
$VISRETAIN
 70
     0
  9
$PLINEGEN
 70
     1
  9
$PSLTSCALE
 70
     0
  9
$TREEDEPTH
 70
  3020
  9
$PICKSTYLE
 70
     1
  9
$CMLSTYLE
  2
STANDARD
  9
$CMLJUST
 70
     0
  9
$CMLSCALE
 40
1.0
  9
$PROXYGRAPHICS
 70
     0
  9
$MEASUREMENT
 70
     0
  0
ENDSEC
  0
SECTION
  2
CLASSES
  0
CLASS
  1
ACDBDICTIONARYWDFLT
  2
AcDbDictionaryWithDefault
  3
AutoCAD 2000
 90
        0
280
     0
281
     0
  0
CLASS
  1
ACDBPLACEHOLDER
  2
AcDbPlaceHolder
  3
AutoCAD 2000
 90
        0
280
     0
281
     0
  0
CLASS
  1
LAYOUT
  2
AcDbLayout
  3
AutoCAD 2000
 90
        0
280
     0
281
     0
  0
CLASS
  1
LWPOLYLINE
  2
AcDbPolyline
  3
AutoCAD 2000
 90
        0
280
     0
281
     1
  0
CLASS
  1
IMAGE
  2
AcDbRasterImage
  3
ISM
 90
      127
280
     0
281
     1
  0
CLASS
  1
OLE2FRAME
  2
AcDbOle2Frame
  3
AutoCAD 2000
 90
        0
280
     0
281
     1
  0
CLASS
  1
HATCH
  2
AcDbHatch
  3
AutoCAD 2000
 90
        0
280
     0
281
     1
  0
CLASS
  1
DICTIONARYVAR
  2
AcDbDictionaryVar
  3
AutoCAD 2000
 90
        0
280
     0
281
     0
  0
CLASS
  1
RASTERVARIABLES
  2
AcDbRasterVariables
  3
ISM
 90
        0
280
     0
281
     0
  0
CLASS
  1
IMAGEDEF
  2
AcDbRasterImageDef
  3
ISM
 90
        0
280
     0
281
     0
  0
CLASS
  1
IMAGEDEF_REACTOR
  2
AcDbRasterImageDefReactor
  3
ISM
 90
        1
280
     0
281
     0
  0
CLASS
  1
IDBUFFER
  2
AcDbIdBuffer
  3
AutoCAD 2000
 90
        0
280
     0
281
     0
  0
CLASS
  1
SPATIAL_FILTER
  2
AcDbSpatialFilter
  3
AutoCAD 2000
 90
        0
280
     0
281
     0
  0
CLASS
  1
XRECORD
  2
AcDbXrecord
  3
AutoCAD 2000
 90
        0
280
     0
281
     0
  0
CLASS
  1
SORTENTSTABLE
  2
AcDbSortentsTable
  3
AutoCAD 2000
 90
        0
280
     0
281
     0
  0
CLASS
  1
LAYER_INDEX
  2
AcDbLayerIndex
  3
AutoCAD 2000
 90
        0
280
     0
281
     0
  0
CLASS
  1
SPATIAL_INDEX
  2
AcDbSpatialIndex
  3
AutoCAD 2000
 90
        0
280
     0
281
     0
  0
CLASS
  1
OBJECT_PTR
  2
CAseDLPNTableRecord
  3
ASE-LPNTableRecord
 90
        1
280
     0
281
     0
  0
CLASS
  1
PLOTSETTINGS
  2
AcDbPlotSettings
  3
AutoCAD 2000
 90
        0
280
     0
281
     0
  0
CLASS
  1
VBA_PROJECT
  2
AcDbVbaProject
  3
acadvba
 90
        0
280
     0
281
     0
  0
CLASS
  1
WIPEOUT
  2
AcDbWipeout
  3
WipeOut|AutoCAD Express Tool|expresstools@autodesk.com
 90
      127
280
     1
281
     1
  0
CLASS
  1
WIPEOUTVARIABLES
  2
AcDbWipeoutVariables
  3
WipeOut|AutoCAD Express Tool|expresstools@autodesk.com
 90
        0
280
     1
281
     0
  0
CLASS
  1
RTEXT
  2
RText
  3
RText|AutoCAD Express Tool|expresstools@autodesk.com
 90
        0
280
     1
281
     1
  0
CLASS
  1
ARCALIGNEDTEXT
  2
AcDbArcAlignedText
  3
ATEXT|AutoCAD Express Tool|expresstools@autodesk.com
 90
        0
280
     1
281
     1
  0
CLASS
  1
LONG_TRANSACTION
  2
AcDbLongTransaction
  3
AutoCAD 2000
 90
        0
280
     0
281
     0
  0
CLASS
  1
LWPOLYLINE
  2
AcDbPolyline
  3
AutoCAD 2000
 90
        0
280
     0
281
     1
  0
CLASS
  1
HATCH
  2
AcDbHatch
  3
AutoCAD 2000
 90
        0
280
     0
281
     1
  0
CLASS
  1
XRECORD
  2
AcDbXrecord
  3
AutoCAD 2000
 90
        0
280
     0
281
     0
  0
CLASS
  1
LONG_TRANSACTION
  2
AcDbLongTransaction
  3
AutoCAD 2000
 90
        0
280
     0
281
     0
  0
CLASS
  1
LWPOLYLINE
  2
AcDbPolyline
  3
AutoCAD 2000
 90
        0
280
     0
281
     1
  0
CLASS
  1
HATCH
  2
AcDbHatch
  3
AutoCAD 2000
 90
        0
280
     0
281
     1
  0
CLASS
  1
XRECORD
  2
AcDbXrecord
  3
AutoCAD 2000
 90
        0
280
     0
281
     0
  0
ENDSEC
  0
SECTION
  2
TABLES
  0
TABLE
  2
VPORT
  5
18
330
0
100
AcDbSymbolTable
 70
     3
  0
VPORT
  5
26D
330
18
100
AcDbSymbolTableRecord
100
AcDbViewportTableRecord
  2
*ACTIVE
 70
     0
 10
0.0
 20
0.0
 11
1.0
 21
1.0
 12
204.344446932111
 22
-37.11568062646217
 13
0.0
 23
0.0
 14
1.0
 24
1.0
 15
0.0
 25
0.0
 16
0.0
 26
0.0
 36
1.0
 17
0.0
 27
0.0
 37
0.0
 40
30.13391208948174
 41
1.786792452830188
 42
50.0
 43
0.0
 44
0.0
 50
0.0
 51
0.0
 71
     0
 72
   100
 73
     1
 74
     1
 75
     0
 76
     0
 77
     0
 78
     0
  0
ENDTAB
  0
TABLE
  2
LTYPE
  5
13
330
0
100
AcDbSymbolTable
 70
     3
  0
LTYPE
  5
14
330
13
100
AcDbSymbolTableRecord
100
AcDbLinetypeTableRecord
  2
BYBLOCK
 70
     0
  3

 72
    65
 73
     0
 40
0.0
  0
LTYPE
  5
15
330
13
100
AcDbSymbolTableRecord
100
AcDbLinetypeTableRecord
  2
BYLAYER
 70
     0
  3

 72
    65
 73
     0
 40
0.0
  0
LTYPE
  5
6
330
13
100
AcDbSymbolTableRecord
100
AcDbLinetypeTableRecord
  2
CONTINUOUS
 70
     0
  3
Solid line
 72
    65
 73
     0
 40
0.0
  0
LTYPE
  5
2F
330
13
100
AcDbSymbolTableRecord
100
AcDbLinetypeTableRecord
  2
CENTER
 70
     0
  3
____ _ ____ _ ____ _ ____ _ ____ _ ____ _ ____
 72
    65
 73
     4
 40
0.6
 49
0.375
 74
     0
 49
-0.075
 74
     0
 49
0.075
 74
     0
 49
-0.075
 74
     0
  0
LTYPE
  5
29
330
13
100
AcDbSymbolTableRecord
100
AcDbLinetypeTableRecord
  2
HIDDEN
 70
     0
  3
- - - - - - - - - - - - - - - - - - - -
 72
    65
 73
     2
 40
0.2
 49
0.1
 74
     0
 49
-0.1
 74
     0
  0
ENDTAB
  0
TABLE
  2
LAYER
  5
F
330
0
100
AcDbSymbolTable
 70
     2
  0
LAYER
  5
4
330
F
100
AcDbSymbolTableRecord
100
AcDbLayerTableRecord
  2
0
 70
     0
 62
     7
  6
CONTINUOUS
  0
LAYER
  5
2E
330
F
100
AcDbSymbolTableRecord
100
AcDbLayerTableRecord
  2
CENTER
 70
     0
 62
     1
  6
CENTER
  0
ENDTAB
  0
TABLE
  2
STYLE
  5
10
330
0
100
AcDbSymbolTable
 70
     1
  0
STYLE
  5
11
330
10
100
AcDbSymbolTableRecord
100
AcDbTextStyleTableRecord
  2
STANDARD
 70
     0
 40
0.0
 41
0.8
 50
0.0
 71
     0
 42
0.2
  3
txt
  4

  0
ENDTAB
  0
TABLE
  2
VIEW
  5
16
330
0
100
AcDbSymbolTable
 70
     0
  0
ENDTAB
  0
TABLE
  2
UCS
  5
17
330
0
100
AcDbSymbolTable
 70
     0
  0
ENDTAB
  0
TABLE
  2
APPID
  5
1A
330
0
100
AcDbSymbolTable
 70
     1
  0
APPID
  5
1B
330
1A
100
AcDbSymbolTableRecord
100
AcDbRegAppTableRecord
  2
ACAD
 70
     0
  0
ENDTAB
  0
TABLE
  2
DIMSTYLE
  5
1C
330
0
100
AcDbSymbolTable
 70
     1
  0
DIMSTYLE
105
1D
330
1C
100
AcDbSymbolTableRecord
100
AcDbDimStyleTableRecord
  2
STANDARD
 70
     0
  3

  4

  5
_FILLED
  6

  7

 40
16.0
 41
0.1875
 42
0.0625
 43
0.38
 44
0.18
 45
0.0
 46
0.0
 47
0.0
 48
0.0
140
0.125
141
0.09
142
0.0
143
25.4
144
1.0
145
0.0
146
1.0
147
0.09
 71
     0
 72
     0
 73
     1
 74
     1
 75
     0
 76
     0
 77
     0
 78
     4
170
     0
171
     2
172
     0
173
     0
174
     0
175
     0
176
     0
177
     0
178
     0
270
     2
271
     3
272
     3
273
     2
274
     2
340
11
275
     0
280
     0
281
     0
282
     0
283
     1
284
     4
285
     0
286
     0
287
     3
288
     0
  0
ENDTAB
  0
TABLE
  2
BLOCK_RECORD
  5
1
330
0
100
AcDbSymbolTable
 70
     1
  0
BLOCK_RECORD
  5
2
102
{ACAD_XDICTIONARY
360
228
102
}
330
1
100
AcDbSymbolTableRecord
100
AcDbBlockTableRecord
  2
*MODEL_SPACE
  0
BLOCK_RECORD
  5
B
102
{ACAD_XDICTIONARY
360
22E
102
}
330
1
100
AcDbSymbolTableRecord
100
AcDbBlockTableRecord
  2
*PAPER_SPACE
  0
BLOCK_RECORD
  5
1E
330
1
100
AcDbSymbolTableRecord
100
AcDbBlockTableRecord
  2
_FILLED
  0
ENDTAB
  0
ENDSEC
  0
SECTION
  2
BLOCKS
  0
BLOCK
  5
3
330
2
100
AcDbEntity
  8
0
100
AcDbBlockBegin
  2
*MODEL_SPACE
 70
     0
 10
0.0
 20
0.0
 30
0.0
  3
*MODEL_SPACE
  1

  0
ENDBLK
  5
7
330
2
100
AcDbEntity
  8
0
100
AcDbBlockEnd
  0
BLOCK
  5
C
330
B
100
AcDbEntity
 67
     1
  8
0
100
AcDbBlockBegin
  2
*PAPER_SPACE
 70
     0
 10
0.0
 20
0.0
 30
0.0
  3
*PAPER_SPACE
  1

  0
ENDBLK
  5
D
330
B
100
AcDbEntity
 67
     1
  8
0
100
AcDbBlockEnd
  0
BLOCK
  5
20
330
1E
100
AcDbEntity
  8
0
100
AcDbBlockBegin
  2
_FILLED
 70
     0
 10
0.0
 20
0.0
 30
0.0
  3
_FILLED
  1

  0
SOLID
  5
1F
330
1E
100
AcDbEntity
  8
0
  6
BYBLOCK
 62
     0
100
AcDbTrace
 10
0.0
 20
0.0
 30
0.0
 11
-1.0
 21
0.1666666667
 31
0.0
 12
-1.0
 22
-0.1666666667
 32
0.0
 13
-1.0
 23
-0.1666666667
 33
0.0
  0
ENDBLK
  5
21
330
1E
100
AcDbEntity
  8
0
  6
BYBLOCK
 62
     0
100
AcDbBlockEnd
  0
ENDSEC
  0
SECTION
  2
ENTITIES
  0
LWPOLYLINE
  5
28
330
2
100
AcDbEntity
  8
0
  6
HIDDEN
100
AcDbPolyline
 90
       85
 70
     0
 43
0.0
 10
188.7444296994572
 20
-29.24660134109872
 10
188.7636960674572
 20
-29.44309403709872
 10
188.7852416018572
 20
-29.66530819069872
 10
188.8090193394572
 20
-29.91773919229872
 10
188.8344414642572
 20
-30.20118334909872
 10
188.8593202322572
 20
-30.50162820829872
 10
188.8800757858572
 20
-30.78496548509873
 10
188.8957826722572
 20
-31.03641665789872
 10
188.9087923778572
 20
-31.25974342269872
 10
188.9213108818572
 20
-31.45911000829872
 10
188.9347981986572
 20
-31.63696996669873
 10
188.9504386290572
 20
-31.79535876029872
 10
188.9691968098572
 20
-31.93604541789872
 10
188.9918403794572
 20
-32.06034756829873
 10
189.0187731874572
 20
-32.16882680029872
 10
189.0497391778572
 20
-32.26214249629872
 10
189.0838946418572
 20
-32.34093237629872
 10
189.1204563506572
 20
-32.40695061789873
 10
189.1594937554572
 20
-32.46313000029872
 10
189.2016227714572
 20
-32.51199223869872
 10
189.2475400562572
 20
-32.55510244829872
 10
189.2985795890572
 20
-32.59373897789873
 10
189.3572951778572
 20
-32.62920057149873
 10
189.4269873218572
 20
-32.66221172029872
 10
189.5099677298572
 20
-32.69238984669872
 10
189.6070934802572
 20
-32.71896972349873
 10
189.7187863058572
 20
-32.74159483389873
 10
189.8457634450572
 20
-32.76048647069873
 10
189.9889707778572
 20
-32.77612916029873
 10
190.1499892258572
 20
-32.78895236989873
 10
190.3305180242572
 20
-32.79936022109873
 10
190.5323732370572
 20
-32.80788163709872
 10
190.7576733522572
 20
-32.81526387069872
 10
190.9914050306572
 20
-32.82223948029872
 10
191.2060937266572
 20
-32.82957356189872
 10
191.3942170514572
 20
-32.83805554269872
 10
191.5614208290572
 20
-32.84838342269872
 10
191.7109410226572
 20
-32.86108745629872
 10
191.8445675858572
 20
-32.87664215389872
 10
191.9634880754572
 20
-32.89554081469872
 10
192.0679877570572
 20
-32.91823088989873
 10
192.1583910466572
 20
-32.94487783389873
 10
192.2351566466572
 20
-32.97502603229872
 10
192.3001193874572
 20
-33.00817759709873
 10
192.3564220962572
 20
-33.04464187549872
 10
192.4070861602572
 20
-33.08558158749873
 10
192.4537003954572
 20
-33.13205602909873
 10
192.4965565570572
 20
-33.18464525149873
 10
192.5357667778572
 20
-33.24430524829873
 10
192.5715906082572
 20
-33.31288192989873
 10
192.6039950082572
 20
-33.39294106109872
 10
192.6323564658572
 20
-33.48725211069872
 10
192.6553930658572
 20
-33.59763902589873
 10
192.6724070978572
 20
-33.72456861149872
 10
192.6847988146572
 20
-33.86791000189873
 10
192.6947320306572
 20
-34.02872201309873
 10
192.7049254722572
 20
-34.20875037309873
 10
192.7174683826572
 20
-34.41030221629872
 10
192.7328827666572
 20
-34.63627352669873
 10
192.7516252578572
 20
-34.88975940349873
 10
192.7742199106572
 20
-35.17416263229872
 10
192.8011462466572
 20
-35.49291132829872
 10
192.8327982658572
 20
-35.84903825629872
 10
192.8694018994572
 20
-36.24419265309873
 10
192.9111937650572
 20
-36.68102922109872
 10
192.9577077186572
 20
-37.15628012189872
 10
193.0037422098572
 20
-37.62228731869872
 10
193.0461516082572
 20
-37.94231043869873
 10
193.0884395714572
 20
-38.38148471709873
 10
193.1342517154572
 20
-38.86902716989872
 10
193.1819594082572
 20
-39.39271822269873
 10
193.2261562194572
 20
-39.89334839709872
 10
193.2641418674572
 20
-40.33388664829873
 10
193.2974805650572
 20
-40.72604333149873
 10
193.3284899666572
 20
-41.09347748669873
 10
193.3585975138572
 20
-41.45123961309873
 10
193.3885874482572
 20
-41.80764246269872
 10
193.4188969682572
 20
-42.16725908829872
 10
193.4498947090572
 20
-42.53399662109873
 10
193.4818640914572
 20
-42.91087663069872
 10
193.5148951858572
 20
-43.29872849949873
 10
193.5489545538572
 20
-43.69700632349873
 10
193.5841837410572
 20
-44.10723849789873
 10
193.6209066530572
 20
-44.53306280509873
 10
193.6595018178572
 20
-44.97872555389873
  0
LWPOLYLINE
  5
2A
330
2
100
AcDbEntity
  8
0
100
AcDbPolyline
 90
      112
 70
     0
 43
0.0
 10
217.2550468370572
 20
-35.07071728349873
 10
217.3009490834572
 20
-35.05353812509872
 10
217.3469219186572
 20
-35.03624177469873
 10
217.3929178274572
 20
-35.01883507069873
 10
217.4389011426572
 20
-35.00132052509872
 10
217.4848420370572
 20
-34.98369858589873
 10
217.5307111938572
 20
-34.96596965309872
 10
217.5764797810572
 20
-34.94813412189872
 10
217.6221194562572
 20
-34.93019240189873
 10
217.6676023938572
 20
-34.91214491869873
 10
217.7129013122572
 20
-34.89399213629873
 10
217.7579894994572
 20
-34.87573455389873
 10
217.8028408418572
 20
-34.85737270909872
 10
217.8474298562572
 20
-34.83890717629872
 10
217.8917304722572
 20
-34.82033912029872
 10
217.9357167714572
 20
-34.80167015229872
 10
217.9793663154572
 20
-34.78290088669872
 10
218.0226582434572
 20
-34.76403164829872
 10
218.0655784866572
 20
-34.74506013629872
 10
218.1081210498572
 20
-34.72598065309873
 10
218.1502926370572
 20
-34.70678184829872
 10
218.1920823634572
 20
-34.68746029149873
 10
218.2334778802572
 20
-34.66801332029872
 10
218.2744673826572
 20
-34.64843812509872
 10
218.3150396194572
 20
-34.62873172669872
 10
218.3551839026572
 20
-34.60889094749873
 10
218.3948898290572
 20
-34.58891252189872
 10
218.4341314898572
 20
-34.56880163709873
 10
218.4728912818572
 20
-34.54856085149872
 10
218.5111617778572
 20
-34.52818806429872
 10
218.5489359506572
 20
-34.50768123229873
 10
218.5862071522572
 20
-34.48703839389873
 10
218.6229690898572
 20
-34.46625767709872
 10
218.6592157970572
 20
-34.44533731709872
 10
218.6949416114572
 20
-34.42427567389872
 10
218.7301411458572
 20
-34.40307125469873
 10
218.7648185234572
 20
-34.38171697309872
 10
218.7990317074572
 20
-34.36017125629872
 10
218.8328559314572
 20
-34.33837786429872
 10
218.8664359378572
 20
-34.31622935389873
 10
218.8998749346572
 20
-34.29363724829872
 10
218.9332343250572
 20
-34.27053419869872
 10
218.9665701122572
 20
-34.24685042109873
 10
218.9999329234572
 20
-34.22251333629872
 10
219.0333679698572
 20
-34.19744718909872
 10
219.0669149746572
 20
-34.17157263549873
 10
219.1006088802572
 20
-34.14480561469872
 10
219.1349743106572
 20
-34.11664496669873
 10
219.1712719522572
 20
-34.08588821629872
 10
219.2088464498572
 20
-34.05286599069873
 10
219.2465872050572
 20
-34.01837973149872
 10
219.2834652306572
 20
-33.98328876349872
 10
219.3188228098572
 20
-33.94823019069873
 10
219.3526565042572
 20
-33.91326394109873
 10
219.3850358018572
 20
-33.87837933149873
 10
219.4160258610572
 20
-33.84356724669872
 10
219.4456883522572
 20
-33.80881946589873
 10
219.4740858818572
 20
-33.77412328669872
 10
219.5013082770572
 20
-33.73942610109873
 10
219.5274468114572
 20
-33.70466187229872
 10
219.5525872354572
 20
-33.66975916989872
 10
219.5767734194572
 20
-33.63469414749872
 10
219.6000821506572
 20
-33.59938576829872
 10
219.6226551266572
 20
-33.56363118109872
 10
219.6445847906572
 20
-33.52727269629873
 10
219.6659560162572
 20
-33.49013878429873
 10
219.6868082866572
 20
-33.45211320029872
 10
219.7071568146572
 20
-33.41310985469872
 10
219.7269345602572
 20
-33.37320092989873
 10
219.7461037458572
 20
-33.33241640829872
 10
219.7647035746572
 20
-33.29062478109872
 10
219.7827867906572
 20
-33.24764120989872
 10
219.8004147554572
 20
-33.20322707069873
 10
219.8175721298572
 20
-33.15731246429872
 10
219.8341621682572
 20
-33.11006762589872
 10
219.8501564754572
 20
-33.06151692029873
 10
219.8655741858572
 20
-33.01155689789872
 10
219.8804531826572
 20
-32.96001466749872
 10
219.8947505090572
 20
-32.90700408989872
 10
219.9082544338572
 20
-32.85338875549872
 10
219.9206947906572
 20
-32.80056071549872
 10
219.9324379890572
 20
-32.74730600829872
 10
219.9442276418572
 20
-32.69014282429872
 10
219.9562645682572
 20
-32.62750143549872
 10
219.9682585778572
 20
-32.56025858909873
 10
219.9799269218572
 20
-32.48964997149872
 10
219.9910460594572
 20
-32.41700289949872
 10
220.0016293730572
 20
-32.34240047389873
 10
220.0117798530572
 20
-32.26526388029872
 10
220.0215659922572
 20
-32.18513854269873
 10
220.0310000034572
 20
-32.10198654909872
 10
220.0400535986572
 20
-32.01620358749873
 10
220.0486869586572
 20
-31.92845259389872
 10
220.0568919522572
 20
-31.83925868989872
 10
220.0647270034572
 20
-31.74846505309872
 10
220.0722313826572
 20
-31.65607597629873
 10
220.0794428082572
 20
-31.56210395389873
 10
220.0863999234572
 20
-31.46653645309872
 10
220.0931419506572
 20
-31.36933211709873
 10
220.0997254050572
 20
-31.27012667869873
 10
220.1061942290572
 20
-31.16860308189873
 10
220.1125900098572
 20
-31.06440500029872
 10
220.1189487922572
 20
-30.95720824989872
 10
220.1253004562572
 20
-30.84675083069872
 10
220.1316711298572
 20
-30.73280587549872
 10
220.1380833938572
 20
-30.61516088989872
 10
220.1445555634572
 20
-30.49365379709873
 10
220.1511058594572
 20
-30.36812287229873
 10
220.1577506514572
 20
-30.23844663389872
 10
220.1645021538572
 20
-30.10459810109873
 10
220.1713715282572
 20
-29.96656773949872
 10
220.1855170130572
 20
-29.67771937469872
  0
LWPOLYLINE
  5
2B
330
2
100
AcDbEntity
  8
0
100
AcDbPolyline
 90
      115
 70
     0
 43
0.0
 10
188.5164900466572
 20
-29.92247058909873
 10
188.5236049698572
 20
-30.06594976989873
 10
188.5305926146572
 20
-30.20500283229872
 10
188.5374653954572
 20
-30.33965448189873
 10
188.5442343234572
 20
-30.46988567389873
 10
188.5509167890572
 20
-30.59581597149873
 10
188.5575322434572
 20
-30.71761212189872
 10
188.5641012338572
 20
-30.83546074589873
 10
188.5706463554572
 20
-30.94956650109873
 10
188.5771968114572
 20
-31.06019346429873
 10
188.5837846002572
 20
-31.16761641629873
 10
188.5904487554572
 20
-31.27218393309873
 10
188.5972353234572
 20
-31.37429338269872
 10
188.6041908722572
 20
-31.47427024669873
 10
188.6113785202572
 20
-31.57253405629873
 10
188.6188493122572
 20
-31.66922484029872
 10
188.6266458722572
 20
-31.76433464829873
 10
188.6348069058572
 20
-31.85779622269873
 10
188.6433727970572
 20
-31.94956061949872
 10
188.6524054498572
 20
-32.03976468029872
 10
188.6618989442572
 20
-32.12786628029872
 10
188.6718240498572
 20
-32.21327078429872
 10
188.6821590626572
 20
-32.29560508989873
 10
188.6928932386572
 20
-32.37471166109873
 10
188.7040480690572
 20
-32.45073568189873
 10
188.7156527250572
 20
-32.52387031709872
 10
188.7275670754572
 20
-32.59334897469873
 10
188.7395002978572
 20
-32.65787984669872
 10
188.7512587730572
 20
-32.71705130269872
 10
188.7630948594572
 20
-32.77266175069873
 10
188.7754226594572
 20
-32.82681709949872
 10
188.7885145010572
 20
-32.88057395069872
 10
188.8022970578572
 20
-32.93344951229872
 10
188.8166427906572
 20
-32.98489646589873
 10
188.8314891714572
 20
-33.03472786429873
 10
188.8468500674572
 20
-33.08305108669872
 10
188.8627980930572
 20
-33.13013838749872
 10
188.8793695442572
 20
-33.17612137149873
 10
188.8965212290572
 20
-33.22091624029873
 10
188.9141447186572
 20
-33.26431456829872
 10
188.9322279906572
 20
-33.30638296989873
 10
188.9508278178572
 20
-33.34733572349873
 10
188.9699900450572
 20
-33.38733343869872
 10
188.9897417826572
 20
-33.42647833149873
 10
189.0100559170572
 20
-33.46476150109872
 10
189.0308602274572
 20
-33.50210121949872
 10
189.0521524322572
 20
-33.53855136669873
 10
189.0739521730572
 20
-33.57419704509872
 10
189.0963449138572
 20
-33.60921446109873
 10
189.1194463266572
 20
-33.64379857949872
 10
189.1434047506572
 20
-33.67815940029872
 10
189.1683182338572
 20
-33.71240562269872
 10
189.1942441218572
 20
-33.74657542749872
 10
189.2212669490572
 20
-33.78073269469872
 10
189.2494998546572
 20
-33.81496407709873
 10
189.2790543138572
 20
-33.84933896989872
 10
189.3099311650572
 20
-33.88379273309872
 10
189.3420695954572
 20
-33.91820438269872
 10
189.3754000498572
 20
-33.95246216989873
 10
189.4098436562572
 20
-33.98646281629872
 10
189.4453132066572
 20
-34.02011214429872
 10
189.4816713570572
 20
-34.05328734429873
 10
189.5182937090572
 20
-34.08546622269872
 10
189.5543215522572
 20
-34.11600685309872
 10
189.5888237538572
 20
-34.14429324349873
 10
189.6215288082572
 20
-34.17029753629872
 10
189.6539744098572
 20
-34.19536754429872
 10
189.6862961202572
 20
-34.21966475069872
 10
189.7185156626572
 20
-34.24325224509873
 10
189.7506592258572
 20
-34.26619053949873
 10
189.7827572898572
 20
-34.28853777949872
 10
189.8148445026572
 20
-34.31034995709873
 10
189.8469596066572
 20
-34.33168112029872
 10
189.8791457410572
 20
-34.35258380509872
 10
189.9114580610572
 20
-34.37311379869872
 10
189.9439555778572
 20
-34.39332462429872
 10
189.9767549602572
 20
-34.41330091229873
 10
190.0099303666572
 20
-34.43309633789872
 10
190.0435421890572
 20
-34.45275276829873
 10
190.0776309314572
 20
-34.47229788509872
 10
190.1121940082572
 20
-34.49173359549873
 10
190.1472236786572
 20
-34.51105917629873
 10
190.1827116274572
 20
-34.53027398589873
 10
190.2186489330572
 20
-34.54937744989873
 10
190.2550260498572
 20
-34.56836904189872
 10
190.2918327826572
 20
-34.58724828509872
 10
190.3290514402572
 20
-34.60601140669872
 10
190.3666537682572
 20
-34.62465070749873
 10
190.4046256626572
 20
-34.64316641949872
 10
190.4429529090572
 20
-34.66155892029873
 10
190.4816205170572
 20
-34.67982841789872
 10
190.5206127266572
 20
-34.69797495869872
 10
190.5599130178572
 20
-34.71599845309873
 10
190.5995041186572
 20
-34.73389868189872
 10
190.6393701410572
 20
-34.75167624829873
 10
190.6794995234572
 20
-34.76933381469872
 10
190.7198809330572
 20
-34.78687419229872
 10
190.7605113842572
 20
-34.80430386589872
 10
190.8013817266572
 20
-34.82162669149873
 10
190.8424810338572
 20
-34.83884582909873
 10
190.8837960050572
 20
-34.85596358749873
 10
190.9253139042572
 20
-34.87298270749873
 10
190.9670230866572
 20
-34.88990645789872
 10
191.0089119506572
 20
-34.90673817309873
 10
191.0509689522572
 20
-34.92348126429873
 10
191.0931826322572
 20
-34.94013923069872
 10
191.1355416194572
 20
-34.95671566909873
 10
191.1780346482572
 20
-34.97321427709872
 10
191.2206505778572
 20
-34.98963886429872
 10
191.2633783922572
 20
-35.00599335069873
 10
191.3062072146572
 20
-35.02228177789872
 10
191.3491259426572
 20
-35.03850816829872
 10
191.3921094562572
 20
-35.05467135869873
 10
191.4351166450572
 20
-35.07076438589872
 10
191.5210223186572
 20
-35.10270762109873
  0
LWPOLYLINE
  5
2C
330
2
100
AcDbEntity
  8
0
  6
HIDDEN
100
AcDbPolyline
 90
       89
 70
     0
 43
0.0
 10
215.0663390978572
 20
-44.58774575069873
 10
215.1034396370572
 20
-44.15776557629873
 10
215.1388864722572
 20
-43.74520807709873
 10
215.1730337986572
 20
-43.34610092669873
 10
215.2061438306572
 20
-42.95751460349872
 10
215.2382461506572
 20
-42.57924460509872
 10
215.2693719714572
 20
-42.21114028349872
 10
215.2997437410572
 20
-41.85088928029872
 10
215.3297225794572
 20
-41.49465992669873
 10
215.3598034034572
 20
-41.13716796829873
 10
215.3906811986572
 20
-40.77109678109873
 10
215.4236284690572
 20
-40.38308260189872
 10
215.4606760962572
 20
-39.95246990589873
 10
215.5040822866572
 20
-39.45904919069873
 10
215.5520426866572
 20
-38.93045722909873
 10
215.5983814418572
 20
-38.43564333949873
 10
215.6408197666572
 20
-37.99379209309873
 10
215.6830940402572
 20
-37.67436055069873
 10
215.7297428610572
 20
-37.20212527069873
 10
215.7766570738572
 20
-36.72351563229872
 10
215.8188850674572
 20
-36.28323979869873
 10
215.8559522098572
 20
-35.88444266109872
 10
215.8880686834572
 20
-35.52462900349872
 10
215.9154207298572
 20
-35.20251499709872
 10
215.9384023682572
 20
-34.91503916989872
 10
215.9574825122572
 20
-34.65880935389872
 10
215.9731876338572
 20
-34.43040538429873
 10
215.9859825298572
 20
-34.22668277149873
 10
215.9963425810572
 20
-34.04476961789873
 10
216.0061727762572
 20
-33.88226044509873
 10
216.0182320450572
 20
-33.73735646109873
 10
216.0347347570572
 20
-33.60887181789873
 10
216.0572202178572
 20
-33.49684850429872
 10
216.0851601042572
 20
-33.40105433629872
 10
216.1172239490572
 20
-33.31979018429872
 10
216.1527332354572
 20
-33.25027350589872
 10
216.1916192914572
 20
-33.18987471229872
 10
216.2341367298572
 20
-33.13666956509873
 10
216.2804024034572
 20
-33.08965020349873
 10
216.3306212114572
 20
-33.04825228509872
 10
216.3862615490572
 20
-33.01144098429872
 10
216.4502971826572
 20
-32.97799540189872
 10
216.5259634770572
 20
-32.94751590909872
 10
216.6152064066572
 20
-32.92048733149872
 10
216.7185128690572
 20
-32.89741789469872
 10
216.8361884434572
 20
-32.87818773789872
 10
216.9685466610572
 20
-32.86234624189872
 10
217.1166724306572
 20
-32.84940208989872
 10
217.2823823826572
 20
-32.83887589309873
 10
217.4683349378572
 20
-32.83026229949872
 10
217.6803508050572
 20
-32.82286673629872
 10
217.9138798338572
 20
-32.81587695389873
 10
218.1412415490572
 20
-32.80854584829873
 10
218.3447838338572
 20
-32.80016697949872
 10
218.5272924642572
 20
-32.78993295709872
 10
218.6900398002572
 20
-32.77732272029872
 10
218.8348070802572
 20
-32.76192085949872
 10
218.9631981122572
 20
-32.74330505629873
 10
219.0762568898572
 20
-32.72097909629872
 10
219.1747039282572
 20
-32.69467453949872
 10
219.2589209106572
 20
-32.66471388989872
 10
219.3296697538572
 20
-32.63186556349872
 10
219.3891090242572
 20
-32.59661830429873
 10
219.4406350770572
 20
-32.55828089309872
 10
219.4869005506572
 20
-32.51556044189872
 10
219.5292975506572
 20
-32.46719827709872
 10
219.5685423106572
 20
-32.41168647709872
 10
219.6052863778572
 20
-32.34654923869872
 10
219.6396872242572
 20
-32.26875582429872
 10
219.6709715218572
 20
-32.17647366749872
 10
219.6982510354572
 20
-32.06907486269872
 10
219.7212260450572
 20
-31.94589094269872
 10
219.7402608466572
 20
-31.80637683549872
 10
219.7561115714572
 20
-31.64924909149872
 10
219.7697270386572
 20
-31.47276640669872
 10
219.7822804130572
 20
-31.27490852349873
 10
219.7952007634572
 20
-31.05328212669872
 10
219.8106135954572
 20
-30.80410151389873
 10
219.8310217234572
 20
-30.52251703709873
 10
219.8557923394572
 20
-30.22128523229872
 10
219.8812563010572
 20
-29.93615375549873
 10
219.9051877266572
 20
-29.68142165789872
 10
219.9269212946572
 20
-29.45695558429872
 10
219.9463470802572
 20
-29.25880663549873
 10
219.9638516322572
 20
-29.07947332029872
 10
219.9804671298572
 20
-28.90722024509873
 10
219.9974572530572
 20
-28.72742147549873
 10
220.0152376706572
 20
-28.53285154269872
 10
220.0332429362572
 20
-28.32772395069872
  0
LINE
  5
2D
330
2
100
AcDbEntity
  8
CENTER
 48
4.0
100
AcDbLine
 10
196.8450197458572
 20
-49.84767870929083
 30
0.0
 11
196.8450197458572
 21
-43.19287766890663
 31
0.0
  0
LINE
  5
30
330
2
100
AcDbEntity
  8
0
100
AcDbLine
 10
198.6593846962572
 20
-44.60674655549873
 30
0.0
 11
200.7524980866572
 21
-44.60566618429872
 31
0.0
  0
LWPOLYLINE
  5
31
330
2
100
AcDbEntity
  8
0
100
AcDbPolyline
 90
        9
 70
     0
 43
0.0
 10
198.8591391186572
 20
-44.13577560509873
 10
199.2428219346572
 20
-44.12926175229872
 10
199.6594879490572
 20
-44.12320195549873
 10
200.0912916178572
 20
-44.11787460349873
 10
200.5358917426572
 20
-44.11325557789873
 10
200.9925870226572
 20
-44.10928759869872
 10
201.4492085730572
 20
-44.10599758109873
 10
201.8936227618572
 20
-44.10336840509873
 10
202.3127467970572
 20
-44.10135381789873
  0
LWPOLYLINE
  5
32
330
2
100
AcDbEntity
  8
0
100
AcDbPolyline
 90
        8
 70
     0
 43
0.0
 10
199.6774904578572
 20
-45.90661352669872
 10
199.9081694754572
 20
-45.90752344509873
 10
200.1280582898572
 20
-45.90809281789873
 10
200.3295740722572
 20
-45.90837566909873
 10
200.5181728466572
 20
-45.90844523069873
 10
200.6973771586572
 20
-45.90834354109873
 10
200.8655378258572
 20
-45.90810116349873
 10
201.0237204226572
 20
-45.90773763229873
  0
LINE
  5
33
330
2
100
AcDbEntity
  8
0
100
AcDbLine
 10
201.6510508946572
 20
-46.50777818909872
 30
0.0
 11
198.2106649874572
 21
-46.50777818909872
 31
0.0
  0
LINE
  5
34
330
2
100
AcDbEntity
  8
0
100
AcDbLine
 10
201.2959294034572
 20
-46.10483533149873
 30
0.0
 11
198.5622392994572
 21
-46.22983533149873
 31
0.0
  0
LWPOLYLINE
  5
35
330
2
100
AcDbEntity
  8
0
100
AcDbPolyline
 90
       25
 70
     0
 43
0.0
 10
200.8093615746572
 20
-41.81129263389872
 10
200.7440955570572
 20
-41.96959590109872
 10
200.6765301282572
 20
-42.12666619229873
 10
200.6066922354572
 20
-42.28134168189873
 10
200.5343812418572
 20
-42.43297316669873
 10
200.4591769682572
 20
-42.58147358589872
 10
200.3806370226572
 20
-42.72682202269873
 10
200.2986376050572
 20
-42.86845004029873
 10
200.2130027378572
 20
-43.00572393469873
 10
200.1234190370572
 20
-43.13821381789873
 10
200.0296078242572
 20
-43.26541740989873
 10
199.9311227378572
 20
-43.38710628349873
 10
199.8276200354572
 20
-43.50307077629873
 10
199.7192797522572
 20
-43.61265575549873
 10
199.6068256642572
 20
-43.71467710269873
 10
199.4913914770572
 20
-43.80771428509873
 10
199.3811467250572
 20
-43.88623535229873
 10
199.2823691218572
 20
-43.94857298269872
 10
199.1969127810572
 20
-43.99666632669872
 10
199.1228281570572
 20
-44.03406953949873
 10
199.0588735234572
 20
-44.06317154749873
 10
199.0042835362572
 20
-44.08571787549873
 10
198.9586191490572
 20
-44.10299884829873
 10
198.9215046450572
 20
-44.11597886589873
 10
198.8926053602572
 20
-44.12539993309873
  0
LINE
  5
36
330
2
100
AcDbEntity
  8
0
100
AcDbLine
 10
191.9727925586572
 20
-39.38265215229873
 30
0.0
 11
191.9699661954572
 21
-39.88993569309872
 31
0.0
  0
LWPOLYLINE
  5
37
330
2
100
AcDbEntity
  8
0
100
AcDbPolyline
 90
       30
 70
     0
 43
0.0
 10
191.9804958770572
 20
-42.48851354429873
 10
191.9891957378572
 20
-42.64317093789872
 10
192.0125664850572
 20
-42.81581850269873
 10
192.0502963762572
 20
-42.98600830909872
 10
192.1020750930572
 20
-43.15213117789872
 10
192.1671203282572
 20
-43.31214270909873
 10
192.2444566386572
 20
-43.46451124669872
 10
192.3325516498572
 20
-43.60750004829873
 10
192.4292172354572
 20
-43.73921447709872
 10
192.5316711570572
 20
-43.85810653149873
 10
192.6369388946572
 20
-43.96327523869873
 10
192.7427384594572
 20
-44.05506111549873
 10
192.8477247538572
 20
-44.13468414429873
 10
192.9509291282572
 20
-44.20339840509873
 10
193.0518944226572
 20
-44.26256616509873
 10
193.1503118002572
 20
-44.31339816349873
 10
193.2462765330572
 20
-44.35708144189873
 10
193.3391052322572
 20
-44.39430635549872
 10
193.4288660514572
 20
-44.42603248509873
 10
193.5152094802572
 20
-44.45297020029872
 10
193.5985037602572
 20
-44.47596164029873
 10
193.6796223362572
 20
-44.49582571229873
 10
193.7596433010572
 20
-44.51325782109873
 10
193.8398132498572
 20
-44.52883341949873
 10
193.9205744274572
 20
-44.54286553149873
 10
193.9979322370572
 20
-44.55504818749872
 10
194.0713037842572
 20
-44.56581496669873
 10
194.1414488658572
 20
-44.57568375069873
 10
194.2078911698572
 20
-44.58488633149872
 10
194.2682482194572
 20
-44.59331365469873
  0
LWPOLYLINE
  5
38
330
2
100
AcDbEntity
  8
0
100
AcDbPolyline
 90
       31
 70
     0
 43
0.0
 10
193.2599424818572
 20
-45.14376840989873
 10
193.2634708594572
 20
-45.17325216669873
 10
193.2723584194572
 20
-45.22350527229873
 10
193.2844701058572
 20
-45.27197741629873
 10
193.2995305938572
 20
-45.31847180989873
 10
193.3172715666572
 20
-45.36282165949873
 10
193.3374313010572
 20
-45.40489090749873
 10
193.3597287666572
 20
-45.44459087229873
 10
193.3838672210572
 20
-45.48186427869873
 10
193.4095671442572
 20
-45.51667616029873
 10
193.4365676466572
 20
-45.54901227229873
 10
193.4646259138572
 20
-45.57887702909872
 10
193.4935127570572
 20
-45.60629092669873
 10
193.5229689538572
 20
-45.63128368029873
 10
193.5527194706572
 20
-45.65390130109872
 10
193.5825063234572
 20
-45.67421072509873
 10
193.6121092898572
 20
-45.69230862109873
 10
193.6413365954572
 20
-45.70830820189873
 10
193.6700293458572
 20
-45.72233731069873
 10
193.6980482338572
 20
-45.73452872189873
 10
193.7251927138572
 20
-45.74499826589873
 10
193.7511433618572
 20
-45.75384114749873
 10
193.7755813186572
 20
-45.76117687549873
 10
193.7980440818572
 20
-45.76710842429873
 10
193.8180714130572
 20
-45.77176946909872
 10
193.8354667090572
 20
-45.77535997149873
 10
193.8504490882572
 20
-45.77812970909873
 10
193.8635306114572
 20
-45.78032056029873
 10
193.8752970562572
 20
-45.78212600189873
 10
193.8863158930572
 20
-45.78369095709873
 10
193.8971586066572
 20
-45.78512917629873
  0
LWPOLYLINE
  5
39
330
2
100
AcDbEntity
  8
0
100
AcDbPolyline
 90
       32
 70
     0
 43
0.0
 10
193.2598549762572
 20
-45.14288439869873
 10
193.2633789042572
 20
-45.17234478429872
 10
193.2722937266572
 20
-45.22276785789872
 10
193.2844491202572
 20
-45.27140226589873
 10
193.2995683554572
 20
-45.31804933149873
 10
193.3173816018572
 20
-45.36254067229872
 10
193.3376254866572
 20
-45.40473907869873
 10
193.3600167762572
 20
-45.44455539869873
 10
193.3842567170572
 20
-45.48193182749872
 10
193.4100639826572
 20
-45.51683311069873
 10
193.4371760130572
 20
-45.54924494429872
 10
193.4653484674572
 20
-45.57917187069873
 10
193.4943503538572
 20
-45.60663461149872
 10
193.5239193762572
 20
-45.63166312989873
 10
193.5537784914572
 20
-45.65430411389873
 10
193.5836681650572
 20
-45.67462549309873
 10
193.6133677026572
 20
-45.69272553149873
 10
193.6426847074572
 20
-45.70871872349872
 10
193.6714605042572
 20
-45.72273445789873
 10
193.6995551330572
 20
-45.73490655869873
 10
193.7267608306572
 20
-45.74535020029872
 10
193.7527527634572
 20
-45.75416132989873
 10
193.7772082802572
 20
-45.76146108829873
 10
193.7996572962572
 20
-45.76735353789873
 10
193.8196533650572
 20
-45.77197837309873
 10
193.8370115042572
 20
-45.77553859069872
 10
193.8519652978572
 20
-45.77828567709873
 10
193.8650309426572
 20
-45.78046039869873
 10
193.8767964082572
 20
-45.78225496189872
 10
193.8878329650572
 20
-45.78381356189873
 10
193.8987147762572
 20
-45.78524927069873
 10
193.9066718994572
 20
-45.78624596669873
  0
LINE
  5
3A
330
2
100
AcDbEntity
  8
0
100
AcDbLine
 10
193.2247379090572
 20
-44.78875058909873
 30
0.0
 11
193.2475048994572
 21
-45.01794265309873
 31
0.0
  0
LWPOLYLINE
  5
3B
330
2
100
AcDbEntity
  8
0
100
AcDbPolyline
 90
        6
 70
     0
 43
0.0
 10
193.1693672434572
 20
-44.32207222749872
 10
193.1706384018572
 20
-44.33087356509872
 10
193.1854735602572
 20
-44.44232368029872
 10
193.1998756770572
 20
-44.55990297629873
 10
193.2136166914572
 20
-44.68199034589873
 10
193.2247059762572
 20
-44.78882682749873
  0
LINE
  5
3C
330
2
100
AcDbEntity
  8
0
100
AcDbLine
 10
193.2474599874572
 20
-45.01748836989873
 30
0.0
 11
193.2599453074572
 21
-45.14377845949873
 31
0.0
  0
LINE
  5
3D
330
2
100
AcDbEntity
  8
0
100
AcDbLine
 10
198.7338070642572
 20
-46.05826756669872
 30
0.0
 11
198.3816313986572
 21
-46.41044323229873
 31
0.0
  0
LINE
  5
3E
330
2
100
AcDbEntity
  8
0
100
AcDbLine
 10
195.3084080946572
 20
-46.41044323229873
 30
0.0
 11
194.9420281010572
 21
-46.04406323869873
 31
0.0
  0
LINE
  5
3F
330
2
100
AcDbEntity
  8
0
100
AcDbLine
 10
198.1164663554572
 20
-46.52027818909873
 30
0.0
 11
195.5735731378572
 21
-46.52027818909873
 31
0.0
  0
ARC
  5
40
330
2
100
AcDbEntity
  8
0
100
AcDbCircle
 10
195.5735731378572
 20
-46.14527818909873
 30
0.0
 40
0.375
100
AcDbArc
 50
225.0
 51
270.0
  0
ARC
  5
41
330
2
100
AcDbEntity
  8
0
100
AcDbCircle
 10
198.1164663554572
 20
-46.14527818909873
 30
0.0
 40
0.375
100
AcDbArc
 50
270.0
 51
315.0
  0
LINE
  5
42
330
2
100
AcDbEntity
  8
0
100
AcDbLine
 10
196.4139511218572
 20
-44.60835141789873
 30
0.0
 11
198.6593846962572
 21
-44.60674655549873
 31
0.0
  0
LWPOLYLINE
  5
43
330
2
100
AcDbEntity
  8
0
100
AcDbPolyline
 90
       25
 70
     0
 43
0.0
 10
198.8591182194572
 20
-44.13577535069872
 10
198.7386951474572
 20
-44.13803001789872
 10
198.6267173490572
 20
-44.14022532509873
 10
198.5221552178572
 20
-44.14236614909873
 10
198.4236451554572
 20
-44.14446795869873
 10
198.3303107234572
 20
-44.14653968989873
 10
198.2414556882572
 20
-44.14858888989873
 10
198.1565544258572
 20
-44.15062125789872
 10
198.0752033714572
 20
-44.15264101789873
 10
197.9970237218572
 20
-44.15465279069873
 10
197.9218741250572
 20
-44.15665660189873
 10
197.8491677314572
 20
-44.15866604829872
 10
197.7726379538572
 20
-44.16086199389872
 10
197.6866740738572
 20
-44.16343157469873
 10
197.5948557698572
 20
-44.16629912989873
 10
197.5003386482572
 20
-44.16938572029873
 10
197.4023672882572
 20
-44.17273134589873
 10
197.2996994882572
 20
-44.17639539549873
 10
197.1909094578572
 20
-44.18044040509872
 10
197.0741833762572
 20
-44.18495015389873
 10
196.9593949730572
 20
-44.18955124029873
 10
196.8591189650572
 20
-44.19370332029873
 10
196.7706603922572
 20
-44.19746642909873
 10
196.6891800482572
 20
-44.20100773789872
 10
196.5235357266572
 20
-44.20839635709873
  0
LWPOLYLINE
  5
44
330
2
100
AcDbEntity
  8
0
100
AcDbPolyline
 90
       34
 70
     0
 43
0.0
 10
194.9056090642572
 20
-46.01284514269873
 10
194.9320553426572
 20
-46.01585628189872
 10
194.9647962930572
 20
-46.01938423549873
 10
195.0031509346572
 20
-46.02325179229873
 10
195.0464416722572
 20
-46.02729242589872
 10
195.0941234706572
 20
-46.03136459709872
 10
195.1458672770572
 20
-46.03535505949873
 10
195.2014327554572
 20
-46.03916382269873
 10
195.2606884802572
 20
-46.04270335709872
 10
195.3236110034572
 20
-46.04589532349873
 10
195.3902589218572
 20
-46.04866618749873
 10
195.4608941570572
 20
-46.05094812989872
 10
195.5357530722572
 20
-46.05266724509873
 10
195.6152355762572
 20
-46.05374947229873
 10
195.6997638274572
 20
-46.05411518749873
 10
195.7898149154572
 20
-46.05368247389873
 10
195.8859646850572
 20
-46.05236946269872
 10
195.9885988466572
 20
-46.05010920189872
 10
196.0982603858572
 20
-46.04687865789872
 10
196.2155787730572
 20
-46.04272091069873
 10
196.3390911538572
 20
-46.03784760349873
 10
196.4654221314572
 20
-46.03265965629873
 10
196.5908641122572
 20
-46.02762920989873
 10
196.7150576322572
 20
-46.02307330749872
 10
196.8375540146572
 20
-46.01926765629873
 10
196.9597800546572
 20
-46.01635029789873
 10
197.0825461250572
 20
-46.01427373149873
 10
197.2057779842572
 20
-46.01292024349873
 10
197.3287504530572
 20
-46.01219561149873
 10
197.4507972194572
 20
-46.01200187869873
 10
197.5712399906572
 20
-46.01224318429873
 10
197.6894263746572
 20
-46.01282636029873
 10
197.8046195202572
 20
-46.01366118269873
 10
197.9162178114572
 20
-46.01466121309873
  0
LWPOLYLINE
  5
45
330
2
100
AcDbEntity
  8
0
100
AcDbPolyline
 90
        4
 70
     0
 43
0.0
 10
194.2251358898572
 20
-44.56982818909873
 10
194.2988167714572
 20
-44.58128099069873
 10
194.3911781682572
 20
-44.59467327709872
 10
194.4984628498572
 20
-44.61004909469873
  0
LWPOLYLINE
  5
46
330
2
100
AcDbEntity
  8
0
100
AcDbPolyline
 90
        3
 70
     0
 43
0.0
 10
194.4984628354572
 20
-44.61004909629873
 10
194.3802158258572
 20
-44.60539147709872
 10
194.2682448098572
 20
-44.59333797469873
  0
LWPOLYLINE
  5
47
330
2
100
AcDbEntity
  8
0
100
AcDbPolyline
 90
       45
 70
     0
 43
0.0
 10
194.4984628354572
 20
-44.61004909629873
 10
194.4891160530572
 20
-44.61053717469872
 10
194.4798017010572
 20
-44.61139216189873
 10
194.4705189778572
 20
-44.61260239709873
 10
194.4612775250572
 20
-44.61415878269873
 10
194.4520876114572
 20
-44.61605489789873
 10
194.4429601714572
 20
-44.61828696189873
 10
194.4339071922572
 20
-44.62085372669873
 10
194.4249418674572
 20
-44.62375644509872
 10
194.4160790706572
 20
-44.62699879069872
 10
194.4073355890572
 20
-44.63058691709873
 10
194.3987297298572
 20
-44.63452959869873
 10
194.3902151218572
 20
-44.63881472989873
 10
194.3817624674572
 20
-44.64342866749873
 10
194.3733899426572
 20
-44.64837192349873
 10
194.3651169378572
 20
-44.65364649629873
 10
194.3569645490572
 20
-44.65925585789872
 10
194.3489477522572
 20
-44.66520143229873
 10
194.3410602162572
 20
-44.67147160029873
 10
194.3333404034572
 20
-44.67805392989872
 10
194.3258262722572
 20
-44.68493911069873
 10
194.3185451602572
 20
-44.69212685629872
 10
194.3115248578572
 20
-44.69961608989873
 10
194.3047468610572
 20
-44.70738450589872
 10
194.2982137010572
 20
-44.71541661949873
 10
194.2919557410572
 20
-44.72371070589873
 10
194.2860018146572
 20
-44.73226562269873
 10
194.2803796370572
 20
-44.74107966749873
 10
194.2750979314572
 20
-44.75014115229873
 10
194.2701274242572
 20
-44.75941758109873
 10
194.2654978770572
 20
-44.76890754429873
 10
194.2612409986572
 20
-44.77861128509873
 10
194.2573845906572
 20
-44.78852680669873
 10
194.2539495874572
 20
-44.79864858109873
 10
194.2508962290572
 20
-44.80894378269873
 10
194.2482258786572
 20
-44.81939977149873
 10
194.2459738210572
 20
-44.83001768989873
 10
194.2441659586572
 20
-44.84079329629873
 10
194.2428151426572
 20
-44.85171636509873
 10
194.2419071874572
 20
-44.86277030429873
 10
194.2414101490572
 20
-44.87392070589873
 10
194.2413509986572
 20
-44.88512648189873
 10
194.2417424258572
 20
-44.89639143549872
 10
194.2425817394572
 20
-44.90773636829873
 10
194.2438515906572
 20
-44.91917584829873
  0
LINE
  5
48
330
2
100
AcDbEntity
  8
0
100
AcDbLine
 10
193.9067179714572
 20
-45.78625162109872
 30
0.0
 11
193.9546761346572
 21
-45.79043048829873
 31
0.0
  0
LINE
  5
49
330
2
100
AcDbEntity
  8
0
100
AcDbLine
 10
193.9066718994572
 20
-45.78624596669873
 30
0.0
 11
193.9067179714572
 21
-45.78625162109872
 31
0.0
  0
LINE
  5
4A
330
2
100
AcDbEntity
  8
0
100
AcDbLine
 10
193.8971586066572
 20
-45.78512917629873
 30
0.0
 11
193.9053260018572
 21
-45.78615672029872
 31
0.0
  0
LINE
  5
4B
330
2
100
AcDbEntity
  8
0
100
AcDbLine
 10
193.8987147762572
 20
-45.78524927069873
 30
0.0
 11
193.9053259890572
 21
-45.78615672029872
 31
0.0
  0
LINE
  5
4C
330
2
100
AcDbEntity
  8
0
100
AcDbLine
 10
193.9067179842572
 20
-45.78625162269872
 30
0.0
 11
193.9535253106572
 21
-45.79268517949873
 31
0.0
  0
LINE
  5
4D
330
2
100
AcDbEntity
  8
0
100
AcDbLine
 10
193.9053525730572
 20
-45.78615999549873
 30
0.0
 11
193.9517182050572
 21
-45.79254878269873
 31
0.0
  0
LWPOLYLINE
  5
4E
330
2
100
AcDbEntity
  8
0
100
AcDbPolyline
 90
       14
 70
     0
 43
0.0
 10
194.2565510914572
 20
-45.26608000829873
 10
194.2620443314572
 20
-45.32858401789872
 10
194.2701149554572
 20
-45.38925077629873
 10
194.2806777586572
 20
-45.44744350589873
 10
194.2936224866572
 20
-45.50255417149872
 10
194.3088123026572
 20
-45.55399847869873
 10
194.3260856082572
 20
-45.60122979229872
 10
194.3452611618572
 20
-45.64375330109873
 10
194.3661377106572
 20
-45.68112186749873
 10
194.3884931986572
 20
-45.71293779069873
 10
194.4120910642572
 20
-45.73886545949873
 10
194.4366848626572
 20
-45.75863418909873
 10
194.4620149154572
 20
-45.77203434909873
 10
194.4878134882572
 20
-45.77892376669873
  0
ARC
  5
4F
330
2
100
AcDbEntity
  8
0
100
AcDbCircle
 10
194.8536387522572
 20
-46.13245057469873
 30
0.0
 40
0.125
100
AcDbArc
 50
45.000000143
 51
82.3932371523
  0
LINE
  5
50
330
2
100
AcDbEntity
  8
0
100
AcDbLine
 10
194.4357035730572
 20
-45.93942947069873
 30
0.0
 11
194.4569814050572
 21
-45.94344500989873
 31
0.0
  0
LINE
  5
51
330
2
100
AcDbEntity
  8
0
100
AcDbLine
 10
194.4344564242572
 20
-45.93914432669873
 30
0.0
 11
194.4357035730572
 21
-45.93942947069873
 31
0.0
  0
LINE
  5
52
330
2
100
AcDbEntity
  8
0
100
AcDbLine
 10
194.3443242882572
 20
-45.91780480669873
 30
0.0
 11
194.3959959858572
 21
-45.93085596829872
 31
0.0
  0
LINE
  5
53
330
2
100
AcDbEntity
  8
0
100
AcDbLine
 10
194.2880234754572
 20
-45.90126588829873
 30
0.0
 11
194.3443242882572
 21
-45.91780480669873
 31
0.0
  0
LWPOLYLINE
  5
54
330
2
100
AcDbEntity
  8
0
100
AcDbPolyline
 90
        5
 70
     0
 43
0.0
 10
194.4569571970572
 20
-45.94348569949873
 10
194.5458343074572
 20
-45.95898764189873
 10
194.6435458642572
 20
-45.97513854909872
 10
194.7512345922572
 20
-45.99177168829873
 10
194.8701968434572
 20
-46.00855448349872
  0
LWPOLYLINE
  5
55
330
2
100
AcDbEntity
  8
0
100
AcDbPolyline
 90
        3
 70
     0
 43
0.0
 10
194.8701860530572
 20
-46.00855066749873
 10
194.8741813410572
 20
-46.00905470269873
 10
194.9056090642572
 20
-46.01284514269873
  0
LWPOLYLINE
  5
56
330
2
100
AcDbEntity
  8
0
100
AcDbPolyline
 90
       17
 70
     0
 43
0.0
 10
193.9535253106572
 20
-45.79268517949873
 10
193.9947034642572
 20
-45.79960716989872
 10
194.0282613058572
 20
-45.80628157309873
 10
194.0536018338572
 20
-45.81213025149873
 10
194.0686278034572
 20
-45.81610481149873
 10
194.0725657506572
 20
-45.81727982269873
 10
194.0727018882572
 20
-45.81733008669873
 10
194.0741480050572
 20
-45.81790372029873
 10
194.0811074962572
 20
-45.82087390109872
 10
194.1001602770572
 20
-45.82923789469872
 10
194.1349317746572
 20
-45.84426865469873
 10
194.1774753778572
 20
-45.86170878909872
 10
194.2283580882572
 20
-45.88098543229873
 10
194.2853980530572
 20
-45.90033322909873
 10
194.3415904706572
 20
-45.91700881789873
 10
194.3932505314572
 20
-45.93020103389873
 10
194.4357035778572
 20
-45.93942964189873
  0
LWPOLYLINE
  5
57
330
2
100
AcDbEntity
  8
0
100
AcDbPolyline
 90
       14
 70
     0
 43
0.0
 10
193.9517182050572
 20
-45.79254878269873
 10
193.9927874370572
 20
-45.79945668669873
 10
194.0263924514572
 20
-45.80613834269873
 10
194.0519096034572
 20
-45.81202170909873
 10
194.0672027586572
 20
-45.81606126749873
 10
194.0714834530572
 20
-45.81733976829872
 10
194.0720676786572
 20
-45.81754777949873
 10
194.0739749618572
 20
-45.81830007869873
 10
194.0814819522572
 20
-45.82148983549873
 10
194.1011456978572
 20
-45.83007903389872
 10
194.1364765090572
 20
-45.84525694109873
 10
194.1794540002572
 20
-45.86274748189873
 10
194.2308113938572
 20
-45.88204154109873
 10
194.2880234754572
 20
-45.90126588829873
  0
LWPOLYLINE
  5
58
330
2
100
AcDbEntity
  8
0
100
AcDbPolyline
 90
        4
 70
     0
 43
0.0
 10
194.2438516322572
 20
-44.91917583069873
 10
194.2484942274572
 20
-45.02534108669872
 10
194.2527587522572
 20
-45.14095088829873
 10
194.2565524226572
 20
-45.26608389469873
  0
LINE
  5
59
330
2
100
AcDbEntity
  8
0
100
AcDbLine
 10
194.4984631714572
 20
-44.61004909949873
 30
0.0
 11
196.4139511218572
 21
-44.60835141789873
 31
0.0
  0
LWPOLYLINE
  5
5A
330
2
100
AcDbEntity
  8
0
100
AcDbPolyline
 90
       48
 70
     0
 43
0.0
 10
196.5235357266572
 20
-44.20839635709873
 10
196.4329010498572
 20
-44.21254403869872
 10
196.3361301090572
 20
-44.21705912669873
 10
196.2321197282572
 20
-44.22202026749872
 10
196.1187553586572
 20
-44.22756966109872
 10
195.9954266546572
 20
-44.23379648829873
 10
195.8720509778572
 20
-44.24024764989872
 10
195.7549057490572
 20
-44.24660215389873
 10
195.6420483122572
 20
-44.25295869629873
 10
195.5336307426572
 20
-44.25930307709872
 10
195.4298409522572
 20
-44.26561580029873
 10
195.3307576258572
 20
-44.27188290909873
 10
195.2361590258572
 20
-44.27811063229873
 10
195.1455578498572
 20
-44.28432579069872
 10
195.0587215362572
 20
-44.29054137309873
 10
194.9755895826572
 20
-44.29675854429873
 10
194.8960716210572
 20
-44.30298116029873
 10
194.8200518290572
 20
-44.30921666109873
 10
194.7474752658572
 20
-44.31546920989872
 10
194.6784123090572
 20
-44.32173297949873
 10
194.6127879042572
 20
-44.32801576189873
 10
194.5503893314572
 20
-44.33434061629873
 10
194.4910674258572
 20
-44.34072871869872
 10
194.4347155506572
 20
-44.34720198909873
 10
194.3812252322572
 20
-44.35378404829872
 10
194.3302158690572
 20
-44.36053922269873
 10
194.2812539282572
 20
-44.36755944189872
 10
194.2344909170572
 20
-44.37486736829873
 10
194.1902643330572
 20
-44.38245620509873
 10
194.1489008178572
 20
-44.39031793789872
 10
194.1106489938572
 20
-44.39846082269872
 10
194.0755682098572
 20
-44.40694439389873
 10
194.0439233234572
 20
-44.41580607549872
 10
194.0161995458572
 20
-44.42503162429873
 10
193.9928504194572
 20
-44.43460053629872
 10
193.9742716002572
 20
-44.44449350269873
 10
193.9609135906572
 20
-44.45466116669872
 10
193.9531788114572
 20
-44.46506999709873
 10
193.9514055810572
 20
-44.47568403069872
 10
193.9558623090572
 20
-44.48643685309873
 10
193.9667920770572
 20
-44.49726824509872
 10
193.9843325458572
 20
-44.50810660669873
 10
194.0084332338572
 20
-44.51886034429873
 10
194.0389748354572
 20
-44.52945424349873
 10
194.0758404898572
 20
-44.53984099229873
 10
194.1187319874572
 20
-44.54995094429873
 10
194.1674245426572
 20
-44.55975850749872
 10
194.2251358898572
 20
-44.56982818909873
  0
LINE
  5
5B
330
2
100
AcDbEntity
  8
0
100
AcDbLine
 10
198.8926053602572
 20
-44.12539993309873
 30
0.0
 11
198.8591391186572
 21
-44.13577560509873
 31
0.0
  0
LINE
  5
5C
330
2
100
AcDbEntity
  8
0
100
AcDbLine
 10
198.1080493682572
 20
-46.01665025629873
 30
0.0
 11
198.1080895426572
 21
-46.01665069309873
 31
0.0
  0
LINE
  5
5D
330
2
100
AcDbEntity
  8
0
100
AcDbLine
 10
197.9162178114572
 20
-46.01466121309873
 30
0.0
 11
198.1080493682572
 21
-46.01665025629873
 31
0.0
  0
LINE
  5
5E
330
2
100
AcDbEntity
  8
0
100
AcDbLine
 10
198.1080492402572
 20
-46.01665154909873
 30
0.0
 11
198.2304223394572
 21
-46.01804555869873
 31
0.0
  0
ARC
  5
5F
330
2
100
AcDbEntity
  8
0
100
AcDbCircle
 10
198.8221956786572
 20
-46.14665562909872
 30
0.0
 40
0.1249999984
100
AcDbArc
 50
102.1620859593999
 51
134.9999997319
  0
LWPOLYLINE
  5
60
330
2
100
AcDbEntity
  8
0
100
AcDbPolyline
 90
        3
 70
     0
 43
0.0
 10
198.2304223394572
 20
-46.01804555869873
 10
198.6142690034572
 20
-46.02276888829872
 10
198.8142720642572
 20
-46.02504560669873
  0
LWPOLYLINE
  5
61
330
2
100
AcDbEntity
  8
0
100
AcDbPolyline
 90
        5
 70
     0
 43
0.0
 10
198.8142720642572
 20
-46.02504560669873
 10
199.0194797090572
 20
-46.02708192509872
 10
199.2311453714572
 20
-46.02886689949873
 10
199.4502785906572
 20
-46.03038395229872
 10
199.6774904578572
 20
-45.90661352669872
  0
LINE
  5
62
330
2
100
AcDbEntity
  8
0
100
AcDbLine
 10
191.9687326802572
 20
-41.56277291869873
 30
0.0
 11
191.9713175746572
 21
-41.86698664509872
 31
0.0
  0
LINE
  5
63
330
2
100
AcDbEntity
  8
0
100
AcDbLine
 10
191.9713092450572
 20
-41.86618445469873
 30
0.0
 11
191.9752164402572
 21
-42.17816633469873
 31
0.0
  0
LINE
  5
64
330
2
100
AcDbEntity
  8
0
100
AcDbLine
 10
191.9752044898572
 20
-42.17735307069872
 30
0.0
 11
191.9804980946572
 21
-42.48845438429873
 31
0.0
  0
LINE
  5
65
330
2
100
AcDbEntity
  8
0
100
AcDbLine
 10
191.9675626178572
 20
-40.42049106429873
 30
0.0
 11
191.9668600978572
 21
-40.69656961949873
 31
0.0
  0
LINE
  5
66
330
2
100
AcDbEntity
  8
0
100
AcDbLine
 10
191.9686462434572
 20
-40.15169443389873
 30
0.0
 11
191.9675600562572
 21
-40.42123939229873
 31
0.0
  0
LINE
  5
67
330
2
100
AcDbEntity
  8
0
100
AcDbLine
 10
191.9672629954572
 20
-41.26677718909873
 30
0.0
 11
191.9687379042572
 21
-41.56356420349872
 31
0.0
  0
LINE
  5
68
330
2
100
AcDbEntity
  8
0
100
AcDbLine
 10
191.9667017906572
 20
-40.97785889149873
 30
0.0
 11
191.9672655986572
 21
-41.26755772989873
 31
0.0
  0
LINE
  5
69
330
2
100
AcDbEntity
  8
0
100
AcDbLine
 10
191.9668613698572
 20
-40.69581052509873
 30
0.0
 11
191.9667022354572
 21
-40.97862872349873
 31
0.0
  0
LINE
  5
6A
330
2
100
AcDbEntity
  8
0
100
AcDbLine
 10
191.9699701346572
 20
-39.88920873309873
 30
0.0
 11
191.9686427970572
 21
-40.15243206589873
 31
0.0
  0
LINE
  5
6B
330
2
100
AcDbEntity
  8
0
100
AcDbLine
 10
191.9538606354572
 20
-37.10484289149873
 30
0.0
 11
191.9599838194572
 21
-37.29781836829872
 31
0.0
  0
LINE
  5
6C
330
2
100
AcDbEntity
  8
0
100
AcDbLine
 10
191.9750311554572
 20
-38.21861909949873
 30
0.0
 11
191.9755846578572
 21
-38.44081234749872
 31
0.0
  0
LINE
  5
6D
330
2
100
AcDbEntity
  8
0
100
AcDbLine
 10
191.9649329394572
 20
-37.49451198109872
 30
0.0
 11
191.9688432658572
 21
-37.69724866429872
 31
0.0
  0
LINE
  5
6E
330
2
100
AcDbEntity
  8
0
100
AcDbLine
 10
191.9688329522572
 20
-37.69662703389872
 30
0.0
 11
191.9717581570572
 21
-37.79147796669873
 31
0.0
  0
LINE
  5
6F
330
2
100
AcDbEntity
  8
0
100
AcDbLine
 10
191.9717507202572
 20
-37.79084619229873
 30
0.0
 11
191.9737895378572
 21
-38.00292021949873
 31
0.0
  0
LINE
  5
70
330
2
100
AcDbEntity
  8
0
100
AcDbLine
 10
191.9737846594572
 20
-38.00227820029873
 30
0.0
 11
191.9750337810572
 21
-38.21927152669873
 31
0.0
  0
LINE
  5
71
330
2
100
AcDbEntity
  8
0
100
AcDbLine
 10
191.9755839730572
 20
-38.44014931869873
 30
0.0
 11
191.9755336562572
 21
-38.66787060349873
 31
0.0
  0
LINE
  5
72
330
2
100
AcDbEntity
  8
0
100
AcDbLine
 10
191.9755345970572
 20
-38.66719689949873
 30
0.0
 11
191.9749770914572
 21
-38.90059436509873
 31
0.0
  0
LINE
  5
73
330
2
100
AcDbEntity
  8
0
100
AcDbLine
 10
191.9749793266572
 20
-38.89991002749873
 30
0.0
 11
191.9740242562572
 21
-39.13905990269873
 31
0.0
  0
LINE
  5
74
330
2
100
AcDbEntity
  8
0
100
AcDbLine
 10
191.9740274466572
 20
-39.13836494429872
 30
0.0
 11
191.9727887570572
 21
-39.38335776189873
 31
0.0
  0
LINE
  5
75
330
2
100
AcDbEntity
  8
0
100
AcDbLine
 10
191.9599668018572
 20
-37.29721758589873
 30
0.0
 11
191.9649464562572
 21
-37.49512349789872
 31
0.0
  0
LINE
  5
76
330
2
100
AcDbEntity
  8
0
100
AcDbLine
 10
193.1817152626572
 20
-35.78916777949872
 30
0.0
 11
193.1841588418572
 21
-35.79062847549872
 31
0.0
  0
LINE
  5
77
330
2
100
AcDbEntity
  8
0
100
AcDbLine
 10
191.9368394866572
 20
-35.25574638109872
 30
0.0
 11
192.0168393266572
 21
-35.28535234749873
 31
0.0
  0
LINE
  5
78
330
2
100
AcDbEntity
  8
0
100
AcDbLine
 10
191.5210223186572
 20
-35.10270762109873
 30
0.0
 11
191.6063964530572
 21
-35.13424592189872
 31
0.0
  0
LINE
  5
79
330
2
100
AcDbEntity
  8
0
100
AcDbLine
 10
191.8559656338572
 20
-35.22595836829872
 30
0.0
 11
191.9368394866572
 21
-35.25574638109872
 31
0.0
  0
LINE
  5
7A
330
2
100
AcDbEntity
  8
0
100
AcDbLine
 10
191.6063964530572
 20
-35.13424592189872
 30
0.0
 11
191.8559656338572
 21
-35.22595836829872
 31
0.0
  0
LINE
  5
7B
330
2
100
AcDbEntity
  8
0
100
AcDbLine
 10
191.8581917586572
 20
-35.77141156349873
 30
0.0
 11
191.8742787858572
 21
-35.91029844509872
 31
0.0
  0
LINE
  5
7C
330
2
100
AcDbEntity
  8
0
100
AcDbLine
 10
191.8416690866572
 20
-35.64473837789872
 30
0.0
 11
191.8582477826572
 21
-35.77186667869872
 31
0.0
  0
LINE
  5
7D
330
2
100
AcDbEntity
  8
0
100
AcDbLine
 10
191.8249936258572
 20
-35.53024193629873
 30
0.0
 11
191.8417273346572
 21
-35.64516038909872
 31
0.0
  0
LINE
  5
7E
330
2
100
AcDbEntity
  8
0
100
AcDbLine
 10
191.8084328786572
 20
-35.42757841149873
 30
0.0
 11
191.8250526594572
 21
-35.53062652349872
 31
0.0
  0
LINE
  5
7F
330
2
100
AcDbEntity
  8
0
100
AcDbLine
 10
191.7919833186572
 20
-35.33488920029872
 30
0.0
 11
191.8084917314572
 21
-35.42792582109872
 31
0.0
  0
LINE
  5
80
330
2
100
AcDbEntity
  8
0
100
AcDbLine
 10
191.7754811346572
 20
-35.24997412829872
 30
0.0
 11
191.7920417650572
 21
-35.33520366269872
 31
0.0
  0
LINE
  5
81
330
2
100
AcDbEntity
  8
0
100
AcDbLine
 10
191.7631470098572
 20
-35.19186279389872
 30
0.0
 11
191.7755396018572
 21
-35.25026190589872
 31
0.0
  0
LINE
  5
82
330
2
100
AcDbEntity
  8
0
100
AcDbLine
 10
191.9465262114572
 20
-36.91710708189873
 30
0.0
 11
191.9538814530572
 21
-37.10543292669872
 31
0.0
  0
LINE
  5
83
330
2
100
AcDbEntity
  8
0
100
AcDbLine
 10
191.9378767570572
 20
-36.73397191229872
 30
0.0
 11
191.9465511330572
 21
-36.91768634909873
 31
0.0
  0
LINE
  5
84
330
2
100
AcDbEntity
  8
0
100
AcDbLine
 10
191.9278398594572
 20
-36.55571881309873
 30
0.0
 11
191.9379060882572
 21
-36.73454012669872
 31
0.0
  0
LINE
  5
85
330
2
100
AcDbEntity
  8
0
100
AcDbLine
 10
191.9163847970572
 20
-36.38304325629873
 30
0.0
 11
191.9278738834572
 21
-36.55627518589872
 31
0.0
  0
LINE
  5
86
330
2
100
AcDbEntity
  8
0
100
AcDbLine
 10
191.9035674466572
 20
-36.21721310909872
 30
0.0
 11
191.9164236962572
 21
-36.38358608989872
 31
0.0
  0
LINE
  5
87
330
2
100
AcDbEntity
  8
0
100
AcDbLine
 10
191.8894528946572
 20
-36.05898314749873
 30
0.0
 11
191.9036112258572
 21
-36.21773983709872
 31
0.0
  0
LINE
  5
88
330
2
100
AcDbEntity
  8
0
100
AcDbLine
 10
191.8742260914572
 20
-35.90981456509872
 30
0.0
 11
191.8895014098572
 21
-36.05949093469873
 31
0.0
  0
LWPOLYLINE
  5
89
330
2
100
AcDbEntity
  8
0
100
AcDbPolyline
 90
       40
 70
     0
 43
0.0
 10
192.0168393266572
 20
-35.28535234749873
 10
192.0961753314572
 20
-35.31491336669872
 10
192.1356554978572
 20
-35.32971862909873
 10
192.1749945874572
 20
-35.34454466589873
 10
192.2141603538572
 20
-35.35938696669873
 10
192.2531221730572
 20
-35.37424145789872
 10
192.2918511394572
 20
-35.38910453309872
 10
192.3303201538572
 20
-35.40397304829873
 10
192.3685040546572
 20
-35.41884437629873
 10
192.4063794610572
 20
-35.43371631709872
 10
192.4439247778572
 20
-35.44858711229872
 10
192.4811201090572
 20
-35.46345540989872
 10
192.5179469330572
 20
-35.47832014269872
 10
192.5543608754572
 20
-35.49316930429872
 10
192.5902895138572
 20
-35.50797825629873
 10
192.6256703634572
 20
-35.52272507069872
 10
192.6604438034572
 20
-35.53738768989873
 10
192.6945540930572
 20
-35.55194434589872
 10
192.7279640402572
 20
-35.56637992989873
 10
192.7606503298572
 20
-35.58068436349872
 10
192.7925987682572
 20
-35.59485082909872
 10
192.8238060514572
 20
-35.60887683549872
 10
192.8542690450572
 20
-35.62275962269873
 10
192.8839706530572
 20
-35.63648935549872
 10
192.9128210818572
 20
-35.65002111709872
 10
192.9406640530572
 20
-35.66327536029872
 10
192.9673602818572
 20
-35.67617598269873
 10
192.9928821810572
 20
-35.68869754909872
 10
193.0173145330572
 20
-35.70086974589873
 10
193.0407735714572
 20
-35.71274062269872
 10
193.0633626690572
 20
-35.72435525789873
 10
193.0848103602572
 20
-35.73556478589872
 10
193.1046254082572
 20
-35.74609359709873
 10
193.1224209826572
 20
-35.75570589469872
 10
193.1378975170572
 20
-35.76420064349872
 10
193.1509580610572
 20
-35.77148064509872
 10
193.1617624194572
 20
-35.77759259709872
 10
193.1705082594572
 20
-35.78261124509872
 10
193.1772362450572
 20
-35.78652616669872
 10
193.1817152626572
 20
-35.78916777949872
  0
LINE
  5
8A
330
2
100
AcDbEntity
  8
0
100
AcDbLine
 10
216.7197519250572
 20
-39.83224267869873
 30
0.0
 11
216.7166685362572
 21
-39.27258882909873
 31
0.0
  0
LWPOLYLINE
  5
8B
330
2
100
AcDbEntity
  8
0
100
AcDbPolyline
 90
       20
 70
     0
 43
0.0
 10
202.9713158850572
 20
-41.82204292669872
 10
203.0053047106572
 20
-41.62489268349872
 10
203.0443453618572
 20
-41.40424153629872
 10
203.0880788882572
 20
-41.15979958429873
 10
203.1359748018572
 20
-40.88908995229873
 10
203.1870930674572
 20
-40.59056165149873
 10
203.2395941666572
 20
-40.26772018909873
 10
203.2913588530572
 20
-39.92687593789872
 10
203.3451976450572
 20
-39.54557072989873
 10
203.4016372386572
 20
-39.11645304669873
 10
203.4607773858572
 20
-38.63290424189873
 10
203.5224178402572
 20
-38.08798617949872
 10
203.5852651730572
 20
-37.59623874429873
 10
203.6429489954572
 20
-36.99136802589872
 10
203.6910680818572
 20
-36.44330224509872
 10
203.7307456098572
 20
-35.95606715869873
 10
203.7639954530572
 20
-35.51825351069872
 10
203.7918902306572
 20
-35.12561839389872
 10
203.8156885986572
 20
-34.77214345469873
 10
203.8363776994572
 20
-34.45306757309873
  0
LWPOLYLINE
  5
8C
330
2
100
AcDbEntity
  8
0
100
AcDbPolyline
 90
       21
 70
     0
 43
0.0
 10
205.7187236082572
 20
-41.82204292669872
 10
205.6847347826572
 20
-41.62489268349872
 10
205.6456941298572
 20
-41.40424153629872
 10
205.6019606050572
 20
-41.15979958429873
 10
205.5540646914572
 20
-40.88908995229873
 10
205.5029464258572
 20
-40.59056165149873
 10
205.4504453266572
 20
-40.26772018909873
 10
205.3986806402572
 20
-39.92687593789872
 10
205.3448418482572
 20
-39.54557072989873
 10
205.2884022530572
 20
-39.11645304669873
 10
205.2292621074572
 20
-38.63290424189873
 10
205.1676216514572
 20
-38.08798617949872
 10
205.1047743202572
 20
-37.59623874429873
 10
205.0470904978572
 20
-36.99136802589872
 10
204.9989714114572
 20
-36.44330224509872
 10
204.9592938834572
 20
-35.95606715869873
 10
204.9260440402572
 20
-35.51825351069872
 10
204.8981492626572
 20
-35.12561839389872
 10
204.8743508946572
 20
-34.77214345469873
 10
204.8536617938572
 20
-34.45306757309873
 10
204.8188687986572
 20
-33.90587134909872
  0
LWPOLYLINE
  5
8D
330
2
100
AcDbEntity
  8
0
100
AcDbPolyline
 90
       36
 70
     0
 43
0.0
 10
203.1176899458572
 20
-32.49715004029873
 10
203.1040876850572
 20
-32.67813993149872
 10
203.0880025442572
 20
-32.87602288829873
 10
203.0684971538572
 20
-33.09296918109873
 10
203.0444937842572
 20
-33.33163943709873
 10
203.0149148482572
 20
-33.59566757469873
 10
202.9785311426572
 20
-33.88987142909872
 10
202.9339154034572
 20
-34.21797188189872
 10
202.8796211490572
 20
-34.58194648509872
 10
202.8176865330572
 20
-34.96273235389873
 10
202.7516785234572
 20
-35.33742211389872
 10
202.6831635378572
 20
-35.70011546429872
 10
202.6116519858572
 20
-36.05639048509872
 10
202.5338669202572
 20
-36.42189208669872
 10
202.4442832114572
 20
-36.81937504509873
 10
202.3377500626572
 20
-37.26578124349873
 10
202.2214750738572
 20
-37.72449502589872
 10
202.1046311522572
 20
-38.04804478429873
 10
201.9934644930572
 20
-38.44189518909873
 10
201.8893189250572
 20
-38.79380767229873
 10
201.7909400642572
 20
-39.11268323869872
 10
201.6974919730572
 20
-39.40447387229873
 10
201.6089710850572
 20
-39.67170213789872
 10
201.5253412018572
 20
-39.91702960349873
 10
201.4468696066572
 20
-40.14168430109872
 10
201.3738714898572
 20
-40.34630125309873
 10
201.3065394642572
 20
-40.53171574109873
 10
201.2446735506572
 20
-40.69960462109873
 10
201.1874271106572
 20
-40.85308980189873
 10
201.1333894994572
 20
-40.99649979389872
 10
201.0810422466572
 20
-41.13416564669873
 10
201.0287464466572
 20
-41.27009201149873
 10
200.9756300114572
 20
-41.40592951229873
 10
200.9213945570572
 20
-41.54176854589873
 10
200.8659981938572
 20
-41.67703629469873
 10
200.8093616002572
 20
-41.81129264669873
  0
LWPOLYLINE
  5
8E
330
2
100
AcDbEntity
  8
0
100
AcDbPolyline
 90
       37
 70
     0
 43
0.0
 10
205.5492846050572
 20
-32.17867451709873
 10
205.5723505890572
 20
-32.49714982749872
 10
205.5859528786572
 20
-32.67813914429872
 10
205.6020380194572
 20
-32.87602128029873
 10
205.6215433538572
 20
-33.09296761469873
 10
205.6455466402572
 20
-33.33163833629873
 10
205.6751254850572
 20
-33.59566624509872
 10
205.7115090770572
 20
-33.88987002749873
 10
205.7561246770572
 20
-34.21797076189872
 10
205.8104187474572
 20
-34.58194521149872
 10
205.8723531250572
 20
-34.96273108189872
 10
205.9383609570572
 20
-35.33742158429872
 10
206.0068756386572
 20
-35.70011244669872
 10
206.0783874514572
 20
-36.05639602269873
 10
206.1561724626572
 20
-36.42189145629873
 10
206.2457562418572
 20
-36.81937516509872
 10
206.3522894402572
 20
-37.26577974589872
 10
206.4685642898572
 20
-37.72448786909873
 10
206.5854082610572
 20
-38.04804636829873
 10
206.6965750130572
 20
-38.44189658749873
 10
206.8007204018572
 20
-38.79380843709873
 10
206.8990991922572
 20
-39.11268402909873
 10
206.9925471954572
 20
-39.40447467229873
 10
207.0810680066572
 20
-39.67170306109873
 10
207.1646977698572
 20
-39.91703028509873
 10
207.2431692626572
 20
-40.14168410109873
 10
207.3161674626572
 20
-40.34630191229872
 10
207.3834995410572
 20
-40.53171670429873
 10
207.4453653906572
 20
-40.69960525789872
 10
207.5026119602572
 20
-40.85309048349873
 10
207.5566496578572
 20
-40.99650050589873
 10
207.6089969186572
 20
-41.13416620189872
 10
207.6612928418572
 20
-41.27009240669873
 10
207.7144093474572
 20
-41.40593014589873
 10
207.7686449698572
 20
-41.54176897149873
 10
207.8240411874572
 20
-41.67703611389873
 10
207.8806778930572
 20
-41.81129264669873
  0
LWPOLYLINE
  5
8F
330
2
100
AcDbEntity
  8
0
100
AcDbPolyline
 90
       51
 70
     0
 43
0.0
 10
214.3913384578572
 20
-44.58126293789873
 10
214.4648811474572
 20
-44.56983061949872
 10
214.5225132578572
 20
-44.55977588189873
 10
214.5712229682572
 20
-44.54996698909872
 10
214.6141371970572
 20
-44.53985371869872
 10
214.6510133666572
 20
-44.52946593149873
 10
214.6815609746572
 20
-44.51887210589872
 10
214.7056677490572
 20
-44.50811834749873
 10
214.7232157602572
 20
-44.49727878429873
 10
214.7341514770572
 20
-44.48644626909873
 10
214.7386126242572
 20
-44.47569307709873
 10
214.7368431986572
 20
-44.46507839229872
 10
214.7291118210572
 20
-44.45466922749873
 10
214.7157571730572
 20
-44.44450141149872
 10
214.6971807954572
 20
-44.43460790749873
 10
214.6738339810572
 20
-44.42503858109873
 10
214.6461118882572
 20
-44.41581253789872
 10
214.6144682850572
 20
-44.40695038909873
 10
214.5793887026572
 20
-44.39846644509873
 10
214.5411370050572
 20
-44.39032305309873
 10
214.4997737138572
 20
-44.38246092349873
 10
214.4555474306572
 20
-44.37487176189873
 10
214.4087846914572
 20
-44.36756354109873
 10
214.3598230498572
 20
-44.36054305149872
 10
214.3088113506572
 20
-44.35378729309873
 10
214.2553195954572
 20
-44.34720483389873
 10
214.1989677266572
 20
-44.34073138749872
 10
214.1396455554572
 20
-44.33434311869873
 10
214.0772465602572
 20
-44.32801811229873
 10
214.0116217186572
 20
-44.32173519229873
 10
213.9425579730572
 20
-44.31547126269872
 10
213.8699801218572
 20
-44.30921852189873
 10
213.7939596562572
 20
-44.30298289309873
 10
213.7144407746572
 20
-44.29676013469872
 10
213.6313077554572
 20
-44.29054282109873
 10
213.5444702514572
 20
-44.28432709789873
 10
213.4538683090572
 20
-44.27811183549873
 10
213.3592697074572
 20
-44.27188406589873
 10
213.2601845746572
 20
-44.26561680349872
 10
213.1563927890572
 20
-44.25930393309872
 10
213.0479733122572
 20
-44.25295941789872
 10
212.9351140754572
 20
-44.24660275229872
 10
212.8179685426572
 20
-44.24024820189873
 10
212.6945644338572
 20
-44.23379554909873
 10
212.5711603138572
 20
-44.22756500349873
 10
212.4577906082572
 20
-44.22201548189873
 10
212.3537928770572
 20
-44.21705505149873
 10
212.2570261650572
 20
-44.21254024509873
 10
212.1663912146572
 20
-44.20839262429873
 10
212.0812774082572
 20
-44.20456583549873
 10
211.9192614914572
 20
-44.19746268029872
  0
LWPOLYLINE
  5
90
330
2
100
AcDbEntity
  8
0
100
AcDbPolyline
 90
        4
 70
     0
 43
0.0
 10
214.1915763890572
 20
-44.61004909949873
 10
213.8974777618572
 20
-44.60976883869872
 10
213.5932499794572
 20
-44.60948698429873
 10
210.8123319938572
 20
-44.60725458909872
  0
LWPOLYLINE
  5
91
330
2
100
AcDbEntity
  8
0
100
AcDbPolyline
 90
        7
 70
     0
 43
0.0
 10
212.3446959394572
 20
-46.10483533149873
 10
212.4401742578572
 20
-46.14247902429872
 10
212.5282571762572
 20
-46.16945966749873
 10
212.6016700498572
 20
-46.18351869469873
 10
212.6545547042572
 20
-46.18353074429872
 10
212.6826625490572
 20
-46.16949197309873
 10
212.6846101490572
 20
-46.16615536029873
  0
LWPOLYLINE
  5
92
330
2
100
AcDbEntity
  8
0
100
AcDbPolyline
 90
        6
 70
     0
 43
0.0
 10
212.3446959394572
 20
-46.50777818909872
 10
212.4368064850572
 20
-46.47032773017076
 10
212.5218874274572
 20
-46.39287301863748
 10
212.5956553778572
 20
-46.28642556509872
 10
212.6544166930572
 20
-46.21919733469872
 10
212.6846101490572
 20
-46.16615536029873
  0
LINE
  5
93
330
2
100
AcDbEntity
  8
0
100
AcDbLine
 10
212.6144526594572
 20
-45.52583289309873
 30
0.0
 11
212.3446959394572
 21
-46.10483533149873
 31
0.0
  0
LWPOLYLINE
  5
94
330
2
100
AcDbEntity
  8
0
100
AcDbPolyline
 90
        3
 70
     0
 43
0.0
 10
211.8054388338572
 20
-45.56827743869873
 10
212.1233990914572
 20
-45.55244503549872
 10
214.1315649330572
 20
-45.56861455549873
  0
LWPOLYLINE
  5
95
330
2
100
AcDbEntity
  8
0
100
AcDbPolyline
 90
       23
 70
     0
 43
0.0
 10
202.3127467970572
 20
-44.10135381789873
 10
202.3464724258572
 20
-44.09794061309873
 10
202.3797671634572
 20
-44.09393390589873
 10
202.4132458978572
 20
-44.08849724989873
 10
202.4470719426572
 20
-44.07939779549873
 10
202.4811010562572
 20
-44.06207447549873
 10
202.5154291154572
 20
-44.03031108989873
 10
202.5474965442572
 20
-43.98337477469873
 10
202.5759777970572
 20
-43.92471481309873
 10
202.6024339618572
 20
-43.85386956509873
 10
202.6276008626572
 20
-43.77152322909873
 10
202.6519099058572
 20
-43.67795112349873
 10
202.6756837314572
 20
-43.57346353949873
 10
202.6995685234572
 20
-43.45665848189873
 10
202.7243911586572
 20
-43.32484445469872
 10
202.7503445762572
 20
-43.17794355069873
 10
202.7774610306572
 20
-43.01698849149873
 10
202.8057442194572
 20
-42.84354627389872
 10
202.8351526594572
 20
-42.65990126749873
 10
202.8663898258572
 20
-42.46409559709873
 10
202.8996163874572
 20
-42.25699274269873
 10
202.9344540482572
 20
-42.04283300829873
 10
202.9713104274572
 20
-41.82204289629873
  0
LWPOLYLINE
  5
96
330
2
100
AcDbEntity
  8
0
100
AcDbPolyline
 90
       23
 70
     0
 43
0.0
 10
206.3772926962572
 20
-44.10135381789873
 10
206.3435670674572
 20
-44.09794061309873
 10
206.3102723282572
 20
-44.09393390589873
 10
206.2767935954572
 20
-44.08849724989873
 10
206.2429675490572
 20
-44.07939779549873
 10
206.2089384370572
 20
-44.06207447549873
 10
206.1746103778572
 20
-44.03031108989873
 10
206.1425429474572
 20
-43.98337477469873
 10
206.1140616962572
 20
-43.92471481309873
 10
206.0876055314572
 20
-43.85386956509873
 10
206.0624386306572
 20
-43.77152322909873
 10
206.0381295874572
 20
-43.67795112349873
 10
206.0143557602572
 20
-43.57346353949873
 10
205.9904709698572
 20
-43.45665848189873
 10
205.9656483346572
 20
-43.32484445469872
 10
205.9396949154572
 20
-43.17794355069873
 10
205.9125784626572
 20
-43.01698849149873
 10
205.8842952738572
 20
-42.84354627389872
 10
205.8548868338572
 20
-42.65990126749873
 10
205.8236496674572
 20
-42.46409559709873
 10
205.7904231042572
 20
-42.25699274269873
 10
205.7555854450572
 20
-42.04283300829873
 10
205.7187290658572
 20
-41.82204289629873
  0
LWPOLYLINE
  5
97
330
2
100
AcDbEntity
  8
0
100
AcDbPolyline
 90
       26
 70
     0
 43
0.0
 10
207.8806779186572
 20
-41.81129263389872
 10
207.9459421266572
 20
-41.96959188829873
 10
208.0135079442572
 20
-42.12666328669873
 10
208.0833462434572
 20
-42.28133981629873
 10
208.1556576162572
 20
-42.43297216989873
 10
208.2308623250572
 20
-42.58147338749873
 10
208.3094028882572
 20
-42.72682280349872
 10
208.3914030994572
 20
-42.86845203389872
 10
208.4770386194572
 20
-43.00572688669872
 10
208.5666229250572
 20
-43.13821744829873
 10
208.6604349250572
 20
-43.26542154109873
 10
208.7589211490572
 20
-43.38711104829872
 10
208.8624252450572
 20
-43.50307647229873
 10
208.9707667362572
 20
-43.61266235389872
 10
209.0832217218572
 20
-43.71468388349873
 10
209.1986564642572
 20
-43.80772063229873
 10
209.3089010626572
 20
-43.88624083069873
 10
209.4076782770572
 20
-43.94857750269873
 10
209.4931343106572
 20
-43.99667000989873
 10
209.5672184274572
 20
-44.03407256829873
 10
209.6311722002572
 20
-44.06317402109872
 10
209.6857613730572
 20
-44.08571986909873
 10
209.7314250290572
 20
-44.10300043069873
 10
209.7685388162572
 20
-44.11598008829872
 10
209.7974373250572
 20
-44.12540083869873
 10
209.8309003730572
 20
-44.13577560509873
  0
LINE
  5
98
330
2
100
AcDbEntity
  8
0
100
AcDbLine
 10
207.0580632786572
 20
-44.60533818589873
 30
0.0
 11
205.2582762434572
 21
-44.60493637149872
 31
0.0
  0
LWPOLYLINE
  5
99
330
2
100
AcDbEntity
  8
0
100
AcDbPolyline
 90
        7
 70
     0
 43
0.0
 10
206.3772959506572
 20
-44.10135223869873
 10
205.9696023778572
 20
-44.09979146589873
 10
205.5908976610572
 20
-44.09867328669872
 10
205.2416927906572
 20
-44.09790934429873
 10
204.9212422722572
 20
-44.09742841949873
 10
204.6242132226572
 20
-44.09716861149873
 10
204.3450196962572
 20
-44.09708832509873
  0
ARC
  5
9A
330
2
100
AcDbEntity
  8
0
100
AcDbCircle
 10
206.3541067074572
 20
-46.00777818909873
 30
0.0
 40
0.5
100
AcDbArc
 50
191.9910694595
 51
270.0
  0
LWPOLYLINE
  5
9B
330
2
100
AcDbEntity
  8
0
100
AcDbPolyline
 90
        9
 70
     0
 43
0.0
 10
205.9425196722572
 20
-46.09371213949873
 10
206.0368765618572
 20
-46.08454876509873
 10
206.1604819810572
 20
-46.07622630109872
 10
206.3047484658572
 20
-46.06924125789872
 10
206.4597097138572
 20
-46.06386904189873
 10
206.6149996002572
 20
-46.06022313149873
 10
206.7599721970572
 20
-46.05836876989872
 10
206.8844052130572
 20
-46.05836674109872
 10
206.9796622962572
 20
-46.06026776829873
  0
LWPOLYLINE
  5
9C
330
2
100
AcDbEntity
  8
0
100
AcDbPolyline
 90
       14
 70
     0
 43
0.0
 10
207.6221657234572
 20
-45.72430544029873
 10
207.5514327346572
 20
-45.71708094749872
 10
207.4328266018572
 20
-45.71239363069873
 10
207.2673006002572
 20
-45.71041365149873
 10
207.0634527666572
 20
-45.71095131869873
 10
206.8322744354572
 20
-45.71379224029873
 10
206.5847610370572
 20
-45.71885850429873
 10
206.3319088018572
 20
-45.72622174909873
 10
206.0846496786572
 20
-45.73591305469872
 10
205.8538507730572
 20
-45.74780027549873
 10
205.6503734514572
 20
-45.76161561469873
 10
205.4850691506572
 20
-45.77688590589873
 10
205.3662863458572
 20
-45.79290817789873
 10
205.2951539650572
 20
-45.80876964989872
  0
LWPOLYLINE
  5
9D
330
2
100
AcDbEntity
  8
0
100
AcDbPolyline
 90
       15
 70
     0
 43
0.0
 10
207.4186799858572
 20
-45.74181769469872
 10
207.3963077986572
 20
-45.73313559869872
 10
207.3271075954572
 20
-45.72679751069872
 10
207.2141837378572
 20
-45.72286224349872
 10
207.0624170274572
 20
-45.72135489309872
 10
206.8788971986572
 20
-45.72226923389872
 10
206.6737597938572
 20
-45.72555783549873
 10
206.4575670994572
 20
-45.73115414109873
 10
206.2408238162572
 20
-45.73900310589873
 10
206.0341059842572
 20
-45.74901075869873
 10
205.8477789618572
 20
-45.76095881629873
 10
205.6924225682572
 20
-45.77434527709873
 10
205.5760640690572
 20
-45.78848741629872
 10
205.5047479474572
 20
-45.80251674269873
 10
205.4820719554572
 20
-45.81549812509872
  0
LWPOLYLINE
  5
9E
330
2
100
AcDbEntity
  8
0
100
AcDbPolyline
 90
       15
 70
     0
 43
0.0
 10
205.2687247778572
 20
-45.76112052989873
 10
205.2988264546572
 20
-45.74447363869873
 10
205.3844695490572
 20
-45.72720215869873
 10
205.5236078514572
 20
-45.71021808349873
 10
205.7124809314572
 20
-45.69441413469873
 10
205.9408107906572
 20
-45.68042166749872
 10
206.1973578226572
 20
-45.66866020989873
 10
206.4705008962572
 20
-45.65941476509872
 10
206.7426165138572
 20
-45.65292353629873
 10
206.9974684002572
 20
-45.64910073149873
 10
207.2213371602572
 20
-45.64788473629873
 10
207.4038796962572
 20
-45.64939107069873
 10
207.5356820850572
 20
-45.65382156509873
 10
207.6158323746572
 20
-45.66113480829873
 10
207.6436115314572
 20
-45.67136776509872
  0
LINE
  5
9F
330
2
100
AcDbEntity
  8
0
100
AcDbLine
 10
210.4002573538572
 20
-46.50777818909872
 30
0.0
 11
206.0261046754572
 21
-46.50777818909872
 31
0.0
  0
ARC
  5
A0
330
2
100
AcDbEntity
  8
0
100
AcDbCircle
 10
205.5691896674572
 20
-46.39447006749873
 30
0.0
 40
0.3749999904
100
AcDbArc
 50
26.2272699739
 51
91.68346853480001
  0
ARC
  5
A1
330
2
100
AcDbEntity
  8
0
100
AcDbCircle
 10
202.9408873010572
 20
-46.45325339549873
 30
0.0
 40
0.3749999664
100
AcDbArc
 50
90.8520187358
 51
149.3950635939
  0
LINE
  5
A2
330
2
100
AcDbEntity
  8
0
100
AcDbLine
 10
202.9353110434572
 20
-46.07829391869873
 30
0.0
 11
202.9373653426572
 21
-46.07326183709872
 31
0.0
  0
LWPOLYLINE
  5
A3
330
2
100
AcDbEntity
  8
0
100
AcDbPolyline
 90
        3
 70
     0
 43
0.0
 10
202.9353110434572
 20
-46.07829391869873
 10
203.1029235698572
 20
-46.07571622429873
 10
203.2663440610572
 20
-46.07303852349873
  0
LWPOLYLINE
  5
A4
330
2
100
AcDbEntity
  8
0
100
AcDbPolyline
 90
        5
 70
     0
 43
0.0
 10
202.9886129346572
 20
-45.95493617309872
 10
202.8819578226572
 20
-45.97415935709872
 10
202.7853090402572
 20
-46.02305877789873
 10
202.7067471874572
 20
-46.09754605949873
 10
202.6528406514572
 20
-46.19139347709873
  0
LWPOLYLINE
  5
A5
330
2
100
AcDbEntity
  8
0
100
AcDbPolyline
 90
        6
 70
     0
 43
0.0
 10
205.4820720418572
 20
-45.81550013309873
 10
205.5865844322572
 20
-45.82563561469873
 10
205.6841651170572
 20
-45.86431329469873
 10
205.7671611490572
 20
-45.92849980029873
 10
205.8290634114572
 20
-46.01316118429873
 10
205.8650171058572
 20
-46.11165771869873
  0
ARC
  5
A6
330
2
100
AcDbEntity
  8
0
100
AcDbCircle
 10
201.2358626770572
 20
-46.46952844189873
 30
0.0
 40
0.3749999968
100
AcDbArc
 50
32.6490821387
 51
90.23220042280001
  0
LINE
  5
A7
330
2
100
AcDbEntity
  8
0
100
AcDbLine
 10
201.2164112466572
 20
-46.07028633789872
 30
0.0
 11
201.2265129586572
 21
-46.08537899869872
 31
0.0
  0
LWPOLYLINE
  5
A8
330
2
100
AcDbEntity
  8
0
100
AcDbPolyline
 90
        5
 70
     0
 43
0.0
 10
201.1790899042572
 20
-46.00162123709873
 10
201.2859789746572
 20
-46.01516238909873
 10
201.3845536514572
 20
-46.05852166589873
 10
201.4666683378572
 20
-46.12811612669872
 10
201.5255375906572
 20
-46.21819491709873
  0
LWPOLYLINE
  5
A9
330
2
100
AcDbEntity
  8
0
100
AcDbPolyline
 90
        3
 70
     0
 43
0.0
 10
200.8960317618572
 20
-46.00479684669873
 10
200.8950536162572
 20
-46.05475473949873
 10
200.8936042530572
 20
-46.08406555389873
  0
LINE
  5
AA
330
2
100
AcDbEntity
  8
0
100
AcDbLine
 10
205.8013521570572
 20
-46.10483533149873
 30
0.0
 11
202.8049686530572
 21
-46.10483533149873
 31
0.0
  0
LINE
  5
AB
330
2
100
AcDbEntity
  8
0
100
AcDbLine
 10
206.0261046754572
 20
-46.50777818909872
 30
0.0
 11
201.6510508946572
 21
-46.50777818909872
 31
0.0
  0
LINE
  5
AC
330
2
100
AcDbEntity
  8
0
100
AcDbLine
 10
202.6006567154572
 20
-46.17946605149873
 30
0.0
 11
202.5339513330572
 21
-46.17522164029873
 31
0.0
  0
LWPOLYLINE
  5
AD
330
2
100
AcDbEntity
  8
0
100
AcDbPolyline
 90
        3
 70
     0
 43
0.0
 10
202.6528406306572
 20
-46.19139315229872
 10
202.6409773682572
 20
-46.18495076989873
 10
202.6006567154572
 20
-46.17946605149873
  0
ARC
  5
AE
330
2
100
AcDbEntity
  8
0
100
AcDbCircle
 10
201.9791067074572
 20
-46.00777818909873
 30
0.0
 40
0.5
100
AcDbArc
 50
204.8872106300999
 51
270.0
  0
LINE
  5
AF
330
2
100
AcDbEntity
  8
0
100
AcDbLine
 10
200.8936042530572
 20
-46.08406555389873
 30
0.0
 11
200.8935289906572
 21
-46.08942160029872
 31
0.0
  0
LINE
  5
B0
330
2
100
AcDbEntity
  8
0
100
AcDbLine
 10
200.8935289906572
 20
-46.08942160029872
 30
0.0
 11
200.8939108802572
 21
-46.09451200349872
 31
0.0
  0
LINE
  5
B1
330
2
100
AcDbEntity
  8
0
100
AcDbLine
 10
200.8942888370572
 20
-46.09512474109872
 30
0.0
 11
200.8939489314572
 21
-46.09457608189873
 31
0.0
  0
LINE
  5
B2
330
2
100
AcDbEntity
  8
0
100
AcDbLine
 10
201.6429506450572
 20
-46.19655001949872
 30
0.0
 11
201.5769245170572
 21
-46.20404249789873
 31
0.0
  0
LINE
  5
B3
330
2
100
AcDbEntity
  8
0
100
AcDbLine
 10
200.8958722882572
 20
-46.09554543549872
 30
0.0
 11
200.8956266898572
 21
-46.09560144509873
 31
0.0
  0
LINE
  5
B4
330
2
100
AcDbEntity
  8
0
100
AcDbLine
 10
200.8939108802572
 20
-46.09451200349872
 30
0.0
 11
200.8950040898572
 21
-46.09554735229873
 31
0.0
  0
LINE
  5
B5
330
2
100
AcDbEntity
  8
0
100
AcDbLine
 10
201.2338654754572
 20
-46.09423313469873
 30
0.0
 11
201.2343464642572
 21
-46.09453185629873
 31
0.0
  0
LINE
  5
B6
330
2
100
AcDbEntity
  8
0
100
AcDbLine
 10
202.1877755330572
 20
-46.50777818909872
 30
0.0
 11
201.9791067074572
 21
-46.50777818909872
 31
0.0
  0
LINE
  5
B7
330
2
100
AcDbEntity
  8
0
100
AcDbLine
 10
200.8950133330572
 20
-46.09554733309873
 30
0.0
 11
201.0381612866572
 21
-46.09519839709872
 31
0.0
  0
LINE
  5
B8
330
2
100
AcDbEntity
  8
0
100
AcDbLine
 10
201.0359059234572
 20
-46.09520349309873
 30
0.0
 11
201.2343429346572
 21
-46.09453188349873
 31
0.0
  0
LINE
  5
B9
330
2
100
AcDbEntity
  8
0
100
AcDbLine
 10
200.8950040898572
 20
-46.09554735229873
 30
0.0
 11
200.8959458114572
 21
-46.09551969629873
 31
0.0
  0
LWPOLYLINE
  5
BA
330
2
100
AcDbEntity
  8
0
100
AcDbPolyline
 90
        3
 70
     0
 43
0.0
 10
200.8951262530572
 20
-46.09560069149873
 10
200.8947039874572
 20
-46.09545876989872
 10
200.8942888370572
 20
-46.09512474109872
  0
LWPOLYLINE
  5
BB
330
2
100
AcDbEntity
  8
0
100
AcDbPolyline
 90
        3
 70
     0
 43
0.0
 10
201.5769245170572
 20
-46.20404249789873
 10
201.5370915618572
 20
-46.21139361629873
 10
201.5255377314572
 20
-46.21819488029873
  0
LWPOLYLINE
  5
BC
330
2
100
AcDbEntity
  8
0
100
AcDbPolyline
 90
        3
 70
     0
 43
0.0
 10
201.2265129586572
 20
-46.08537899869872
 10
201.2317265442572
 20
-46.09206976189873
 10
201.2338654754572
 20
-46.09423313469873
  0
ARC
  5
BD
330
2
100
AcDbEntity
  8
0
100
AcDbCircle
 10
202.1877755330572
 20
-46.00777818909873
 30
0.0
 40
0.5
100
AcDbArc
 50
270.0
 51
338.455105016
  0
LWPOLYLINE
  5
BE
330
2
100
AcDbEntity
  8
0
100
AcDbPolyline
 90
        9
 70
     0
 43
0.0
 10
202.5339513330572
 20
-46.17522164029873
 10
202.4441232738572
 20
-46.17241929629872
 10
202.3359590914572
 20
-46.17121396989873
 10
202.2149941058572
 20
-46.17169016829873
 10
202.0874548034572
 20
-46.17386664829872
 10
201.9600444674572
 20
-46.17767498269873
 10
201.8393836706572
 20
-46.18294176349873
 10
201.7318368066572
 20
-46.18936925469873
 10
201.6429506450572
 20
-46.19655001949872
  0
LWPOLYLINE
  5
BF
330
2
100
AcDbEntity
  8
0
100
AcDbPolyline
 90
        3
 70
     0
 43
0.0
 10
205.8650167154572
 20
-46.11165783389873
 10
205.8838812002572
 20
-46.10301865629873
 10
205.9425196722572
 20
-46.09371213949873
  0
LINE
  5
C0
330
2
100
AcDbEntity
  8
0
100
AcDbLine
 10
202.5255151330572
 20
-44.60509023869873
 30
0.0
 11
203.8879143682572
 21
-44.60489742589873
 31
0.0
  0
LWPOLYLINE
  5
C1
330
2
100
AcDbEntity
  8
0
100
AcDbPolyline
 90
        7
 70
     0
 43
0.0
 10
202.3127435426572
 20
-44.10135223869873
 10
202.7204371154572
 20
-44.09979146589873
 10
203.0991418322572
 20
-44.09867328669872
 10
203.4483467026572
 20
-44.09790934429873
 10
203.7687972210572
 20
-44.09742841949873
 10
204.0658262690572
 20
-44.09716861149873
 10
204.3450197954572
 20
-44.09708832509873
  0
LWPOLYLINE
  5
C2
330
2
100
AcDbEntity
  8
0
100
AcDbPolyline
 90
       14
 70
     0
 43
0.0
 10
203.2469649202572
 20
-45.93014402269872
 10
203.1759574098572
 20
-45.91829488349873
 10
203.0572350994572
 20
-45.90880246429873
 10
202.8917883890572
 20
-45.90233595549872
 10
202.6880101170572
 20
-45.89898004829873
 10
202.4569069954572
 20
-45.89868815229873
 10
202.2094932402572
 20
-45.90153441149873
 10
201.9567815154572
 20
-45.90768541789873
 10
201.7096838242572
 20
-45.91702572029872
 10
201.4790050578572
 20
-45.92906026269873
 10
201.2755432706572
 20
-45.94319944189872
 10
201.1100938882572
 20
-45.95876115069873
 10
200.9910914658572
 20
-45.97489636829872
 10
200.9197777570572
 20
-45.99054088829872
  0
LWPOLYLINE
  5
C3
330
2
100
AcDbEntity
  8
0
100
AcDbPolyline
 90
       83
 70
     0
 43
0.0
 10
200.8960317618572
 20
-46.00479684669873
 10
200.8968166466572
 20
-46.00233679389872
 10
200.8991711298572
 20
-45.99980389789872
 10
200.9030959554572
 20
-45.99720437949873
 10
200.9085918594572
 20
-45.99454446269873
 10
200.9156595858572
 20
-45.99183036989873
 10
200.9242998738572
 20
-45.98906832349872
 10
200.9345134642572
 20
-45.98626454749872
 10
200.9463010994572
 20
-45.98342526269873
 10
200.9596635170572
 20
-45.98055669309872
 10
200.9746014594572
 20
-45.97766506109873
 10
200.9911156658572
 20
-45.97475658909873
 10
201.0092068786572
 20
-45.97183749949873
 10
201.0288758370572
 20
-45.96891401629873
 10
201.0501232834572
 20
-45.96599236189873
 10
201.0729499570572
 20
-45.96307875869872
 10
201.0973565986572
 20
-45.96017942749873
 10
201.1233439490572
 20
-45.95730059389873
 10
201.1510765170572
 20
-45.95443053949873
 10
201.1803439586572
 20
-45.95159119229872
 10
201.2110801298572
 20
-45.94878620989873
 10
201.2432188882572
 20
-45.94601924669873
 10
201.2766940914572
 20
-45.94329396189873
 10
201.3114395986572
 20
-45.94061401149873
 10
201.3473892674572
 20
-45.93798305149873
 10
201.3844769538572
 20
-45.93540474109873
 10
201.4226365170572
 20
-45.93288273629872
 10
201.4618018146572
 20
-45.93042069469873
 10
201.5019067042572
 20
-45.92802227229873
 10
201.5428850434572
 20
-45.92569112669873
 10
201.5846706914572
 20
-45.92343091389873
 10
201.6271975042572
 20
-45.92124529149873
 10
201.6703993394572
 20
-45.91913791709873
 10
201.7142100562572
 20
-45.91711244829872
 10
201.7585635106572
 20
-45.91517253949873
 10
201.8033935618572
 20
-45.91332184989872
 10
201.8486340674572
 20
-45.91156403389873
 10
201.8942188850572
 20
-45.90990275229873
 10
201.9400818738572
 20
-45.90834165949873
 10
201.9861568882572
 20
-45.90688441309873
 10
202.0323777890572
 20
-45.90553467069873
 10
202.0786784322572
 20
-45.90429608829873
 10
202.1251021698572
 20
-45.90316909789873
 10
202.1714716386572
 20
-45.90215694909873
 10
202.2177188994572
 20
-45.90125912029873
 10
202.2637760162572
 20
-45.90047508829873
 10
202.3095750546572
 20
-45.89980433469873
 10
202.3550480786572
 20
-45.89924633789872
 10
202.4001271506572
 20
-45.89880057469873
 10
202.4447443346572
 20
-45.89846652509873
 10
202.4888316946572
 20
-45.89824366909873
 10
202.5323212962572
 20
-45.89813148349873
 10
202.5751452002572
 20
-45.89812944669873
 10
202.6172354722572
 20
-45.89823703869873
 10
202.6585241762572
 20
-45.89845373949873
 10
202.6989433762572
 20
-45.89877902589873
 10
202.7384251362572
 20
-45.89921237629872
 10
202.7769015186572
 20
-45.89975327229873
 10
202.8143045874572
 20
-45.90040118909873
 10
202.8505664082572
 20
-45.90115560669873
 10
202.8856190450572
 20
-45.90201600509873
 10
202.9193945586572
 20
-45.90298186269873
 10
202.9518250162572
 20
-45.90405265789873
 10
202.9828424802572
 20
-45.90522786909873
 10
203.0123790130572
 20
-45.90650697629873
 10
203.0403666818572
 20
-45.90788945629873
 10
203.0667343442572
 20
-45.90937326589872
 10
203.0914890210572
 20
-45.91095550429873
 10
203.1146326530572
 20
-45.91263186589872
 10
203.1361671778572
 20
-45.91439804829873
 10
203.1560945362572
 20
-45.91624974429873
 10
203.1744166658572
 20
-45.91818264989873
 10
203.1911355090572
 20
-45.92019246109873
 10
203.2062530034572
 20
-45.92227487069872
 10
203.2197710898572
 20
-45.92442557789873
 10
203.2316917058572
 20
-45.92664027549872
 10
203.2420167922572
 20
-45.92891465949873
 10
203.2507482882572
 20
-45.93124442589873
 10
203.2578881346572
 20
-45.93362526909873
 10
203.2634382690572
 20
-45.93605288349873
 10
203.2674006306572
 20
-45.93852296509872
 10
203.2697771602572
 20
-45.94103120989873
 10
203.2705697970572
 20
-45.94357331389873
  0
LWPOLYLINE
  5
C4
330
2
100
AcDbEntity
  8
0
100
AcDbPolyline
 90
       15
 70
     0
 43
0.0
 10
200.8951617938572
 20
-45.94239694269872
 10
200.9235880402572
 20
-45.92673425469873
 10
201.0054092850572
 20
-45.91004676989872
 10
201.1393985698572
 20
-45.89314996509872
 10
201.3235082546572
 20
-45.87707235229873
 10
201.5477598210572
 20
-45.86270788029873
 10
201.8022295410572
 20
-45.85075861789873
 10
202.0746140962572
 20
-45.84205139869872
 10
202.3478476402572
 20
-45.83722440509872
 10
202.6039551042572
 20
-45.83619596349873
 10
202.8311426418572
 20
-45.83866046269873
 10
203.0184983346572
 20
-45.84459181789873
 10
203.1555006242572
 20
-45.85401676509873
 10
203.2391078178572
 20
-45.86640681469872
 10
203.2682229922572
 20
-45.88122060349873
  0
LWPOLYLINE
  5
C5
330
2
100
AcDbEntity
  8
0
100
AcDbPolyline
 90
        4
 70
     0
 43
0.0
 10
202.9373653426572
 20
-46.07326183709872
 10
202.9456302050572
 20
-46.05475771069873
 10
202.9630819794572
 20
-46.01649253949872
 10
202.9886129362572
 20
-45.95493626429873
  0
LINE
  5
C6
330
2
100
AcDbEntity
  8
0
100
AcDbLine
 10
200.9197777570572
 20
-45.99054088829872
 30
0.0
 11
200.8960317618572
 21
-46.00479684669873
 31
0.0
  0
LINE
  5
C7
330
2
100
AcDbEntity
  8
0
100
AcDbLine
 10
200.8943712050572
 20
-45.98775101789873
 30
0.0
 11
200.8951617938572
 21
-45.94239694269872
 31
0.0
  0
LINE
  5
C8
330
2
100
AcDbEntity
  8
0
100
AcDbLine
 10
200.8951617938572
 20
-45.94239694269872
 30
0.0
 11
200.8960317618572
 21
-46.00479684669873
 31
0.0
  0
LINE
  5
C9
330
2
100
AcDbEntity
  8
0
100
AcDbLine
 10
201.1790898754572
 20
-46.00161948029873
 30
0.0
 11
201.2004689042572
 21
-46.04333276189873
 31
0.0
  0
LINE
  5
CA
330
2
100
AcDbEntity
  8
0
100
AcDbLine
 10
201.2004689042572
 20
-46.04333276189873
 30
0.0
 11
201.2164112466572
 21
-46.07028633789872
 31
0.0
  0
LINE
  5
CB
330
2
100
AcDbEntity
  8
0
100
AcDbLine
 10
200.7524980866572
 20
-44.60566618429872
 30
0.0
 11
202.5255151330572
 21
-44.60509023869873
 31
0.0
  0
LWPOLYLINE
  5
CC
330
2
100
AcDbEntity
  8
0
100
AcDbPolyline
 90
       15
 70
     0
 43
0.0
 10
202.9886129362572
 20
-45.95493626429873
 10
202.9698038850572
 20
-45.94371244349873
 10
202.9052426402572
 20
-45.93415716989873
 10
202.7982152722572
 20
-45.92676477949873
 10
202.6539347490572
 20
-45.92188960829872
 10
202.4800860210572
 20
-45.91980147069873
 10
202.2855805346572
 20
-45.92064749629872
 10
202.0804703138572
 20
-45.92445808989872
 10
201.8755920706572
 20
-45.93110978589873
 10
201.6816536242572
 20
-45.94029532669873
 10
201.5089339842572
 20
-45.95149152509873
 10
201.3663668690572
 20
-45.96398677629873
 10
201.2606773330572
 20
-45.97701602269872
 10
201.1971676162572
 20
-45.98979509629873
 10
201.1790898754572
 20
-46.00161948029873
  0
LINE
  5
CD
330
2
100
AcDbEntity
  8
0
100
AcDbLine
 10
205.2582762434572
 20
-44.60493637149872
 30
0.0
 11
203.8879143682572
 21
-44.60489742589873
 31
0.0
  0
LINE
  5
CE
330
2
100
AcDbEntity
  8
0
100
AcDbLine
 10
205.5551797746572
 20
-46.01437254109873
 30
0.0
 11
205.5581729858572
 21
-46.01963224829872
 31
0.0
  0
LINE
  5
CF
330
2
100
AcDbEntity
  8
0
100
AcDbLine
 10
205.2951539650572
 20
-45.80876964989872
 30
0.0
 11
205.2715015442572
 21
-45.82345851869873
 31
0.0
  0
LINE
  5
D0
330
2
100
AcDbEntity
  8
0
100
AcDbLine
 10
205.2680953298572
 20
-45.82342410589872
 30
0.0
 11
205.2687247778572
 21
-45.76112052989873
 31
0.0
  0
LINE
  5
D1
330
2
100
AcDbEntity
  8
0
100
AcDbLine
 10
205.2715015442572
 20
-45.82345851869873
 30
0.0
 11
205.2687247778572
 21
-45.76112052989873
 31
0.0
  0
LWPOLYLINE
  5
D2
330
2
100
AcDbEntity
  8
0
100
AcDbPolyline
 90
        3
 70
     0
 43
0.0
 10
205.2713786018572
 20
-45.86490701789872
 10
205.2714890370572
 20
-45.84403683229872
 10
205.2715015442572
 20
-45.82345851869873
  0
LINE
  5
D3
330
2
100
AcDbEntity
  8
0
100
AcDbLine
 10
204.3479020146572
 20
-45.86387299069873
 30
0.0
 11
205.2679701266572
 21
-45.83581688829872
 31
0.0
  0
LINE
  5
D4
330
2
100
AcDbEntity
  8
0
100
AcDbLine
 10
205.2703558642572
 20
-46.00938590749873
 30
0.0
 11
205.2671490594572
 21
-46.02499236829873
 31
0.0
  0
LINE
  5
D5
330
2
100
AcDbEntity
  8
0
100
AcDbLine
 10
205.2703423506572
 20
-45.96103280509873
 30
0.0
 11
205.2700836722572
 21
-45.97268900029873
 31
0.0
  0
LINE
  5
D6
330
2
100
AcDbEntity
  8
0
100
AcDbLine
 10
205.2711066274572
 20
-45.89503711229872
 30
0.0
 11
205.2703423506572
 21
-45.96103280509873
 31
0.0
  0
LINE
  5
D7
330
2
100
AcDbEntity
  8
0
100
AcDbLine
 10
205.2703258898572
 20
-45.96298156029873
 30
0.0
 11
205.2703423506572
 21
-45.96103280509873
 31
0.0
  0
LINE
  5
D8
330
2
100
AcDbEntity
  8
0
100
AcDbLine
 10
205.2700836722572
 20
-45.97268900029873
 30
0.0
 11
205.2700095074572
 21
-45.98194806909872
 31
0.0
  0
LINE
  5
D9
330
2
100
AcDbEntity
  8
0
100
AcDbLine
 10
205.2701886818572
 20
-45.98466868829873
 30
0.0
 11
205.2703258898572
 21
-45.96298156029873
 31
0.0
  0
LINE
  5
DA
330
2
100
AcDbEntity
  8
0
100
AcDbLine
 10
205.2700095074572
 20
-45.98194806909872
 30
0.0
 11
205.2703558642572
 21
-46.00938590749873
 31
0.0
  0
LINE
  5
DB
330
2
100
AcDbEntity
  8
0
100
AcDbLine
 10
205.2712130946572
 20
-46.02785923549872
 30
0.0
 11
205.2709933506572
 21
-46.02486437949873
 31
0.0
  0
LINE
  5
DC
330
2
100
AcDbEntity
  8
0
100
AcDbLine
 10
205.2671490594572
 20
-46.02499236829873
 30
0.0
 11
205.2712131346572
 21
-46.02785923389872
 31
0.0
  0
LWPOLYLINE
  5
DD
330
2
100
AcDbEntity
  8
0
100
AcDbPolyline
 90
        5
 70
     0
 43
0.0
 10
205.2709933506572
 20
-46.02486437949873
 10
205.2707834002572
 20
-46.02125082909873
 10
205.2705627954572
 20
-46.01632552349872
 10
205.2703735826572
 20
-46.01016271709872
 10
205.2703558642572
 20
-46.00938590749873
  0
LWPOLYLINE
  5
DE
330
2
100
AcDbEntity
  8
0
100
AcDbPolyline
 90
        3
 70
     0
 43
0.0
 10
205.2702481666572
 20
-46.00273152029873
 10
205.2701894546572
 20
-45.99420136189872
 10
205.2701886818572
 20
-45.98466868829873
  0
LINE
  5
DF
330
2
100
AcDbEntity
  8
0
100
AcDbLine
 10
203.2666174946572
 20
-46.00055484989873
 30
0.0
 11
203.2705697970572
 21
-45.94357331389873
 31
0.0
  0
LINE
  5
E0
330
2
100
AcDbEntity
  8
0
100
AcDbLine
 10
203.2657756914572
 20
-46.03835081469873
 30
0.0
 11
203.2666174946572
 21
-46.00055484989873
 31
0.0
  0
LINE
  5
E1
330
2
100
AcDbEntity
  8
0
100
AcDbLine
 10
203.2658461634572
 20
-46.04185221629872
 30
0.0
 11
203.2657756914572
 21
-46.03835081469873
 31
0.0
  0
LINE
  5
E2
330
2
100
AcDbEntity
  8
0
100
AcDbLine
 10
203.2688298818572
 20
-46.06550196669873
 30
0.0
 11
203.2658461634572
 21
-46.04185221629872
 31
0.0
  0
LINE
  5
E3
330
2
100
AcDbEntity
  8
0
100
AcDbLine
 10
203.2708707650572
 20
-46.07296435229873
 30
0.0
 11
203.2688298818572
 21
-46.06550196669873
 31
0.0
  0
LINE
  5
E4
330
2
100
AcDbEntity
  8
0
100
AcDbLine
 10
203.2705697970572
 20
-45.94357331389873
 30
0.0
 11
203.2469649202572
 21
-45.93014402269872
 31
0.0
  0
LWPOLYLINE
  5
E5
330
2
100
AcDbEntity
  8
0
100
AcDbPolyline
 90
        6
 70
     0
 43
0.0
 10
203.2705697970572
 20
-45.94357331389873
 10
203.2702916866572
 20
-45.95622427069873
 10
203.2695673714572
 20
-45.96835342909872
 10
203.2685820978572
 20
-45.97991476989872
 10
203.2675211138572
 20
-45.99086226749872
 10
203.2665696658572
 20
-46.00114990429872
  0
LINE
  5
E6
330
2
100
AcDbEntity
  8
0
100
AcDbLine
 10
203.2682229922572
 20
-45.88122060349873
 30
0.0
 11
203.2705697970572
 21
-45.94357331389873
 31
0.0
  0
LINE
  5
E7
330
2
100
AcDbEntity
  8
0
100
AcDbLine
 10
203.2682843042572
 20
-45.88443911229872
 30
0.0
 11
204.3479020146572
 21
-45.86387299069873
 31
0.0
  0
LINE
  5
E8
330
2
100
AcDbEntity
  8
0
100
AcDbLine
 10
205.2709746162572
 20
-45.90630535229872
 30
0.0
 11
205.2713786018572
 21
-45.86490701789872
 31
0.0
  0
LINE
  5
E9
330
2
100
AcDbEntity
  8
0
100
AcDbLine
 10
205.2715015442572
 20
-45.82345851869873
 30
0.0
 11
205.2711066274572
 21
-45.89503711229872
 31
0.0
  0
LWPOLYLINE
  5
EA
330
2
100
AcDbEntity
  8
0
100
AcDbPolyline
 90
        3
 70
     0
 43
0.0
 10
205.4820719554572
 20
-45.81549812509872
 10
205.4914718642572
 20
-45.85786507869872
 10
205.5032424306572
 20
-45.89736602909872
  0
LWPOLYLINE
  5
EB
330
2
100
AcDbEntity
  8
0
100
AcDbPolyline
 90
       36
 70
     0
 43
0.0
 10
205.2715015442572
 20
-45.82345851869873
 10
205.2722872114572
 20
-45.82090418429873
 10
205.2746562130572
 20
-45.81828001469872
 10
205.2786096146572
 20
-45.81559281949873
 10
205.2841484834572
 20
-45.81284940989873
 10
205.2912738882572
 20
-45.81005659869872
 10
205.2999868946572
 20
-45.80722119709872
 10
205.3102885714572
 20
-45.80435001629872
 10
205.3221799842572
 20
-45.80144986749873
 10
205.3356622002572
 20
-45.79852756189873
 10
205.3507362866572
 20
-45.79558991069872
 10
205.3674033122572
 20
-45.79264372829872
 10
205.3856643426572
 20
-45.78969582269873
 10
205.4055204450572
 20
-45.78675300669873
 10
205.4269726882572
 20
-45.78382209149872
 10
205.4500221378572
 20
-45.78090988829873
 10
205.4746698610572
 20
-45.77802320829873
 10
205.5009169250572
 20
-45.77516886429872
 10
205.5288499650572
 20
-45.77234335389873
 10
205.5583271538572
 20
-45.76955895709873
 10
205.5892813826572
 20
-45.76681737469873
 10
205.6216455474572
 20
-45.76412030909873
 10
205.6553525394572
 20
-45.76146946109872
 10
205.6903352514572
 20
-45.75886653149873
 10
205.7265265762572
 20
-45.75631322269873
 10
205.7638594082572
 20
-45.75381123549873
 10
205.8022666386572
 20
-45.75136227069872
 10
205.8416811618572
 20
-45.74896803229872
 10
205.8820358706572
 20
-45.74663021949873
 10
205.9232636578572
 20
-45.74435053309873
 10
205.9652974162572
 20
-45.74213067549872
 10
206.0080700370572
 20
-45.73997234909873
 10
206.0515144162572
 20
-45.73787725469872
 10
206.0955634450572
 20
-45.73584709149873
 10
206.1401500162572
 20
-45.73388356349872
 10
206.1852070242572
 20
-45.73198837149873
  0
LWPOLYLINE
  5
EC
330
2
100
AcDbEntity
  8
0
100
AcDbPolyline
 90
        3
 70
     0
 43
0.0
 10
205.5581729858572
 20
-46.01963224829872
 10
205.4146161650572
 20
-46.02379995869873
 10
205.2712130562572
 20
-46.02785923709872
  0
LWPOLYLINE
  5
ED
330
2
100
AcDbEntity
  8
0
100
AcDbPolyline
 90
        6
 70
     0
 43
0.0
 10
205.5032424306572
 20
-45.89736602909872
 10
205.5158591266572
 20
-45.93192163709873
 10
205.5279435698572
 20
-45.96051447549873
 10
205.5387876834572
 20
-45.98342791869873
 10
205.5480506434572
 20
-46.00137854109873
 10
205.5551797746572
 20
-46.01437254109873
  0
ARC
  5
EE
330
2
100
AcDbEntity
  8
0
100
AcDbCircle
 10
210.7291067074572
 20
-46.00777818909873
 30
0.0
 40
0.5
100
AcDbArc
 50
185.0000000011
 51
270.0
  0
ARC
  5
EF
330
2
100
AcDbEntity
  8
0
100
AcDbCircle
 10
210.9377755330572
 20
-46.00777818909873
 30
0.0
 40
0.5
100
AcDbArc
 50
270.0
 51
355.0
  0
ARC
  5
F0
330
2
100
AcDbEntity
  8
0
100
AcDbCircle
 10
211.8038610162572
 20
-46.13236136349873
 30
0.0
 40
0.3750000016
100
AcDbArc
 50
92.96221688640001
 51
171.8143468798
  0
ARC
  5
F1
330
2
100
AcDbEntity
  8
0
100
AcDbCircle
 10
209.8820834338572
 20
-46.22727021789873
 30
0.0
 40
0.3750000432
100
AcDbArc
 50
14.5276116881
 51
92.6763144146
  0
ARC
  5
F2
330
2
100
AcDbEntity
  8
0
100
AcDbCircle
 10
207.3748085346572
 20
-46.33370434109873
 30
0.0
 40
0.3750001104
100
AcDbArc
 50
92.1577644853
 51
158.1310302043999
  0
ARC
  5
F3
330
2
100
AcDbEntity
  8
0
100
AcDbCircle
 10
206.5627755330572
 20
-46.00777818909873
 30
0.0
 40
0.5
100
AcDbArc
 50
270.0
 51
352.8796875453
  0
LINE
  5
F4
330
2
100
AcDbEntity
  8
0
100
AcDbLine
 10
210.2386468770572
 20
-46.10483533149873
 30
0.0
 11
207.0785265442572
 21
-46.10483533149873
 31
0.0
  0
LINE
  5
F5
330
2
100
AcDbEntity
  8
0
100
AcDbLine
 10
206.5627755330572
 20
-46.50777818909872
 30
0.0
 11
206.3541067074572
 21
-46.50777818909872
 31
0.0
  0
LINE
  5
F6
330
2
100
AcDbEntity
  8
0
100
AcDbLine
 10
212.3446959394572
 20
-46.50777818909872
 30
0.0
 11
212.3446959394572
 21
-46.10483533149873
 31
0.0
  0
LINE
  5
F7
330
2
100
AcDbEntity
  8
0
100
AcDbLine
 10
210.7291067074572
 20
-46.50777818909872
 30
0.0
 11
210.9377755330572
 21
-46.50777818909872
 31
0.0
  0
LINE
  5
F8
330
2
100
AcDbEntity
  8
0
100
AcDbLine
 10
212.3446959394572
 20
-46.10483533149873
 30
0.0
 11
211.4244241906572
 21
-46.10483533149873
 31
0.0
  0
LINE
  5
F9
330
2
100
AcDbEntity
  8
0
100
AcDbLine
 10
212.3446959394572
 20
-46.50777818909872
 30
0.0
 11
210.4002573538572
 21
-46.50777818909872
 31
0.0
  0
LINE
  5
FA
330
2
100
AcDbEntity
  8
0
100
AcDbLine
 10
210.8123319938572
 20
-44.60725458909872
 30
0.0
 11
208.7958903458572
 21
-44.60605924029873
 31
0.0
  0
LWPOLYLINE
  5
FB
330
2
100
AcDbEntity
  8
0
100
AcDbPolyline
 90
        9
 70
     0
 43
0.0
 10
209.8309003730572
 20
-44.13577560509873
 10
209.4472175730572
 20
-44.12926174429872
 10
209.0305515442572
 20
-44.12320195549873
 10
208.5987478754572
 20
-44.11787460349873
 10
208.1541477506572
 20
-44.11325557789873
 10
207.6974524706572
 20
-44.10928759869872
 10
207.2408309186572
 20
-44.10599758109873
 10
206.7964167314572
 20
-44.10336840509873
 10
206.3772926962572
 20
-44.10135381789873
  0
LINE
  5
FC
330
2
100
AcDbEntity
  8
0
100
AcDbLine
 10
207.6424153682572
 20
-45.75897947069873
 30
0.0
 11
209.6432061730572
 21
-45.67441279069873
 31
0.0
  0
LINE
  5
FD
330
2
100
AcDbEntity
  8
0
100
AcDbLine
 10
207.6452317266572
 20
-45.79567340669873
 30
0.0
 11
207.6455954434572
 21
-45.73377792509872
 31
0.0
  0
LINE
  5
FE
330
2
100
AcDbEntity
  8
0
100
AcDbLine
 10
207.6452317266572
 20
-45.79567340669873
 30
0.0
 11
207.6451450722572
 21
-45.81974548509872
 31
0.0
  0
LINE
  5
FF
330
2
100
AcDbEntity
  8
0
100
AcDbLine
 10
207.6451450722572
 20
-45.81974548509872
 30
0.0
 11
207.6451765650572
 21
-45.88081435069873
 31
0.0
  0
LINE
  5
100
330
2
100
AcDbEntity
  8
0
100
AcDbLine
 10
207.6453137458572
 20
-45.85714813949873
 30
0.0
 11
207.6452317266572
 21
-45.79567340669873
 31
0.0
  0
LINE
  5
101
330
2
100
AcDbEntity
  8
0
100
AcDbLine
 10
207.6436115314572
 20
-45.67136776509872
 30
0.0
 11
207.6455954434572
 21
-45.73377792509872
 31
0.0
  0
LINE
  5
102
330
2
100
AcDbEntity
  8
0
100
AcDbLine
 10
207.6455954434572
 20
-45.73377792509872
 30
0.0
 11
207.6222030690572
 21
-45.72432053949873
 31
0.0
  0
LWPOLYLINE
  5
103
330
2
100
AcDbEntity
  8
0
100
AcDbPolyline
 90
       46
 70
     0
 43
0.0
 10
206.2764639186572
 20
-45.72840980189872
 10
206.3225295906572
 20
-45.72672982589873
 10
206.3687972706572
 20
-45.72512499069873
 10
206.4151998530572
 20
-45.72359699869873
 10
206.4616702274572
 20
-45.72214755069873
 10
206.5082208098572
 20
-45.72077583549872
 10
206.5547037794572
 20
-45.71948494749872
 10
206.6010508322572
 20
-45.71827518909873
 10
206.6471936642572
 20
-45.71714686589873
 10
206.6930639746572
 20
-45.71610028189873
 10
206.7385934610572
 20
-45.71513574429872
 10
206.7837138178572
 20
-45.71425355549872
 10
206.8283567426572
 20
-45.71345402109872
 10
206.8724539346572
 20
-45.71273744509873
 10
206.9159370898572
 20
-45.71210413309873
 10
206.9587379058572
 20
-45.71155438909872
 10
207.0007880786572
 20
-45.71108852029873
 10
207.0420193058572
 20
-45.71070682749873
 10
207.0823632866572
 20
-45.71040961789873
 10
207.1217517154572
 20
-45.71019719549872
 10
207.1601162898572
 20
-45.71006986429873
 10
207.1973887074572
 20
-45.71002793149872
 10
207.2335006674572
 20
-45.71007169949873
 10
207.2683838626572
 20
-45.71020147389872
 10
207.3019699938572
 20
-45.71041755869873
 10
207.3341907570572
 20
-45.71072025949873
 10
207.3649778498572
 20
-45.71110988189873
 10
207.3942629682572
 20
-45.71158672829873
 10
207.4219778098572
 20
-45.71215110589873
 10
207.4476622626572
 20
-45.71279199069873
 10
207.4717634482572
 20
-45.71351690269873
 10
207.4942847586572
 20
-45.71432482109872
 10
207.5152295842572
 20
-45.71521471869873
 10
207.5346013170572
 20
-45.71618557309872
 10
207.5524033474572
 20
-45.71723636189872
 10
207.5686390706572
 20
-45.71836606109872
 10
207.5833118738572
 20
-45.71957364669873
 10
207.5964251522572
 20
-45.72085809629872
 10
207.6079822962572
 20
-45.72221838429872
 10
207.6179866978572
 20
-45.72365348829872
 10
207.6264417490572
 20
-45.72516238429872
 10
207.6333508402572
 20
-45.72674404989872
 10
207.6387173634572
 20
-45.72839745949873
 10
207.6425447106572
 20
-45.73012159069873
 10
207.6448362738572
 20
-45.73191542109873
 10
207.6455954434572
 20
-45.73377792509872
  0
LWPOLYLINE
  5
104
330
2
100
AcDbEntity
  8
0
100
AcDbPolyline
 90
        6
 70
     0
 43
0.0
 10
207.3972707986572
 20
-45.84283301789873
 10
207.4034961154572
 20
-45.81694070589873
 10
207.4085653154572
 20
-45.79389543549873
 10
207.4126576914572
 20
-45.77383435869872
 10
207.4159739650572
 20
-45.75658353789872
 10
207.4186799858572
 20
-45.74181769469872
  0
LINE
  5
105
330
2
100
AcDbEntity
  8
0
100
AcDbLine
 10
207.3606893698572
 20
-45.95897122269873
 30
0.0
 11
207.3641964754572
 21
-45.94966028189872
 31
0.0
  0
LINE
  5
106
330
2
100
AcDbEntity
  8
0
100
AcDbLine
 10
207.6377591026572
 20
-45.94465910109873
 30
0.0
 11
207.6453384498572
 21
-45.92344629789873
 31
0.0
  0
LINE
  5
107
330
2
100
AcDbEntity
  8
0
100
AcDbLine
 10
207.6453567922572
 20
-45.94436391069873
 30
0.0
 11
207.6455008722572
 21
-45.94807229629873
 31
0.0
  0
LINE
  5
108
330
2
100
AcDbEntity
  8
0
100
AcDbLine
 10
207.6453384498572
 20
-45.92344629789873
 30
0.0
 11
207.6443659762572
 21
-45.89906230269873
 31
0.0
  0
LINE
  5
109
330
2
100
AcDbEntity
  8
0
100
AcDbLine
 10
207.6455008866572
 20
-45.94807229469873
 30
0.0
 11
207.6377591026572
 21
-45.94465910109873
 31
0.0
  0
LWPOLYLINE
  5
10A
330
2
100
AcDbEntity
  8
0
100
AcDbPolyline
 90
        3
 70
     0
 43
0.0
 10
207.6379020178572
 20
-45.94836531549873
 10
207.5029962786572
 20
-45.95356741629873
 10
207.3606893682572
 20
-45.95897122269873
  0
LWPOLYLINE
  5
10B
330
2
100
AcDbEntity
  8
0
100
AcDbPolyline
 90
        3
 70
     0
 43
0.0
 10
206.9796622962572
 20
-46.06026776829873
 10
207.0391966226572
 20
-46.06408828989873
 10
207.0589195666572
 20
-46.06975477469872
  0
LINE
  5
10C
330
2
100
AcDbEntity
  8
0
100
AcDbLine
 10
207.6443659762572
 20
-45.89906230269873
 30
0.0
 11
207.6453137458572
 21
-45.85714813949873
 31
0.0
  0
LINE
  5
10D
330
2
100
AcDbEntity
  8
0
100
AcDbLine
 10
207.6451765650572
 20
-45.88081435069873
 30
0.0
 11
207.6455008786572
 21
-45.94807229469873
 31
0.0
  0
LWPOLYLINE
  5
10E
330
2
100
AcDbEntity
  8
0
100
AcDbPolyline
 90
        6
 70
     0
 43
0.0
 10
207.4186799842572
 20
-45.74181762429873
 10
207.3146070258572
 20
-45.76009946429873
 10
207.2197793378572
 20
-45.80666313309873
 10
207.1417274242572
 20
-45.87781089309873
 10
207.0866495858572
 20
-45.96789271869872
 10
207.0589196946572
 20
-46.06975498589873
  0
LWPOLYLINE
  5
10F
330
2
100
AcDbEntity
  8
0
100
AcDbPolyline
 90
        5
 70
     0
 43
0.0
 10
207.3641964754572
 20
-45.94966028189872
 10
207.3721152402572
 20
-45.92744828509872
 10
207.3812228066572
 20
-45.89971428509873
 10
207.3898092802572
 20
-45.87084592509873
 10
207.3972707986572
 20
-45.84283301789873
  0
LINE
  5
110
330
2
100
AcDbEntity
  8
0
100
AcDbLine
 10
208.7958903458572
 20
-44.60605924029873
 30
0.0
 11
207.0580632786572
 21
-44.60533818589873
 31
0.0
  0
LWPOLYLINE
  5
111
330
2
100
AcDbEntity
  8
0
100
AcDbPolyline
 90
       23
 70
     0
 43
0.0
 10
211.9192614914572
 20
-44.19746268029872
 10
211.8307910706572
 20
-44.19369914429873
 10
211.7304897954572
 20
-44.18954613789873
 10
211.6158824130572
 20
-44.18495233789872
 10
211.4992654626572
 20
-44.18044663229873
 10
211.3904476882572
 20
-44.17640036029872
 10
211.2877699698572
 20
-44.17273575229873
 10
211.1897925250572
 20
-44.16938973309873
 10
211.0952747970572
 20
-44.16630295229873
 10
211.0034198018572
 20
-44.16343410269873
 10
210.9174154930572
 20
-44.16086323229873
 10
210.8408963122572
 20
-44.15866755869873
 10
210.7681924066572
 20
-44.15665816349873
 10
210.6930465890572
 20
-44.15465443709872
 10
210.6148599794572
 20
-44.15264246749873
 10
210.5335018258572
 20
-44.15062250589873
 10
210.4485960530572
 20
-44.14858999549873
 10
210.3597402578572
 20
-44.14654074109873
 10
210.2664057826572
 20
-44.14446897469873
 10
210.1678926482572
 20
-44.14236706589873
 10
210.0633267890572
 20
-44.14022613309873
 10
209.9513452530572
 20
-44.13803072189873
 10
209.8309248210572
 20
-44.13577607069873
  0
LINE
  5
112
330
2
100
AcDbEntity
  8
0
100
AcDbLine
 10
212.0196035554572
 20
-45.57995493629873
 30
0.0
 11
212.0208943442572
 21
-45.64377100829872
 31
0.0
  0
LINE
  5
113
330
2
100
AcDbEntity
  8
0
100
AcDbLine
 10
212.0196035554572
 20
-45.57995493629873
 30
0.0
 11
212.0196358002572
 21
-45.58088933789873
 31
0.0
  0
LINE
  5
114
330
2
100
AcDbEntity
  8
0
100
AcDbLine
 10
212.0208958770572
 20
-45.64377097789873
 30
0.0
 11
212.0208162994572
 21
-45.64243280349873
 31
0.0
  0
LINE
  5
115
330
2
100
AcDbEntity
  8
0
100
AcDbLine
 10
212.0208162994572
 20
-45.64243280349873
 30
0.0
 11
211.9969869570572
 21
-45.63859756669873
 31
0.0
  0
LINE
  5
116
330
2
100
AcDbEntity
  8
0
100
AcDbLine
 10
212.0156441058572
 20
-45.74353667549873
 30
0.0
 11
212.0183668738572
 21
-45.73177790749872
 31
0.0
  0
LINE
  5
117
330
2
100
AcDbEntity
  8
0
100
AcDbLine
 10
212.0168023202572
 20
-45.66493570109872
 30
0.0
 11
212.0164316898572
 21
-45.66786612829873
 31
0.0
  0
LINE
  5
118
330
2
100
AcDbEntity
  8
0
100
AcDbLine
 10
212.0158170930572
 20
-45.69994444189872
 30
0.0
 11
212.0158125202572
 21
-45.68971567069873
 31
0.0
  0
LINE
  5
119
330
2
100
AcDbEntity
  8
0
100
AcDbLine
 10
212.0183668738572
 20
-45.73177790749872
 30
0.0
 11
212.0177312354572
 21
-45.72302516669873
 31
0.0
  0
LINE
  5
11A
330
2
100
AcDbEntity
  8
0
100
AcDbLine
 10
212.0177312354572
 20
-45.72302516669873
 30
0.0
 11
212.0158170930572
 21
-45.69994444189872
 31
0.0
  0
LINE
  5
11B
330
2
100
AcDbEntity
  8
0
100
AcDbLine
 10
212.0201116322572
 20
-45.74561001629873
 30
0.0
 11
212.0156441058572
 21
-45.74353667549873
 31
0.0
  0
LWPOLYLINE
  5
11C
330
2
100
AcDbEntity
  8
0
100
AcDbPolyline
 90
        7
 70
     0
 43
0.0
 10
212.0183575266572
 20
-45.73172576029873
 10
212.0187512242572
 20
-45.73514302109873
 10
212.0191171282572
 20
-45.73815630749872
 10
212.0194432914572
 20
-45.74072124829873
 10
212.0197177666572
 20
-45.74279346429872
 10
212.0199286114572
 20
-45.74432858109872
 10
212.0201116178572
 20
-45.74561001789873
  0
LWPOLYLINE
  5
11D
330
2
100
AcDbEntity
  8
0
100
AcDbPolyline
 90
        3
 70
     0
 43
0.0
 10
212.0158125202572
 20
-45.68971567069873
 10
212.0165653506572
 20
-45.66658455549872
 10
212.0177940274572
 20
-45.66011178589873
  0
LWPOLYLINE
  5
11E
330
2
100
AcDbEntity
  8
0
100
AcDbPolyline
 90
        5
 70
     0
 43
0.0
 10
212.0190475058572
 20
-45.65361757149872
 10
212.0183648002572
 20
-45.65660455709873
 10
212.0176911234572
 20
-45.65976284029873
 10
212.0170795378572
 20
-45.66311279869873
 10
212.0168023202572
 20
-45.66493570109872
  0
LINE
  5
11F
330
2
100
AcDbEntity
  8
0
100
AcDbLine
 10
209.6445863714572
 20
-45.77980668669872
 30
0.0
 11
209.6458947010572
 21
-45.72034471389873
 31
0.0
  0
LINE
  5
120
330
2
100
AcDbEntity
  8
0
100
AcDbLine
 10
209.6453671922572
 20
-45.74193944509873
 30
0.0
 11
209.6445508882572
 21
-45.79100848509873
 31
0.0
  0
LINE
  5
121
330
2
100
AcDbEntity
  8
0
100
AcDbLine
 10
209.6449734434572
 20
-45.84305175549872
 30
0.0
 11
209.6389607778572
 21
-45.85993156989872
 31
0.0
  0
LINE
  5
122
330
2
100
AcDbEntity
  8
0
100
AcDbLine
 10
209.6445508882572
 20
-45.79100848509873
 30
0.0
 11
209.6442939650572
 21
-45.79644404029873
 31
0.0
  0
LINE
  5
123
330
2
100
AcDbEntity
  8
0
100
AcDbLine
 10
209.6443522802572
 20
-45.79481298749873
 30
0.0
 11
209.6445863714572
 21
-45.77980668669872
 31
0.0
  0
LINE
  5
124
330
2
100
AcDbEntity
  8
0
100
AcDbLine
 10
209.6442939650572
 20
-45.79644404029873
 30
0.0
 11
209.6438842626572
 21
-45.82519011869872
 31
0.0
  0
LINE
  5
125
330
2
100
AcDbEntity
  8
0
100
AcDbLine
 10
209.6335822274572
 20
-45.79762865789873
 30
0.0
 11
209.6348650322572
 21
-45.82560369789873
 31
0.0
  0
LINE
  5
126
330
2
100
AcDbEntity
  8
0
100
AcDbLine
 10
209.6438842626572
 20
-45.82519011869872
 30
0.0
 11
209.6449734434572
 21
-45.84305175549872
 31
0.0
  0
LINE
  5
127
330
2
100
AcDbEntity
  8
0
100
AcDbLine
 10
209.8633389522572
 20
-45.84730284829872
 30
0.0
 11
209.8645734002572
 21
-45.85268019549872
 31
0.0
  0
LINE
  5
128
330
2
100
AcDbEntity
  8
0
100
AcDbLine
 10
209.6389607778572
 20
-45.85993156989872
 30
0.0
 11
209.6466309698572
 21
-45.86279484509873
 31
0.0
  0
LINE
  5
129
330
2
100
AcDbEntity
  8
0
100
AcDbLine
 10
209.8645734002572
 20
-45.85268019549872
 30
0.0
 11
209.6466309490572
 21
-45.86279484669873
 31
0.0
  0
LINE
  5
12A
330
2
100
AcDbEntity
  8
0
100
AcDbLine
 10
211.8074745138572
 20
-45.64675197789873
 30
0.0
 11
211.7852010322572
 21
-45.64314218109873
 31
0.0
  0
LINE
  5
12B
330
2
100
AcDbEntity
  8
0
100
AcDbLine
 10
211.9254307378572
 20
-45.63597524189872
 30
0.0
 11
211.8061051554572
 21
-45.63463240669872
 31
0.0
  0
LINE
  5
12C
330
2
100
AcDbEntity
  8
0
100
AcDbLine
 10
211.8197493938572
 20
-45.63472322109872
 30
0.0
 11
211.8668978546572
 21
-45.63513067549872
 31
0.0
  0
LINE
  5
12D
330
2
100
AcDbEntity
  8
0
100
AcDbLine
 10
211.7659697074572
 20
-45.63447249469873
 30
0.0
 11
211.8197493938572
 21
-45.63472322109872
 31
0.0
  0
LINE
  5
12E
330
2
100
AcDbEntity
  8
0
100
AcDbLine
 10
211.7057096530572
 20
-45.63437952989873
 30
0.0
 11
211.7659697074572
 21
-45.63447249469873
 31
0.0
  0
LINE
  5
12F
330
2
100
AcDbEntity
  8
0
100
AcDbLine
 10
211.6398016850572
 20
-45.63444299869873
 30
0.0
 11
211.7057096530572
 21
-45.63437952989873
 31
0.0
  0
LINE
  5
130
330
2
100
AcDbEntity
  8
0
100
AcDbLine
 10
211.5687820530572
 20
-45.63465950589873
 30
0.0
 11
211.6398016850572
 21
-45.63444299869873
 31
0.0
  0
LINE
  5
131
330
2
100
AcDbEntity
  8
0
100
AcDbLine
 10
211.4931870082572
 20
-45.63502565309873
 30
0.0
 11
211.5687820530572
 21
-45.63465950589873
 31
0.0
  0
LINE
  5
132
330
2
100
AcDbEntity
  8
0
100
AcDbLine
 10
211.4135527970572
 20
-45.63553804029873
 30
0.0
 11
211.4931870082572
 21
-45.63502565309873
 31
0.0
  0
LINE
  5
133
330
2
100
AcDbEntity
  8
0
100
AcDbLine
 10
211.3304156690572
 20
-45.63619327229873
 30
0.0
 11
211.4135527970572
 21
-45.63553804029873
 31
0.0
  0
LINE
  5
134
330
2
100
AcDbEntity
  8
0
100
AcDbLine
 10
211.2443118754572
 20
-45.63698794909873
 30
0.0
 11
211.3304156690572
 21
-45.63619327229873
 31
0.0
  0
LINE
  5
135
330
2
100
AcDbEntity
  8
0
100
AcDbLine
 10
211.1557776658572
 20
-45.63791867229872
 30
0.0
 11
211.2443118754572
 21
-45.63698794909873
 31
0.0
  0
LINE
  5
136
330
2
100
AcDbEntity
  8
0
100
AcDbLine
 10
211.0653492882572
 20
-45.63898204349873
 30
0.0
 11
211.1557776658572
 21
-45.63791867229872
 31
0.0
  0
LINE
  5
137
330
2
100
AcDbEntity
  8
0
100
AcDbLine
 10
210.9735629938572
 20
-45.64017466749873
 30
0.0
 11
211.0653492882572
 21
-45.63898204349873
 31
0.0
  0
LINE
  5
138
330
2
100
AcDbEntity
  8
0
100
AcDbLine
 10
210.8809550306572
 20
-45.64149314269872
 30
0.0
 11
210.9735629938572
 21
-45.64017466749873
 31
0.0
  0
LINE
  5
139
330
2
100
AcDbEntity
  8
0
100
AcDbLine
 10
210.7883068098572
 20
-45.64293020669873
 30
0.0
 11
210.8809550306572
 21
-45.64149314269872
 31
0.0
  0
LINE
  5
13A
330
2
100
AcDbEntity
  8
0
100
AcDbLine
 10
210.6961530290572
 20
-45.64448377789872
 30
0.0
 11
210.7883068098572
 21
-45.64293020669873
 31
0.0
  0
LINE
  5
13B
330
2
100
AcDbEntity
  8
0
100
AcDbLine
 10
210.4703563010572
 20
-45.64890048029872
 30
0.0
 11
210.5595554818572
 21
-45.64704175069873
 31
0.0
  0
LINE
  5
13C
330
2
100
AcDbEntity
  8
0
100
AcDbLine
 10
209.6698163186572
 20
-45.68683168029873
 30
0.0
 11
209.6461387826572
 21
-45.69561581949873
 31
0.0
  0
LINE
  5
13D
330
2
100
AcDbEntity
  8
0
100
AcDbLine
 10
209.6461387826572
 20
-45.69561581949873
 30
0.0
 11
209.6453671922572
 21
-45.74193944509873
 31
0.0
  0
LINE
  5
13E
330
2
100
AcDbEntity
  8
0
100
AcDbLine
 10
209.8461906962572
 20
-45.69085753949873
 30
0.0
 11
209.8462635170572
 21
-45.70950489469873
 31
0.0
  0
LINE
  5
13F
330
2
100
AcDbEntity
  8
0
100
AcDbLine
 10
210.3832714770572
 20
-45.65088328029872
 30
0.0
 11
210.4703563010572
 21
-45.64890048029872
 31
0.0
  0
LINE
  5
140
330
2
100
AcDbEntity
  8
0
100
AcDbLine
 10
210.2175763746572
 20
-45.65522567229873
 30
0.0
 11
210.2988338786572
 21
-45.65299129469873
 31
0.0
  0
LINE
  5
141
330
2
100
AcDbEntity
  8
0
100
AcDbLine
 10
210.1400318322572
 20
-45.65758755869873
 30
0.0
 11
210.2175763746572
 21
-45.65522567229873
 31
0.0
  0
LINE
  5
142
330
2
100
AcDbEntity
  8
0
100
AcDbLine
 10
211.7844819746572
 20
-45.75786221629873
 30
0.0
 11
211.7847686434572
 21
-45.75663086909872
 31
0.0
  0
LINE
  5
143
330
2
100
AcDbEntity
  8
0
100
AcDbLine
 10
209.6428991906572
 20
-45.68426415549873
 30
0.0
 11
209.6444911634572
 21
-45.63317612669872
 31
0.0
  0
LINE
  5
144
330
2
100
AcDbEntity
  8
0
100
AcDbLine
 10
209.6444911634572
 20
-45.63317612669872
 30
0.0
 11
209.6461387826572
 21
-45.69561581949873
 31
0.0
  0
LWPOLYLINE
  5
145
330
2
100
AcDbEntity
  8
0
100
AcDbPolyline
 90
       12
 70
     0
 43
0.0
 10
209.6444911634572
 20
-45.63317612669872
 10
209.6760700066572
 20
-45.62302081629873
 10
209.7655075122572
 20
-45.61318793789872
 10
209.9106325666572
 20
-45.60407420669873
 10
210.1063131122572
 20
-45.59602529469873
 10
210.3422355602572
 20
-45.58916188029873
 10
210.6056346626572
 20
-45.58350464189873
 10
210.8849703714572
 20
-45.57896958589873
 10
211.1596981090572
 20
-45.57557986589872
 10
211.4137142114572
 20
-45.57327859869872
 10
211.6294453698572
 20
-45.57210929469873
 10
211.7993850290572
 20
-45.57212021149872
  0
LWPOLYLINE
  5
146
330
2
100
AcDbEntity
  8
0
100
AcDbPolyline
 90
       12
 70
     0
 43
0.0
 10
211.8061051554572
 20
-45.63463240669872
 10
211.6403552114572
 20
-45.63456736509873
 10
211.4366913234572
 20
-45.63560812669872
 10
211.2059301186572
 20
-45.63759760669873
 10
210.9588904146572
 20
-45.64046230429872
 10
210.7063944722572
 20
-45.64422424829873
 10
210.4593148194572
 20
-45.64894914749873
 10
210.2285728914572
 20
-45.65470379549873
 10
210.0250920322572
 20
-45.66152650269873
 10
209.8597899922572
 20
-45.66933704829873
 10
209.7409915282572
 20
-45.67789658429872
 10
209.6698163186572
 20
-45.68683168029873
  0
LWPOLYLINE
  5
147
330
2
100
AcDbEntity
  8
0
100
AcDbPolyline
 90
       14
 70
     0
 43
0.0
 10
211.7852010322572
 20
-45.64314218109873
 10
211.7206221938572
 20
-45.64078600509873
 10
211.6171033714572
 20
-45.63952706909873
 10
211.4759448354572
 20
-45.63930920989873
 10
211.2987929442572
 20
-45.64014040509873
 10
211.0922457554572
 20
-45.64204080829873
 10
210.8700356402572
 20
-45.64497688349873
 10
210.6459030706572
 20
-45.64892226109873
 10
210.4309413842572
 20
-45.65391626109873
 10
210.2359906834572
 20
-45.65999205629873
 10
210.0721904434572
 20
-45.66704910589873
 10
209.9486320418572
 20
-45.67483696029873
 10
209.8719617202572
 20
-45.68296353469873
 10
209.8461906962572
 20
-45.69085753949873
  0
LWPOLYLINE
  5
148
330
2
100
AcDbEntity
  8
0
100
AcDbPolyline
 90
        5
 70
     0
 43
0.0
 10
209.6462569202572
 20
-45.85942691709873
 10
209.6459484546572
 20
-45.85625638429873
 10
209.6455978914572
 20
-45.85218063549873
 10
209.6452377490572
 20
-45.84729132669873
 10
209.6449734434572
 20
-45.84305175549872
  0
LWPOLYLINE
  5
149
330
2
100
AcDbEntity
  8
0
100
AcDbPolyline
 90
        8
 70
     0
 43
0.0
 10
209.8468868482572
 20
-45.73100791549872
 10
209.8477035522572
 20
-45.74456748509873
 10
209.8490514274572
 20
-45.76017076989873
 10
209.8510526914572
 20
-45.77762949629873
 10
209.8537057282572
 20
-45.79636612989872
 10
209.8568902098572
 20
-45.81555608669872
 10
209.8603594610572
 20
-45.83359222589873
 10
209.8633389522572
 20
-45.84730284829872
  0
LWPOLYLINE
  5
14A
330
2
100
AcDbEntity
  8
0
100
AcDbPolyline
 90
        6
 70
     0
 43
0.0
 10
209.6449005442572
 20
-45.84168011069873
 10
209.6446187938572
 20
-45.83543864509873
 10
209.6443702706572
 20
-45.82633339549873
 10
209.6442564146572
 20
-45.81642865149873
 10
209.6442571186572
 20
-45.80587248829873
 10
209.6443522802572
 20
-45.79481298749873
  0
LWPOLYLINE
  5
14B
330
2
100
AcDbEntity
  8
0
100
AcDbPolyline
 90
        3
 70
     0
 43
0.0
 10
209.8462635170572
 20
-45.70950489469873
 10
209.8464464498572
 20
-45.71939445149872
 10
209.8468868482572
 20
-45.73100791549872
  0
LWPOLYLINE
  5
14C
330
2
100
AcDbEntity
  8
0
100
AcDbPolyline
 90
        3
 70
     0
 43
0.0
 10
209.6458947010572
 20
-45.72034471389873
 10
209.6460886098572
 20
-45.70728579709872
 10
209.6461387826572
 20
-45.69561581949873
  0
LWPOLYLINE
  5
14D
330
2
100
AcDbEntity
  8
0
100
AcDbPolyline
 90
        5
 70
     0
 43
0.0
 10
211.7943303666572
 20
-45.70956406749873
 10
211.7974997554572
 20
-45.69282078589873
 10
211.8010135234572
 20
-45.67604846109873
 10
211.8044693874572
 20
-45.66059871869873
 10
211.8074745138572
 20
-45.64675197789873
  0
LWPOLYLINE
  5
14E
330
2
100
AcDbEntity
  8
0
100
AcDbPolyline
 90
        6
 70
     0
 43
0.0
 10
211.7847686434572
 20
-45.75663086909872
 10
211.7856523538572
 20
-45.75275327549873
 10
211.7871353474572
 20
-45.74603950109873
 10
211.7891598082572
 20
-45.73655754589873
 10
211.7916141858572
 20
-45.72431853629873
 10
211.7943303666572
 20
-45.70956406749873
  0
LWPOLYLINE
  5
14F
330
2
100
AcDbEntity
  8
0
100
AcDbPolyline
 90
       26
 70
     0
 43
0.0
 10
209.6461387826572
 20
-45.69561581949873
 10
209.6469327618572
 20
-45.69404157309873
 10
209.6493258034572
 20
-45.69244645629873
 10
209.6533186882572
 20
-45.69083387549873
 10
209.6589122002572
 20
-45.68920724029872
 10
209.6661071218572
 20
-45.68756996029873
 10
209.6749042306572
 20
-45.68592544509873
 10
209.6853043138572
 20
-45.68427710109872
 10
209.6973081490572
 20
-45.68262833949872
 10
209.7109165218572
 20
-45.68098256669872
 10
209.7261302114572
 20
-45.67934319389872
 10
209.7429500002572
 20
-45.67771363069873
 10
209.7613766722572
 20
-45.67609728189872
 10
209.7814110066572
 20
-45.67449756029873
 10
209.8030537874572
 20
-45.67291787389873
 10
209.8263057954572
 20
-45.67136163069873
 10
209.8511678130572
 20
-45.66983224029873
 10
209.8776406210572
 20
-45.66833311069873
 10
209.9055587746572
 20
-45.66687483709872
 10
209.9350046450572
 20
-45.66544972829873
 10
209.9659116210572
 20
-45.66405764509872
 10
209.9982130994572
 20
-45.66269844029873
 10
210.0318424674572
 20
-45.66137197309873
 10
210.0667331170572
 20
-45.66007809949873
 10
210.1028184418572
 20
-45.65881667549873
 10
210.1400318322572
 20
-45.65758755869873
  0
LINE
  5
150
330
2
100
AcDbEntity
  8
0
100
AcDbLine
 10
211.4358728818572
 20
-46.05135606109873
 30
0.0
 11
210.2310093570572
 21
-46.05135606109873
 31
0.0
  0
LINE
  5
151
330
2
100
AcDbEntity
  8
0
100
AcDbLine
 10
210.2446535090572
 20
-46.02499185149873
 30
0.0
 11
210.2293889874572
 21
-46.03283511069872
 31
0.0
  0
LINE
  5
152
330
2
100
AcDbEntity
  8
0
100
AcDbLine
 10
210.2310093570572
 20
-46.05135606109873
 30
0.0
 11
210.2293890818572
 21
-46.03283622429873
 31
0.0
  0
LINE
  5
153
330
2
100
AcDbEntity
  8
0
100
AcDbLine
 10
210.2042927586572
 20
-45.94157649149873
 30
0.0
 11
210.2310093602572
 21
-46.05135605949873
 31
0.0
  0
LINE
  5
154
330
2
100
AcDbEntity
  8
0
100
AcDbLine
 10
210.2913975410572
 20
-46.01691002109872
 30
0.0
 11
210.2446535090572
 21
-46.02499185149873
 31
0.0
  0
LINE
  5
155
330
2
100
AcDbEntity
  8
0
100
AcDbLine
 10
211.4606250850572
 20
-45.94642861149873
 30
0.0
 11
211.4358728978572
 21
-46.05135606269873
 31
0.0
  0
LINE
  5
156
330
2
100
AcDbEntity
  8
0
100
AcDbLine
 10
211.4358728818572
 20
-46.05135606109873
 30
0.0
 11
211.4413355330572
 21
-45.98891766909873
 31
0.0
  0
LINE
  5
157
330
2
100
AcDbEntity
  8
0
100
AcDbLine
 10
211.4413356002572
 20
-45.98891639709872
 30
0.0
 11
211.4273570930572
 21
-45.98533114749873
 31
0.0
  0
LINE
  5
158
330
2
100
AcDbEntity
  8
0
100
AcDbLine
 10
211.4273570930572
 20
-45.98533114749873
 30
0.0
 11
211.3871725970572
 21
-45.98298870269873
 31
0.0
  0
LINE
  5
159
330
2
100
AcDbEntity
  8
0
100
AcDbLine
 10
211.3871725970572
 20
-45.98298870269873
 30
0.0
 11
211.3228705138572
 21
-45.98174043869873
 31
0.0
  0
LWPOLYLINE
  5
15A
330
2
100
AcDbEntity
  8
0
100
AcDbPolyline
 90
       10
 70
     0
 43
0.0
 10
211.3228705138572
 20
-45.98174043869873
 10
211.2352670722572
 20
-45.98153008509873
 10
211.1254061954572
 20
-45.98236485789873
 10
210.9974074930572
 20
-45.98426392989873
 10
210.8598123698572
 20
-45.98719280349873
 10
210.7211590994572
 20
-45.99112410429873
 10
210.5883372450572
 20
-45.99609633469873
 10
210.4680637250572
 20
-46.00214242109873
 10
210.3672197794572
 20
-46.00916385469872
 10
210.2913975410572
 20
-46.01691002109872
  0
LWPOLYLINE
  5
15B
330
2
100
AcDbEntity
  8
0
100
AcDbPolyline
 90
        5
 70
     0
 43
0.0
 10
211.7943301282572
 20
-45.70955814269873
 10
211.6882940114572
 20
-45.72934060189872
 10
211.5922826386572
 20
-45.77847210589872
 10
211.5142404658572
 20
-45.85288726749872
 10
211.4606250850572
 20
-45.94642861149873
  0
LWPOLYLINE
  5
15C
330
2
100
AcDbEntity
  8
0
100
AcDbPolyline
 90
        6
 70
     0
 43
0.0
 10
211.8074745122572
 20
-45.64675184989872
 10
211.6995943602572
 20
-45.66484112189873
 10
211.6015261810572
 20
-45.71328712509873
 10
211.5216144882572
 20
-45.78796764509873
 10
211.4666588802572
 20
-45.88252820029873
 10
211.4413354642572
 20
-45.98892273629873
  0
LWPOLYLINE
  5
15D
330
2
100
AcDbEntity
  8
0
100
AcDbPolyline
 90
        5
 70
     0
 43
0.0
 10
209.8462635122572
 20
-45.70950472349873
 10
209.9585007986572
 20
-45.72318736189873
 10
210.0615495362572
 20
-45.76967782589873
 10
210.1460407730572
 20
-45.84474931229872
 10
210.2042927586572
 20
-45.94157649149873
  0
LWPOLYLINE
  5
15E
330
2
100
AcDbEntity
  8
0
100
AcDbPolyline
 90
        6
 70
     0
 43
0.0
 10
209.8461906770572
 20
-45.69085683069872
 10
209.9580714514572
 20
-45.70492519549873
 10
210.0607058978572
 20
-45.75160003549873
 10
210.1448134034572
 20
-45.82666082589873
 10
210.2027886354572
 20
-45.92332027389873
 10
210.2293892418572
 20
-46.03283805149873
  0
LINE
  5
15F
330
2
100
AcDbEntity
  8
0
100
AcDbLine
 10
211.9969869570572
 20
-45.63859756669873
 30
0.0
 11
211.9254307378572
 21
-45.63597524189872
 31
0.0
  0
LINE
  5
160
330
2
100
AcDbEntity
  8
0
100
AcDbLine
 10
212.0157639826572
 20
-45.74583662589873
 30
0.0
 11
211.7844819746572
 21
-45.75786221629873
 31
0.0
  0
LWPOLYLINE
  5
161
330
2
100
AcDbEntity
  8
0
100
AcDbPolyline
 90
        4
 70
     0
 43
0.0
 10
211.7993850290572
 20
-45.57212021149872
 10
211.9195085362572
 20
-45.57339206589873
 10
211.9934606514572
 20
-45.57595867069873
 10
212.0196035554572
 20
-45.57995493629873
  0
LWPOLYLINE
  5
162
330
2
100
AcDbEntity
  8
0
100
AcDbPolyline
 90
       14
 70
     0
 43
0.0
 10
211.8668978546572
 20
-45.63513067549872
 10
211.9077521170572
 20
-45.63569632989873
 10
211.9258195762572
 20
-45.63603859549873
 10
211.9423142674572
 20
-45.63642054749872
 10
211.9572364514572
 20
-45.63684223069873
 10
211.9705863890572
 20
-45.63730368989872
 10
211.9823643410572
 20
-45.63780497309873
 10
211.9925705682572
 20
-45.63834612349872
 10
212.0012053314572
 20
-45.63892718749873
 10
212.0082688898572
 20
-45.63954821149873
 10
212.0137615058572
 20
-45.64020923869873
 10
212.0176834386572
 20
-45.64091031709873
 10
212.0200349490572
 20
-45.64165148989872
 10
212.0208162994572
 20
-45.64243280349873
  0
LWPOLYLINE
  5
163
330
2
100
AcDbEntity
  8
0
100
AcDbPolyline
 90
       30
 70
     0
 43
0.0
 10
214.4217930754572
 20
-44.59331340989873
 10
214.4820099154572
 20
-44.58490540829873
 10
214.5484553602572
 20
-44.57570221469873
 10
214.6186028962572
 20
-44.56583331549873
 10
214.6919752226572
 20
-44.55506719069872
 10
214.7693328002572
 20
-44.54288609789872
 10
214.8501065138572
 20
-44.52885386429873
 10
214.9302860034572
 20
-44.51327850429873
 10
215.0103148882572
 20
-44.49584688829872
 10
215.0914400898572
 20
-44.47598355229873
 10
215.1747389026572
 20
-44.45299341309873
 10
215.2610833650572
 20
-44.42605823549873
 10
215.3508410258572
 20
-44.39433660029872
 10
215.4436647202572
 20
-44.35711780669873
 10
215.5396281282572
 20
-44.31344004349873
 10
215.6380543506572
 20
-44.26260883709873
 10
215.7390298578572
 20
-44.20344057789873
 10
215.8422416594572
 20
-44.13472704029873
 10
215.9472339858572
 20
-44.05510549469872
 10
216.0530400610572
 20
-43.96332057149872
 10
216.1583164786572
 20
-43.85815029629873
 10
216.2607809986572
 20
-43.73925320669872
 10
216.3574578002572
 20
-43.60753048189873
 10
216.4455631618572
 20
-43.46453112509872
 10
216.5229080610572
 20
-43.31215075549873
 10
216.5879598658572
 20
-43.15212654589873
 10
216.6397431074572
 20
-42.98599022429873
 10
216.6774754354572
 20
-42.81578631549872
 10
216.7008464946572
 20
-42.64312404669873
 10
216.7095440418572
 20
-42.48849161309872
  0
LINE
  5
164
330
2
100
AcDbEntity
  8
0
100
AcDbLine
 10
212.9924806178572
 20
-45.50534605789873
 30
0.0
 11
212.6846145314572
 21
-46.16614595869872
 31
0.0
  0
LWPOLYLINE
  5
165
330
2
100
AcDbEntity
  8
0
100
AcDbPolyline
 90
        6
 70
     0
 43
0.0
 10
215.4653414818572
 20
-44.78874711709873
 10
215.4762324130572
 20
-44.68370853789873
 10
215.4899354658572
 20
-44.56175786429873
 10
215.5043023010572
 20
-44.44426954269872
 10
215.5191067330572
 20
-44.33285975709873
 10
215.5206619618572
 20
-44.32207249789873
  0
LINE
  5
166
330
2
100
AcDbEntity
  8
0
100
AcDbLine
 10
215.4558503298572
 20
-44.88379603549873
 30
0.0
 11
215.4653095410572
 21
-44.78867101629872
 31
0.0
  0
LWPOLYLINE
  5
167
330
2
100
AcDbEntity
  8
0
100
AcDbPolyline
 90
        3
 70
     0
 43
0.0
 10
214.1915767106572
 20
-44.61004909469873
 10
214.2988930786572
 20
-44.59466846269872
 10
214.3913384578572
 20
-44.58126293789873
  0
LWPOLYLINE
  5
168
330
2
100
AcDbEntity
  8
0
100
AcDbPolyline
 90
        3
 70
     0
 43
0.0
 10
214.4217930754572
 20
-44.59331340989873
 10
214.3098231186572
 20
-44.60538361149873
 10
214.1915767106572
 20
-44.61004909469873
  0
LWPOLYLINE
  5
169
330
2
100
AcDbEntity
  8
0
100
AcDbPolyline
 90
       45
 70
     0
 43
0.0
 10
214.1915767170572
 20
-44.61004909629873
 10
214.2009346290572
 20
-44.61053812029873
 10
214.2102535186572
 20
-44.61139445149873
 10
214.2195394594572
 20
-44.61260654269873
 10
214.2287831842572
 20
-44.61416527549872
 10
214.2379743874572
 20
-44.61606418109872
 10
214.2471021938572
 20
-44.61829946749872
 10
214.2561546306572
 20
-44.62086987389873
 10
214.2651184738572
 20
-44.62377666589873
 10
214.2739788018572
 20
-44.62702353629873
 10
214.2827187410572
 20
-44.63061667549872
 10
214.2913199602572
 20
-44.63456488509873
 10
214.2998298866572
 20
-44.63885569949872
 10
214.3082773106572
 20
-44.64347556989873
 10
214.3166440594572
 20
-44.64842496669873
 10
214.3249107394572
 20
-44.65370584989872
 10
214.3330562482572
 20
-44.65932165629872
 10
214.3410658978572
 20
-44.66527361949872
 10
214.3489461298572
 20
-44.67155012509873
 10
214.3566582706572
 20
-44.67813869309873
 10
214.3641643714572
 20
-44.68502993309873
 10
214.3714371394572
 20
-44.69222352509873
 10
214.3784489250572
 20
-44.69971825789873
 10
214.3852189618572
 20
-44.70749136829873
 10
214.3917440466572
 20
-44.71552767389872
 10
214.3979939218572
 20
-44.72382532989873
 10
214.4039398258572
 20
-44.73238299069873
 10
214.4095543058572
 20
-44.74119897469873
 10
214.4148293298572
 20
-44.75026100829873
 10
214.4197936674572
 20
-44.75953661309873
 10
214.4244175970572
 20
-44.76902463549873
 10
214.4286696498572
 20
-44.77872495389873
 10
214.4325223794572
 20
-44.78863533629873
 10
214.4359553618572
 20
-44.79874998749873
 10
214.4390088002572
 20
-44.80903583869873
 10
214.4416806258572
 20
-44.81948052029873
 10
214.4439360978572
 20
-44.83008490589873
 10
214.4457498578572
 20
-44.84084453149873
 10
214.4471095442572
 20
-44.85174919389873
 10
214.4480295874572
 20
-44.86278155549872
 10
214.4485423698572
 20
-44.87391866269873
 10
214.4486201410572
 20
-44.88512558749873
 10
214.4482494802572
 20
-44.89639036509873
 10
214.4474337250572
 20
-44.90773339709873
 10
214.4461905666572
 20
-44.91917584989873
  0
LWPOLYLINE
  5
16A
330
2
100
AcDbEntity
  8
0
100
AcDbPolyline
 90
        4
 70
     0
 43
0.0
 10
214.4418907970572
 20
-45.02100660509873
 10
214.4432508018572
 20
-44.98593395869873
 10
214.4446935698572
 20
-44.95199053309873
 10
214.4461905666572
 20
-44.91917584989873
  0
LINE
  5
16B
330
2
100
AcDbEntity
  8
0
100
AcDbLine
 10
214.1985319138572
 20
-45.56283510109873
 30
0.0
 11
214.2773722850572
 21
-45.55316179069873
 31
0.0
  0
LINE
  5
16C
330
2
100
AcDbEntity
  8
0
100
AcDbLine
 10
214.1918711858572
 20
-45.56358898909873
 30
0.0
 11
214.1411905330572
 21
-45.56801701949873
 31
0.0
  0
LINE
  5
16D
330
2
100
AcDbEntity
  8
0
100
AcDbLine
 10
214.1411905330572
 20
-45.56801701949873
 30
0.0
 11
214.1315635586572
 21
-45.56859779549873
 31
0.0
  0
LINE
  5
16E
330
2
100
AcDbEntity
  8
0
100
AcDbLine
 10
214.7733223106572
 20
-45.52900659709872
 30
0.0
 11
214.7800067410572
 21
-45.52873777149873
 31
0.0
  0
LINE
  5
16F
330
2
100
AcDbEntity
  8
0
100
AcDbLine
 10
214.7662611938572
 20
-45.52923915869873
 30
0.0
 11
214.7733223106572
 21
-45.52900659709872
 31
0.0
  0
LINE
  5
170
330
2
100
AcDbEntity
  8
0
100
AcDbLine
 10
214.7518826850572
 20
-45.52962720029873
 30
0.0
 11
214.7662611938572
 21
-45.52923915869873
 31
0.0
  0
LINE
  5
171
330
2
100
AcDbEntity
  8
0
100
AcDbLine
 10
214.6098127890572
 20
-45.53354280029873
 30
0.0
 11
214.7518826850572
 21
-45.52962720029873
 31
0.0
  0
LINE
  5
172
330
2
100
AcDbEntity
  8
0
100
AcDbLine
 10
214.7326757666572
 20
-45.53007881469873
 30
0.0
 11
214.7367661522572
 21
-45.52999411709873
 31
0.0
  0
LWPOLYLINE
  5
173
330
2
100
AcDbEntity
  8
0
100
AcDbPolyline
 90
        5
 70
     0
 43
0.0
 10
214.2773722850572
 20
-45.55316179069873
 10
214.3283531266572
 20
-45.54773896829873
 10
214.3949588482572
 20
-45.54285151389873
 10
214.4928298338572
 20
-45.53792995229873
 10
214.6098127890572
 20
-45.53354280029873
  0
LWPOLYLINE
  5
174
330
2
100
AcDbEntity
  8
0
100
AcDbPolyline
 90
        4
 70
     0
 43
0.0
 10
214.1411905362572
 20
-45.56801706269872
 10
214.1447667298572
 20
-45.56778017949873
 10
214.1713911506572
 20
-45.56565623389873
 10
214.1918711922572
 20
-45.56358902909873
  0
LWPOLYLINE
  5
175
330
2
100
AcDbEntity
  8
0
100
AcDbPolyline
 90
       17
 70
     0
 43
0.0
 10
214.4418836930572
 20
-45.02100316189873
 10
214.4376769570572
 20
-45.07375225309873
 10
214.4316653666572
 20
-45.12528736029873
 10
214.4238860946572
 20
-45.17521547389873
 10
214.4143840066572
 20
-45.22314875549873
 10
214.4032406770572
 20
-45.26874107549873
 10
214.3905485042572
 20
-45.31166564509873
 10
214.3763992034572
 20
-45.35159630109872
 10
214.3608870018572
 20
-45.38820704349872
 10
214.3441304962572
 20
-45.42122939709872
 10
214.3262643010572
 20
-45.45044449949872
 10
214.3074221666572
 20
-45.47563591869873
 10
214.2877387026572
 20
-45.49658562589873
 10
214.2673588802572
 20
-45.51312237789873
 10
214.2464404130572
 20
-45.52515941309873
 10
214.2251404162572
 20
-45.53261903869873
 10
214.2036170498572
 20
-45.53542256509873
  0
LWPOLYLINE
  5
176
330
2
100
AcDbEntity
  8
0
100
AcDbPolyline
 90
       68
 70
     0
 43
0.0
 10
214.7800067410572
 20
-45.52873777149873
 10
214.7845246402572
 20
-45.52852387709872
 10
214.7898502802572
 20
-45.52823619069872
 10
214.7961293218572
 20
-45.52784627709873
 10
214.8035712146572
 20
-45.52731200989873
 10
214.8121114482572
 20
-45.52660161629872
 10
214.8213981442572
 20
-45.52571046749873
 10
214.8310628786572
 20
-45.52465116349873
 10
214.8409249330572
 20
-45.52343098269872
 10
214.8509513666572
 20
-45.52204560029873
 10
214.8611393906572
 20
-45.52048750109872
 10
214.8714891378572
 20
-45.51874851389873
 10
214.8819952082572
 20
-45.51682117949872
 10
214.8926458786572
 20
-45.51469931549873
 10
214.9034242578572
 20
-45.51237825469873
 10
214.9143094354572
 20
-45.50985500669873
 10
214.9252832450572
 20
-45.50712687869872
 10
214.9363524546572
 20
-45.50418518749872
 10
214.9475146946572
 20
-45.50102303389873
 10
214.9587655218572
 20
-45.49763387069872
 10
214.9701000658572
 20
-45.49401112349872
 10
214.9815130034572
 20
-45.49014820669873
 10
214.9929985602572
 20
-45.48603853789873
 10
215.0045505042572
 20
-45.48167555709873
 10
215.0161621618572
 20
-45.47705273149873
 10
215.0278270226572
 20
-45.47216368509872
 10
215.0395383378572
 20
-45.46700309309873
 10
215.0512888850572
 20
-45.46156600509873
 10
215.0630768530572
 20
-45.45584475389873
 10
215.0749068642572
 20
-45.44982775229873
 10
215.0867831106572
 20
-45.44350238269873
 10
215.0987088786572
 20
-45.43685518589873
 10
215.1106864818572
 20
-45.42987186109873
 10
215.1227171874572
 20
-45.42253727389873
 10
215.1348011266572
 20
-45.41483546109873
 10
215.1469372178572
 20
-45.40674963549872
 10
215.1591230610572
 20
-45.39826219869873
 10
215.1713546754572
 20
-45.38935486909873
 10
215.1836230306572
 20
-45.38001134429872
 10
215.1959144498572
 20
-45.37021752989873
 10
215.2082139042572
 20
-45.35995929469873
 10
215.2205050818572
 20
-45.34922240349873
 10
215.2327703122572
 20
-45.33799255069872
 10
215.2449911154572
 20
-45.32625547389873
 10
215.2571455778572
 20
-45.31400246749873
 10
215.2692082738572
 20
-45.30122932029873
 10
215.2811531682572
 20
-45.28793280989872
 10
215.2929536578572
 20
-45.27411070909873
 10
215.3045825762572
 20
-45.25976181469872
 10
215.3160121986572
 20
-45.24488597469873
 10
215.3272142594572
 20
-45.22948410269872
 10
215.3381599618572
 20
-45.21355820989873
 10
215.3488199938572
 20
-45.19711141629873
 10
215.3591657474572
 20
-45.18014593309873
 10
215.3691741170572
 20
-45.16265376189873
 10
215.3788219154572
 20
-45.14462352189872
 10
215.3880833602572
 20
-45.12604417469872
 10
215.3969317506572
 20
-45.10690386269873
 10
215.4053417426572
 20
-45.08719295229872
 10
215.4132857250572
 20
-45.06690480989873
 10
215.4207335506572
 20
-45.04603399389873
 10
215.4276524866572
 20
-45.02457638909873
 10
215.4340074738572
 20
-45.00252810429873
 10
215.4397602962572
 20
-44.97988788189873
 10
215.4448697346572
 20
-44.95665688989872
 10
215.4492916434572
 20
-44.93283851869873
 10
215.4529788610572
 20
-44.90843865469872
 10
215.4558500514572
 20
-44.88378045469873
  0
LINE
  5
177
330
2
100
AcDbEntity
  8
0
100
AcDbLine
 10
216.7202954898572
 20
-41.69790828189873
 30
0.0
 11
216.7223892146572
 21
-41.36522485629873
 31
0.0
  0
LINE
  5
178
330
2
100
AcDbEntity
  8
0
100
AcDbLine
 10
216.7113639202572
 20
-42.39090140669873
 30
0.0
 11
216.7167318802572
 21
-42.03902835549873
 31
0.0
  0
LINE
  5
179
330
2
100
AcDbEntity
  8
0
100
AcDbLine
 10
216.7167246834572
 20
-42.03959212669873
 30
0.0
 11
216.7202997970572
 21
-41.69738612029873
 31
0.0
  0
LINE
  5
17A
330
2
100
AcDbEntity
  8
0
100
AcDbLine
 10
216.7095456050572
 20
-42.48843317949872
 30
0.0
 11
216.7113748098572
 21
-42.39029401949873
 31
0.0
  0
LINE
  5
17B
330
2
100
AcDbEntity
  8
0
100
AcDbLine
 10
216.7224714770572
 20
-40.42153552829873
 30
0.0
 11
216.7212472146572
 21
-40.12276898269873
 31
0.0
  0
LINE
  5
17C
330
2
100
AcDbEntity
  8
0
100
AcDbLine
 10
216.7232235842572
 20
-40.72791274429873
 30
0.0
 11
216.7224701858572
 21
-40.42116289469873
 31
0.0
  0
LINE
  5
17D
330
2
100
AcDbEntity
  8
0
100
AcDbLine
 10
216.7223870994572
 20
-41.36570738429873
 30
0.0
 11
216.7232774258572
 21
-41.04208812669873
 31
0.0
  0
LINE
  5
17E
330
2
100
AcDbEntity
  8
0
100
AcDbLine
 10
216.7232769122572
 20
-41.04253258429873
 30
0.0
 11
216.7232229938572
 21
-40.72750491229872
 31
0.0
  0
LINE
  5
17F
330
2
100
AcDbEntity
  8
0
100
AcDbLine
 10
216.7212488658572
 20
-40.12310768349872
 30
0.0
 11
216.7197502050572
 21
-39.83193666429873
 31
0.0
  0
LWPOLYLINE
  5
180
330
2
100
AcDbEntity
  8
0
100
AcDbPolyline
 90
       31
 70
     0
 43
0.0
 10
204.8188687986572
 20
-33.90587134909872
 10
204.8035609522572
 20
-33.67196735869873
 10
204.7889867298572
 20
-33.45947143549873
 10
204.7748475170572
 20
-33.26570734269872
 10
204.7610121602572
 20
-33.08955666429872
 10
204.7474222466572
 20
-32.93012141149872
 10
204.7340043362572
 20
-32.78625722589873
 10
204.7206692434572
 20
-32.65653287229872
 10
204.7073571698572
 20
-32.53950200349872
 10
204.6940094706572
 20
-32.43371068829872
 10
204.6805417394572
 20
-32.33785887869872
 10
204.6668701778572
 20
-32.25085482589872
 10
204.6529088434572
 20
-32.17169729629872
 10
204.6385841602572
 20
-32.09962127229872
 10
204.6238363954572
 20
-32.03400135229873
 10
204.6086404050572
 20
-31.97437134269872
 10
204.5929776098572
 20
-31.92037138909872
 10
204.5768424002572
 20
-31.87172907869872
 10
204.5602409666572
 20
-31.82818992669872
 10
204.5431819826572
 20
-31.78952806429872
 10
204.5257060130572
 20
-31.75552913949872
 10
204.5078716002572
 20
-31.72600599389872
 10
204.4897500738572
 20
-31.70079277309872
 10
204.4714671250572
 20
-31.67971908829872
 10
204.4532120786572
 20
-31.66256532509872
 10
204.4352704226572
 20
-31.64905845949872
 10
204.4177167938572
 20
-31.63871761629872
 10
204.4002576050572
 20
-31.63101634269873
 10
204.3825223346572
 20
-31.62563797309872
 10
204.3641921842572
 20
-31.62243447229872
 10
204.3450197458572
 20
-31.62135616989872
  0
LWPOLYLINE
  5
181
330
2
100
AcDbEntity
  8
0
100
AcDbPolyline
 90
       32
 70
     0
 43
0.0
 10
203.8363776994572
 20
-34.45306757309873
 10
203.8711706946572
 20
-33.90587134909872
 10
203.8864785410572
 20
-33.67196735869873
 10
203.9010527634572
 20
-33.45947143549873
 10
203.9151919762572
 20
-33.26570734269872
 10
203.9290273330572
 20
-33.08955666429872
 10
203.9426172466572
 20
-32.93012141149872
 10
203.9560351570572
 20
-32.78625722589873
 10
203.9693702498572
 20
-32.65653287229872
 10
203.9826823234572
 20
-32.53950200349872
 10
203.9960300226572
 20
-32.43371068829872
 10
204.0094977538572
 20
-32.33785887869872
 10
204.0231693154572
 20
-32.25085482589872
 10
204.0371306498572
 20
-32.17169729629872
 10
204.0514553330572
 20
-32.09962127229872
 10
204.0662030978572
 20
-32.03400135229873
 10
204.0813990882572
 20
-31.97437134269872
 10
204.0970618834572
 20
-31.92037138909872
 10
204.1131970930572
 20
-31.87172907869872
 10
204.1297985266572
 20
-31.82818992669872
 10
204.1468575106572
 20
-31.78952806429872
 10
204.1643334802572
 20
-31.75552913949872
 10
204.1821678930572
 20
-31.72600599389872
 10
204.2002894178572
 20
-31.70079277309872
 10
204.2185723682572
 20
-31.67971908829872
 10
204.2368274146572
 20
-31.66256532509872
 10
204.2547690706572
 20
-31.64905845949872
 10
204.2723226994572
 20
-31.63871761629872
 10
204.2897818882572
 20
-31.63101634269873
 10
204.3075171586572
 20
-31.62563797309872
 10
204.3258473090572
 20
-31.62243447229872
 10
204.3450197458572
 20
-31.62135616989872
  0
LWPOLYLINE
  5
182
330
2
100
AcDbEntity
  8
0
100
AcDbPolyline
 90
       26
 70
     0
 43
0.0
 10
204.3450197458572
 20
-30.61816882589873
 10
204.2561849106572
 20
-30.62125581949873
 10
204.1702241042572
 20
-30.63021317469872
 10
204.0881505170572
 20
-30.64465078589872
 10
204.0101648098572
 20
-30.66421548989873
 10
203.9352226130572
 20
-30.68898655869872
 10
203.8616621682572
 20
-30.71948230269873
 10
203.7888296850572
 20
-30.75615283069872
 10
203.7180637922572
 20
-30.79862083389872
 10
203.6496454306572
 20
-30.84697960829872
 10
203.5829924546572
 20
-30.90207978749873
 10
203.5178398770572
 20
-30.96474677149872
 10
203.4544507058572
 20
-31.03555151709872
 10
203.3942263266572
 20
-31.11372656349873
 10
203.3412192354572
 20
-31.19396125789872
 10
203.2988149794572
 20
-31.26894374589872
 10
203.2654419890572
 20
-31.33995761149872
 10
203.2386527602572
 20
-31.41222098589873
 10
203.2166674082572
 20
-31.49122356189872
 10
203.1989006402572
 20
-31.58043879389873
 10
203.1847609058572
 20
-31.68041477949872
 10
203.1725756386572
 20
-31.78986358589872
 10
203.1616728818572
 20
-31.90904147389872
 10
203.1512875266572
 20
-32.03835480829873
 10
203.1407558162572
 20
-32.17867715709872
 10
203.1176899458572
 20
-32.49715004029873
  0
LWPOLYLINE
  5
183
330
2
100
AcDbEntity
  8
0
100
AcDbPolyline
 90
       25
 70
     0
 43
0.0
 10
204.3450197458572
 20
-30.61816882589873
 10
204.4338540002572
 20
-30.62125860669872
 10
204.5198141410572
 20
-30.63021645949872
 10
204.6018870658572
 20
-30.64465449629873
 10
204.6798721602572
 20
-30.66421953149873
 10
204.7548138194572
 20
-30.68899081469872
 10
204.8283738130572
 20
-30.71948665469872
 10
204.9012059282572
 20
-30.75615717949872
 10
204.9719715362572
 20
-30.79862509789872
 10
205.0403896994572
 20
-30.84698371389873
 10
205.1070425650572
 20
-30.90208364509873
 10
205.1721951202572
 20
-30.96475027229873
 10
205.2355843698572
 20
-31.03555450269873
 10
205.2958089442572
 20
-31.11372877949873
 10
205.3488163506572
 20
-31.19396241149872
 10
205.3912210338572
 20
-31.26894360189872
 10
205.4245945746572
 20
-31.33995597949872
 10
205.4513844626572
 20
-31.41221780509872
 10
205.4733705490572
 20
-31.49121879549872
 10
205.4911380802572
 20
-31.58043251709873
 10
205.5052785186572
 20
-31.68040739709872
 10
205.5174642770572
 20
-31.78985571549872
 10
205.5283673682572
 20
-31.90903440349873
 10
205.5387529378572
 20
-32.03834982589873
 10
205.5492846050572
 20
-32.17867451709873
  0
LWPOLYLINE
  5
184
330
2
100
AcDbEntity
  8
0
100
AcDbPolyline
 90
        6
 70
     0
 43
0.0
 10
216.7311049138572
 20
-37.26149058589872
 10
216.7375446242572
 20
-37.06692746109872
 10
216.7451793778572
 20
-36.87916098909873
 10
216.7540592210572
 20
-36.69790115069872
 10
216.7642508674572
 20
-36.52267757949872
 10
216.7758062130572
 20
-36.35339198749872
  0
LINE
  5
185
330
2
100
AcDbEntity
  8
0
100
AcDbLine
 10
216.7215999058572
 20
-37.67342092029872
 30
0.0
 11
216.7258099346572
 21
-37.46329591069872
 31
0.0
  0
LINE
  5
186
330
2
100
AcDbEntity
  8
0
100
AcDbLine
 10
216.7149031298572
 20
-38.24543586909872
 30
0.0
 11
216.7162087922572
 21
-38.00832611069873
 31
0.0
  0
LINE
  5
187
330
2
100
AcDbEntity
  8
0
100
AcDbLine
 10
216.7162078514572
 20
-38.00845226749873
 30
0.0
 11
216.7184192594572
 21
-37.77999187389873
 31
0.0
  0
LINE
  5
188
330
2
100
AcDbEntity
  8
0
100
AcDbLine
 10
216.7184179426572
 20
-37.78010110589873
 30
0.0
 11
216.7216015522572
 21
-37.67332580829872
 31
0.0
  0
LINE
  5
189
330
2
100
AcDbEntity
  8
0
100
AcDbLine
 10
216.7166697922572
 20
-39.27283428029873
 30
0.0
 11
216.7154395554572
 21
-39.00421339549873
 31
0.0
  0
LINE
  5
18A
330
2
100
AcDbEntity
  8
0
100
AcDbLine
 10
216.7154404034572
 20
-39.00443115069872
 30
0.0
 11
216.7146397378572
 21
-38.74345850429873
 31
0.0
  0
LINE
  5
18B
330
2
100
AcDbEntity
  8
0
100
AcDbLine
 10
216.7146401234572
 20
-38.74365035069873
 30
0.0
 11
216.7144163906572
 21
-38.49043798589873
 31
0.0
  0
LINE
  5
18C
330
2
100
AcDbEntity
  8
0
100
AcDbLine
 10
216.7144163106572
 20
-38.49060583869873
 30
0.0
 11
216.7149036546572
 21
-38.24529008509873
 31
0.0
  0
LINE
  5
18D
330
2
100
AcDbEntity
  8
0
100
AcDbLine
 10
216.7258080562572
 20
-37.46337732829872
 30
0.0
 11
216.7311068962572
 21
-37.26142322269872
 31
0.0
  0
LWPOLYLINE
  5
18E
330
2
100
AcDbEntity
  8
0
100
AcDbPolyline
 90
       38
 70
     0
 43
0.0
 10
215.5060097586572
 20
-35.79054960669872
 10
215.5088439602572
 20
-35.78885938429872
 10
215.5137525026572
 20
-35.78597071549872
 10
215.5209773298572
 20
-35.78177683869872
 10
215.5305018018572
 20
-35.77632692669872
 10
215.5423508274572
 20
-35.76964769149872
 10
215.5565907026572
 20
-35.76174470109872
 10
215.5732309106572
 20
-35.75265707869872
 10
215.5921663954572
 20
-35.74248593789873
 10
215.6132873858572
 20
-35.73133138269872
 10
215.6364380242572
 20
-35.71931323229873
 10
215.6614125954572
 20
-35.70657063709873
 10
215.6880527746572
 20
-35.69321136029872
 10
215.7161711202572
 20
-35.67935092189872
 10
215.7455571026572
 20
-35.66510883229872
 10
215.7760270882572
 20
-35.65058452349873
 10
215.8073853394572
 20
-35.63587692829873
 10
215.8394174402572
 20
-35.62108745949872
 10
215.8720613106572
 20
-35.60624271709873
 10
215.9053453314572
 20
-35.59132765309873
 10
215.9392768530572
 20
-35.57633704189872
 10
215.9738691762572
 20
-35.56126291869873
 10
216.0091290530572
 20
-35.54610032669872
 10
216.0450513362572
 20
-35.53084933149873
 10
216.0816252546572
 20
-35.51551203229873
 10
216.1188146242572
 20
-35.50010055229872
 10
216.1565775874572
 20
-35.48462839869872
 10
216.1948683698572
 20
-35.46910965629872
 10
216.2336335218572
 20
-35.45356050109873
 10
216.2728145314572
 20
-35.43799800829873
 10
216.3123858434572
 20
-35.42242517949872
 10
216.3523285202572
 20
-35.40684204189872
 10
216.3926217810572
 20
-35.39124906109872
 10
216.4332429506572
 20
-35.37564715229872
 10
216.4741671890572
 20
-35.36003778749872
 10
216.5153675730572
 20
-35.34442297309873
 10
216.5568151394572
 20
-35.32880524509872
 10
216.5984789522572
 20
-35.31318765789873
  0
LINE
  5
18F
330
2
100
AcDbEntity
  8
0
100
AcDbLine
 10
215.5066344850572
 20
-35.79016875389872
 30
0.0
 11
215.5060097586572
 21
-35.79054960669872
 31
0.0
  0
LINE
  5
190
330
2
100
AcDbEntity
  8
0
100
AcDbLine
 10
217.1636402754572
 20
-35.10469854269873
 30
0.0
 11
217.2550468370572
 21
-35.07071728349873
 31
0.0
  0
LWPOLYLINE
  5
191
330
2
100
AcDbEntity
  8
0
100
AcDbPolyline
 90
        6
 70
     0
 43
0.0
 10
216.8515805218572
 20
-35.62171942429872
 10
216.8687412898572
 20
-35.50643191069873
 10
216.8856245442572
 20
-35.40413368509872
 10
216.9020744610572
 20
-35.31350930909872
 10
216.9184493970572
 20
-35.23102176509872
 10
216.9269321170572
 20
-35.19184855389873
  0
LWPOLYLINE
  5
192
330
2
100
AcDbEntity
  8
0
100
AcDbPolyline
 90
        4
 70
     0
 43
0.0
 10
216.7670654594572
 20
-35.25063107229873
 10
216.8961854482572
 20
-35.20313724509873
 10
216.9398766322572
 20
-35.18709595229872
 10
217.0731390322572
 20
-35.13811533789872
  0
LINE
  5
193
330
2
100
AcDbEntity
  8
0
100
AcDbLine
 10
217.0731390322572
 20
-35.13811533789872
 30
0.0
 11
217.1636402754572
 21
-35.10469854269873
 31
0.0
  0
LINE
  5
194
330
2
100
AcDbEntity
  8
0
100
AcDbLine
 10
216.6823545762572
 20
-35.28195569309873
 30
0.0
 11
216.7670654594572
 21
-35.25063107229873
 31
0.0
  0
LINE
  5
195
330
2
100
AcDbEntity
  8
0
100
AcDbLine
 10
216.5984789522572
 20
-35.31318765789873
 30
0.0
 11
216.6823545762572
 21
-35.28195569309873
 31
0.0
  0
LWPOLYLINE
  5
196
330
2
100
AcDbEntity
  8
0
100
AcDbPolyline
 90
        6
 70
     0
 43
0.0
 10
216.7758062546572
 20
-36.35339121469872
 10
216.7887118898572
 20
-36.19057760989872
 10
216.8029129074572
 20
-36.03490414589872
 10
216.8182936626572
 20
-35.88728481949872
 10
216.8346207586572
 20
-35.74912236509872
 10
216.8515755298572
 20
-35.62175481149872
  0
LINE
  5
197
330
2
100
AcDbEntity
  8
0
100
AcDbLine
 10
224.8033691826572
 20
-24.53397024349873
 30
0.0
 11
224.7991386290572
 21
-24.53296349789872
 31
0.0
  0
LWPOLYLINE
  5
198
330
2
100
AcDbEntity
  8
0
100
AcDbPolyline
 90
        7
 70
     0
 43
0.0
 10
223.7846372386572
 20
-26.38310119869872
 10
224.3970824962572
 20
-26.38309236349872
 10
224.6469579634572
 20
-26.38318652189873
 10
224.8586407202572
 20
-26.38325774269872
 10
225.0321562498572
 20
-26.38318724189872
 10
225.1677799538572
 20
-26.38297520669873
 10
225.3469348066572
 20
-26.38277818909873
  0
LINE
  5
199
330
2
100
AcDbEntity
  8
0
100
AcDbLine
 10
224.7567825122572
 20
-24.52499187869872
 30
0.0
 11
224.8462078306572
 21
-24.54640760189873
 31
0.0
  0
LWPOLYLINE
  5
19A
330
2
100
AcDbEntity
  8
0
100
AcDbPolyline
 90
        7
 70
     0
 43
0.0
 10
224.8462078306572
 20
-24.54640760189873
 10
224.8292612498572
 20
-24.54099070429872
 10
224.8134445586572
 20
-24.53652522909873
 10
224.8013706930572
 20
-24.53348982429872
 10
224.7929079010572
 20
-24.53155116829872
 10
224.7868340898572
 20
-24.53025444349872
 10
224.7813143570572
 20
-24.52914390909873
  0
LINE
  5
19B
330
2
100
AcDbEntity
  8
0
100
AcDbLine
 10
199.3782479906572
 20
-26.38460372509872
 30
0.0
 11
204.3450197458572
 21
-26.38454846749872
 31
0.0
  0
LINE
  5
19C
330
2
100
AcDbEntity
  8
0
100
AcDbLine
 10
184.7924147899322
 20
-24.38277818909873
 30
0.0
 11
223.9014561339262
 21
-24.38277818909873
 31
0.0
  0
LINE
  5
19D
330
2
100
AcDbEntity
  8
CENTER
 48
4.0
100
AcDbLine
 10
192.6754156146572
 20
-27.65431401309872
 30
0.0
 11
183.7923184978572
 21
-28.43148430909872
 31
0.0
  0
LWPOLYLINE
  5
19E
330
2
100
AcDbEntity
  8
0
100
AcDbPolyline
 90
        8
 70
     0
 43
0.0
 10
184.2967885346572
 20
-26.38309236349872
 10
184.9092337922572
 20
-26.38310119869872
 10
185.2706849538572
 20
-26.38318856189872
 10
185.6684229906572
 20
-26.38331302909873
 10
186.1020605986572
 20
-26.38345896189872
 10
186.5709968002572
 20
-26.38361113469872
 10
187.0745535042572
 20
-26.38375587069873
 10
188.7870592082572
 20
-26.38403067709873
  0
LWPOLYLINE
  5
19F
330
2
100
AcDbEntity
  8
0
100
AcDbPolyline
 90
        4
 70
     0
 43
0.0
 10
183.5112410098572
 20
-24.96614400829872
 10
183.4575121842572
 20
-25.35654697629873
 10
183.4014510338572
 20
-25.87674875869872
 10
183.3469361970572
 20
-26.38277843709873
  0
LINE
  5
1A0
330
2
100
AcDbEntity
  8
0
100
AcDbLine
 10
183.3469361970572
 20
-26.38277843709873
 30
0.0
 11
183.5260910770572
 21
-26.38297520669873
 31
0.0
  0
LWPOLYLINE
  5
1A1
330
2
100
AcDbEntity
  8
0
100
AcDbPolyline
 90
        5
 70
     0
 43
0.0
 10
183.5260910770572
 20
-26.38297520669873
 10
183.6617147810572
 20
-26.38318724189872
 10
183.8352303106572
 20
-26.38325774269872
 10
184.0469130674572
 20
-26.38318652189873
 10
184.2967885346572
 20
-26.38309236349872
  0
LWPOLYLINE
  5
1A2
330
2
100
AcDbEntity
  8
0
100
AcDbPolyline
 90
        6
 70
     0
 43
0.0
 10
184.7924147899322
 20
-24.38277818909873
 10
184.7092354962572
 20
-24.39771243229872
 10
184.5335339154572
 20
-24.42872233309872
 10
184.3873360098572
 20
-24.45466972349872
 10
184.2703899922572
 20
-24.47581194269872
 10
184.1808614866572
 20
-24.49222044989872
  0
LINE
  5
1A3
330
2
100
AcDbEntity
  8
0
100
AcDbLine
 10
184.0708506130572
 20
-24.51144266269873
 30
0.0
 11
184.0523782578572
 21
-24.51403433309872
 31
0.0
  0
LINE
  5
1A4
330
2
100
AcDbEntity
  8
0
100
AcDbLine
 10
184.0527168162572
 20
-24.51398683389872
 30
0.0
 11
184.0475964210572
 21
-24.51424413469872
 31
0.0
  0
LINE
  5
1A5
330
2
100
AcDbEntity
  8
0
100
AcDbLine
 10
184.0527168162572
 20
-24.51398683389872
 30
0.0
 11
184.0478178370572
 21
-24.51423290269873
 31
0.0
  0
LINE
  5
1A6
330
2
100
AcDbEntity
  8
0
100
AcDbLine
 10
184.1157297538572
 20
-24.50395363389872
 30
0.0
 11
184.0708506130572
 21
-24.51144266269873
 31
0.0
  0
LINE
  5
1A7
330
2
100
AcDbEntity
  8
0
100
AcDbLine
 10
184.1808614866572
 20
-24.49222044989872
 30
0.0
 11
184.1157297538572
 21
-24.50395363389872
 31
0.0
  0
LWPOLYLINE
  5
1A8
330
2
100
AcDbEntity
  8
0
100
AcDbPolyline
 90
        3
 70
     0
 43
0.0
 10
183.9885976834572
 20
-24.51844809309872
 10
183.9480814418572
 20
-24.52334413469872
 10
183.9391446194572
 20
-24.52467936829872
  0
LINE
  5
1A9
330
2
100
AcDbEntity
  8
0
100
AcDbLine
 10
183.9376672290572
 20
-24.52488767869872
 30
0.0
 11
183.9358156002572
 21
-24.52515845789872
 31
0.0
  0
LINE
  5
1AA
330
2
100
AcDbEntity
  8
0
100
AcDbLine
 10
183.9358157714572
 20
-24.52515843389872
 30
0.0
 11
183.9318566178572
 21
-24.52575898909872
 31
0.0
  0
LINE
  5
1AB
330
2
100
AcDbEntity
  8
0
100
AcDbLine
 10
183.9358156002572
 20
-24.52515845789872
 30
0.0
 11
183.9305743698572
 21
-24.52596051229873
 31
0.0
  0
LINE
  5
1AC
330
2
100
AcDbEntity
  8
0
100
AcDbLine
 10
183.9308417042572
 20
-24.52591850909873
 30
0.0
 11
183.9256518818572
 21
-24.52676452349872
 31
0.0
  0
LINE
  5
1AD
330
2
100
AcDbEntity
  8
0
100
AcDbLine
 10
183.9257465186572
 20
-24.52674851229873
 30
0.0
 11
183.9255868802572
 21
-24.52677549789872
 31
0.0
  0
LINE
  5
1AE
330
2
100
AcDbEntity
  8
0
100
AcDbLine
 10
183.9257497634572
 20
-24.52674798269873
 30
0.0
 11
183.9254585330572
 21
-24.52679720029873
 31
0.0
  0
LINE
  5
1AF
330
2
100
AcDbEntity
  8
0
100
AcDbLine
 10
183.9257465186572
 20
-24.52674851229873
 30
0.0
 11
183.9200412146572
 21
-24.52774036029873
 31
0.0
  0
LINE
  5
1B0
330
2
100
AcDbEntity
  8
0
100
AcDbLine
 10
183.9221666818572
 20
-24.52736360989872
 30
0.0
 11
183.9174813234572
 21
-24.52820735229872
 31
0.0
  0
LINE
  5
1B1
330
2
100
AcDbEntity
  8
0
100
AcDbLine
 10
183.9201280930572
 20
-24.52772474909873
 30
0.0
 11
183.9127853554572
 21
-24.52909992669872
 31
0.0
  0
LINE
  5
1B2
330
2
100
AcDbEntity
  8
0
100
AcDbLine
 10
183.9175268594572
 20
-24.52819892669872
 30
0.0
 11
183.9125572546572
 21
-24.52914402109873
 31
0.0
  0
LINE
  5
1B3
330
2
100
AcDbEntity
  8
0
100
AcDbLine
 10
183.9126245970572
 20
-24.52913086909873
 30
0.0
 11
183.9094643266572
 21
-24.52975838429873
 31
0.0
  0
LINE
  5
1B4
330
2
100
AcDbEntity
  8
0
100
AcDbLine
 10
184.0269205314572
 20
-24.51540474109872
 30
0.0
 11
184.0076663458572
 21
-24.51674150589873
 31
0.0
  0
LINE
  5
1B5
330
2
100
AcDbEntity
  8
0
100
AcDbLine
 10
184.0076663458572
 20
-24.51674150589873
 30
0.0
 11
183.9885207986572
 21
-24.51845598429872
 31
0.0
  0
LINE
  5
1B6
330
2
100
AcDbEntity
  8
0
100
AcDbLine
 10
183.9885207986572
 20
-24.51845598429872
 30
0.0
 11
183.9885976658572
 21
-24.51844812989873
 31
0.0
  0
LINE
  5
1B7
330
2
100
AcDbEntity
  8
0
100
AcDbLine
 10
184.0476117970572
 20
-24.51424334589872
 30
0.0
 11
184.0269205314572
 21
-24.51540474109872
 31
0.0
  0
LWPOLYLINE
  5
1B8
330
2
100
AcDbEntity
  8
0
100
AcDbPolyline
 90
       23
 70
     0
 43
0.0
 10
183.9013187666572
 20
-24.53147334429872
 10
183.8958030834572
 20
-24.53271513949872
 10
183.8888885394572
 20
-24.53436470749872
 10
183.8802413378572
 20
-24.53657458109872
 10
183.8696172210572
 20
-24.53951649469873
 10
183.8571317970572
 20
-24.54329949629872
 10
183.8431996002572
 20
-24.54794630269872
 10
183.8276263010572
 20
-24.55368769629873
 10
183.8097757394572
 20
-24.56100644349872
 10
183.7894884018572
 20
-24.57032827229872
 10
183.7673303266572
 20
-24.58180779549872
 10
183.7435414754572
 20
-24.59576342269873
 10
183.7179578706572
 20
-24.61285219069872
 10
183.6902781266572
 20
-24.63409450749873
 10
183.6620432178572
 20
-24.65922392029872
 10
183.6345687762572
 20
-24.68778079389872
 10
183.6084112946572
 20
-24.71979258909873
 10
183.5841271026572
 20
-24.75523019229872
 10
183.5622822194572
 20
-24.79398333789873
 10
183.5434368818572
 20
-24.83586169149873
 10
183.5281329938572
 20
-24.88059708349872
 10
183.5168863490572
 20
-24.92783271069873
 10
183.5112358818572
 20
-24.96614349629872
  0
LINE
  5
1B9
330
2
100
AcDbEntity
  8
0
100
AcDbLine
 10
183.9058842258572
 20
-24.53049475869873
 30
0.0
 11
183.9013187666572
 21
-24.53147334429872
 31
0.0
  0
LINE
  5
1BA
330
2
100
AcDbEntity
  8
0
100
AcDbLine
 10
183.9128988738572
 20
-24.52907822269873
 30
0.0
 11
183.9015371314572
 21
-24.53142552509872
 31
0.0
  0
LWPOLYLINE
  5
1BB
330
2
100
AcDbEntity
  8
0
100
AcDbPolyline
 90
        4
 70
     0
 43
0.0
 10
199.3782479906572
 20
-26.38460372509872
 10
199.4110789890572
 20
-25.64640420029872
 10
199.4439158866572
 20
-25.01587024509872
 10
199.4721611344685
 20
-24.38277818909873
  0
LWPOLYLINE
  5
1BC
330
2
100
AcDbEntity
  8
0
100
AcDbPolyline
 90
        4
 70
     0
 43
0.0
 10
195.5139511522572
 20
-26.38438975069873
 10
195.5702064610572
 20
-25.67513740509873
 10
195.6264669090572
 20
-25.07342186589873
 10
195.6813950782515
 20
-24.38277818909873
  0
LINE
  5
1BD
330
2
100
AcDbEntity
  8
0
100
AcDbLine
 10
193.0399916354572
 20
-26.38423588989872
 30
0.0
 11
199.3782479906572
 21
-26.38460372509872
 31
0.0
  0
LINE
  5
1BE
330
2
100
AcDbEntity
  8
0
100
AcDbLine
 10
188.6524429218572
 20
-28.19184283549872
 30
0.0
 11
188.7946494194572
 21
-29.81727065149872
 31
0.0
  0
LWPOLYLINE
  5
1BF
330
2
100
AcDbEntity
  8
0
100
AcDbPolyline
 90
       11
 70
     0
 43
0.0
 10
188.3416790882572
 20
-26.40056083229873
 10
188.3543507954572
 20
-26.61485958109873
 10
188.3675451202572
 20
-26.84564246269872
 10
188.3800480722572
 20
-27.17833084829873
 10
188.3919187810572
 20
-27.39837054429873
 10
188.4032144226572
 20
-27.61293245789873
 10
188.4139903666572
 20
-27.82201660989872
 10
188.4242958594572
 20
-28.02563750909873
 10
188.4341748562572
 20
-28.22382213949873
 10
188.4436666514572
 20
-28.41662640669872
 10
188.4528059794572
 20
-28.60412484989872
  0
LWPOLYLINE
  5
1C0
330
2
100
AcDbEntity
  8
0
  6
HIDDEN
100
AcDbPolyline
 90
      105
 70
     0
 43
0.0
 10
188.6524429218572
 20
-28.19184283549872
 10
188.8317158994572
 20
-28.26083141469872
 10
189.0102993234572
 20
-28.32818947229872
 10
189.1884359042572
 20
-28.39382885469872
 10
189.3663683538572
 20
-28.45766140669872
 10
189.5443393826572
 20
-28.51959897469873
 10
189.7225917026572
 20
-28.57955340189873
 10
189.9013680242572
 20
-28.63743653629873
 10
190.0809110626572
 20
-28.69316022109872
 10
190.2490106722572
 20
-28.74303284669872
 10
190.4181816610572
 20
-28.79088515869872
 10
190.5886200370572
 20
-28.83664596509872
 10
190.7605218066572
 20
-28.88024407709873
 10
190.7823766626572
 20
-28.88550670109872
 10
190.8042816754572
 20
-28.89017720189873
 10
190.8262604722572
 20
-28.89369917949872
 10
190.8483366786572
 20
-28.89551622909872
 10
190.8699135538572
 20
-28.89533534909872
 10
190.8915630578572
 20
-28.89380082909873
 10
190.9132433218572
 20
-28.89169819069872
 10
190.9926612882572
 20
-28.88529744029872
 10
191.0720039362572
 20
-28.88138488189872
 10
191.1513451954572
 20
-28.87952728829872
 10
191.2307589954572
 20
-28.87929143069873
 10
191.3103192626572
 20
-28.88024407709873
 10
191.3487343922572
 20
-28.88108557469873
 10
191.3871164466572
 20
-28.88256807709872
 10
191.4253811266572
 20
-28.88515704669872
 10
191.4634441298572
 20
-28.88931794429872
 10
191.5012211570572
 20
-28.89551622909872
 10
191.5421859458572
 20
-28.90507620669873
 10
191.5825246770572
 20
-28.91750208029872
 10
191.6220561042572
 20
-28.93265309309873
 10
191.6605989778572
 20
-28.95038849149873
 10
191.6979720514572
 20
-28.97056752029873
 10
191.7339940786572
 20
-28.99304942109872
 10
191.7684838098572
 20
-29.01769344189872
 10
191.8042684482572
 20
-29.04697181789872
 10
191.8379085970572
 20
-29.07853977789872
 10
191.8693103826572
 20
-29.11226791709872
 10
191.8983799282572
 20
-29.14802682909872
 10
191.9250233634572
 20
-29.18568710909873
 10
191.9475078322572
 20
-29.22223740509872
 10
191.9677326738572
 20
-29.26015095709873
 10
191.9856112002572
 20
-29.29926308989873
 10
192.0010567250572
 20
-29.33940912349872
 10
192.0139825618572
 20
-29.38042438429873
 10
192.0243020242572
 20
-29.42214419389872
 10
192.0319284242572
 20
-29.46440387389872
 10
192.0367871826572
 20
-29.50683916029872
 10
192.0389789682572
 20
-29.54951822429872
 10
192.0385899282572
 20
-29.59231324349873
 10
192.0357062066572
 20
-29.63509639709872
 10
192.0304139538572
 20
-29.67773985949873
 10
192.0227993122572
 20
-29.72011580989873
 10
192.0129484322572
 20
-29.76209642589872
 10
192.0009474594572
 20
-29.80355388509872
 10
191.9868825378572
 20
-29.84436036509872
 10
191.9708398178572
 20
-29.88438804189872
 10
191.9606663442572
 20
-29.90706899069872
 10
191.9496366994572
 20
-29.92922400349872
 10
191.9375257522572
 20
-29.95062958909872
 10
191.9241083682572
 20
-29.97106225309872
 10
191.9091594162572
 20
-29.99029850429872
 10
191.8911688802572
 20
-30.00948230269873
 10
191.8713947458572
 20
-30.02705301149873
 10
191.8500929330572
 20
-30.04304605469872
 10
191.8275193714572
 20
-30.05749684829872
 10
191.8039299810572
 20
-30.07044081469873
 10
191.7795806882572
 20
-30.08191337309872
 10
191.7547274194572
 20
-30.09194994589872
 10
191.7242953522572
 20
-30.10231968189872
 10
191.6936145202572
 20
-30.11127934269873
 10
191.6627992210572
 20
-30.11946880669873
 10
191.6319637554572
 20
-30.12752794909872
 10
191.5808675154572
 20
-30.14179329309873
 10
191.5299332034572
 20
-30.15697912989873
 10
191.4790626466572
 20
-30.17259799389872
 10
191.4281576770572
 20
-30.18816242269872
 10
191.3771201234572
 20
-30.20318494909872
 10
191.3258518162572
 20
-30.21717810909872
 10
191.2742545842572
 20
-30.22965443709873
 10
191.2222302562572
 20
-30.24012646909872
 10
191.1781562738572
 20
-30.24706890749873
 10
191.1338129282572
 20
-30.25227467709872
 10
191.0893014498572
 20
-30.25576515229873
 10
191.0313320082572
 20
-30.25786139869873
 10
190.9733163026572
 20
-30.25766993469872
 10
190.9153210978572
 20
-30.25576515229873
 10
190.8220782146572
 20
-30.25020431069872
 10
190.7290496178572
 20
-30.24202227869873
 10
190.6362232114572
 20
-30.23155224669872
 10
190.5435868978572
 20
-30.21912740189872
 10
190.4511285810572
 20
-30.20508093309873
 10
190.3588361634572
 20
-30.18974603389873
 10
190.2666975490572
 20
-30.17345589149872
 10
190.0980469378572
 20
-30.14184672829873
 10
189.9298958130572
 20
-30.10810778429872
 10
189.7622667746572
 20
-30.07220268349873
 10
189.5951824194572
 20
-30.03409505309872
 10
189.4286653474572
 20
-29.99374851869873
 10
189.2627381570572
 20
-29.95112670429873
 10
189.0974234466572
 20
-29.90619323869872
 10
188.9457583618572
 20
-29.86274161629872
 10
188.7946494194572
 20
-29.81727065149872
  0
LWPOLYLINE
  5
1C1
330
2
100
AcDbEntity
  8
0
100
AcDbPolyline
 90
        3
 70
     0
 43
0.0
 10
188.4528059794572
 20
-28.60412484989872
 10
188.4701475522572
 20
-28.96348860349872
 10
188.4864229874572
 20
-29.30251665469873
  0
LINE
  5
1C2
330
2
100
AcDbEntity
  8
0
100
AcDbLine
 10
188.4864229874572
 20
-29.30251665469873
 30
0.0
 11
188.5018159538572
 21
-29.62191335069872
 31
0.0
  0
LINE
  5
1C3
330
2
100
AcDbEntity
  8
0
100
AcDbLine
 10
188.5018159538572
 20
-29.62191335069872
 30
0.0
 11
188.5164900466572
 21
-29.92247058909873
 31
0.0
  0
LWPOLYLINE
  5
1C4
330
2
100
AcDbEntity
  8
0
100
AcDbPolyline
 90
        3
 70
     0
 43
0.0
 10
188.7870592082572
 20
-26.38403067709873
 10
189.4227001426572
 20
-26.38407237789872
 10
193.0399916354572
 20
-26.38423588989872
  0
LINE
  5
1C5
330
2
100
AcDbEntity
  8
0
100
AcDbLine
 10
195.5139511298572
 20
-26.38438980669873
 30
0.0
 11
195.5204131074572
 21
-26.40056088829872
 31
0.0
  0
LINE
  5
1C6
330
2
100
AcDbEntity
  8
0
100
AcDbLine
 10
199.3782479746572
 20
-26.38460379389872
 30
0.0
 11
199.3818616706572
 21
-26.40056090109872
 31
0.0
  0
LINE
  5
1C7
330
2
100
AcDbEntity
  8
0
100
AcDbLine
 10
209.3117915026572
 20
-26.38460372509872
 30
0.0
 11
216.4279266274572
 21
-26.38419671869872
 31
0.0
  0
LINE
  5
1C8
330
2
100
AcDbEntity
  8
0
100
AcDbLine
 10
209.3117915026572
 20
-26.38460372509872
 30
0.0
 11
209.2178699796968
 21
-24.38277818909873
 31
0.0
  0
LINE
  5
1C9
330
2
100
AcDbEntity
  8
0
100
AcDbLine
 10
204.3450197458572
 20
-26.40056090269872
 30
0.0
 11
204.3450197458572
 21
-24.38277818909873
 31
0.0
  0
LINE
  5
1CA
330
2
100
AcDbEntity
  8
0
100
AcDbLine
 10
204.3450197458572
 20
-26.38454846749872
 30
0.0
 11
209.3117915026572
 21
-26.38460372509872
 31
0.0
  0
LINE
  5
1CB
330
2
100
AcDbEntity
  8
0
100
AcDbLine
 10
209.3117915154572
 20
-26.38460378269872
 30
0.0
 11
209.3081778194572
 21
-26.40056088989872
 31
0.0
  0
LINE
  5
1CC
330
2
100
AcDbEntity
  8
0
100
AcDbLine
 10
213.1760883410572
 20
-26.38438975069873
 30
0.0
 11
213.0635725842572
 21
-25.07342186589873
 31
0.0
  0
LINE
  5
1CD
330
2
100
AcDbEntity
  8
0
100
AcDbLine
 10
216.4279266274572
 20
-26.38419671869872
 30
0.0
 11
219.2673393506572
 21
-26.38407237789872
 31
0.0
  0
LWPOLYLINE
  5
1CE
330
2
100
AcDbEntity
  8
0
  6
HIDDEN
100
AcDbPolyline
 90
       25
 70
     0
 43
0.0
 10
220.0395297586572
 20
-28.19184283549872
 10
219.9125613426572
 20
-28.23012840989872
 10
219.7860586482572
 20
-28.27097614909872
 10
219.6599224370572
 20
-28.31393836669873
 10
219.5340534626572
 20
-28.35856737629873
 10
219.4083524834572
 20
-28.40441549149872
 10
219.2827202562572
 20
-28.45103502909872
 10
219.1570575394572
 20
-28.49797830109872
 10
219.0312650914572
 20
-28.54479762269873
 10
218.9052436658572
 20
-28.59104530749872
 10
218.7788940226572
 20
-28.63627366909872
 10
218.6521169186572
 20
-28.68003502429872
 10
218.5544070162572
 20
-28.71236497949873
 10
218.4563415538572
 20
-28.74336302109873
 10
218.3578755842572
 20
-28.77282640029872
 10
218.2589641618572
 20
-28.80055236509872
 10
218.1595623410572
 20
-28.82633816829872
 10
218.0596251762572
 20
-28.84998105949873
 10
217.9591077234572
 20
-28.87127828989872
 10
217.8579650370572
 20
-28.89002710749872
 10
217.8336643602572
 20
-28.89392797149872
 10
217.8092762114572
 20
-28.89656464509872
 10
217.7877612818572
 20
-28.89718450269873
 10
217.7661820658572
 20
-28.89656210589873
 10
217.7445796050572
 20
-28.89528352349872
  0
LWPOLYLINE
  5
1CF
330
2
100
AcDbEntity
  8
0
  6
HIDDEN
100
AcDbPolyline
 90
       86
 70
     0
 43
0.0
 10
217.7445796050572
 20
-28.89528352349872
 10
217.6153185458572
 20
-28.88639157469873
 10
217.5507846434572
 20
-28.88255614749872
 10
217.4862387362572
 20
-28.87995742589873
 10
217.4216235058572
 20
-28.87921766429872
 10
217.3568816354572
 20
-28.88095911549872
 10
217.3110580546572
 20
-28.88402238429872
 10
217.2653298146572
 20
-28.88884242269872
 10
217.2198841202572
 20
-28.89562621629873
 10
217.1749081746572
 20
-28.90458075229872
 10
217.1305891842572
 20
-28.91591301789872
 10
217.0871143506572
 20
-28.92983000029873
 10
217.0519273122572
 20
-28.94351384829873
 10
217.0176205682572
 20
-28.95949162589873
 10
216.9840324866572
 20
-28.97784173149872
 10
216.9512944770572
 20
-28.99842432029872
 10
216.9195379394572
 20
-29.02109954269873
 10
216.8888942802572
 20
-29.04572755229873
 10
216.8594949010572
 20
-29.07216850109873
 10
216.8314712082572
 20
-29.10028254109873
 10
216.8049546050572
 20
-29.12992982429873
 10
216.7800764962572
 20
-29.16097050429872
 10
216.7569682850572
 20
-29.19326473309872
 10
216.7357613746572
 20
-29.22667266269872
 10
216.7165871714572
 20
-29.26105444509873
 10
216.6995770770572
 20
-29.29627023229872
 10
216.6848624978572
 20
-29.33218017789872
 10
216.6725748354572
 20
-29.36864443389873
 10
216.6628454962572
 20
-29.40552315229872
 10
216.6558058818572
 20
-29.44267648509873
 10
216.6515844642572
 20
-29.47909945629872
 10
216.6497597970572
 20
-29.51562439069872
 10
216.6500393698572
 20
-29.55222478269872
 10
216.6521306738572
 20
-29.58887412989872
 10
216.6557411970572
 20
-29.62554592509873
 10
216.6605784290572
 20
-29.66221366429872
 10
216.6664024402572
 20
-29.69863987869873
 10
216.6733677090572
 20
-29.73487209469872
 10
216.6816908594572
 20
-29.77074656189872
 10
216.6915885218572
 20
-29.80609953149873
 10
216.7032773218572
 20
-29.84076725149872
 10
216.7169738882572
 20
-29.87458597149872
 10
216.7328948482572
 20
-29.90739194269873
 10
216.7512568290572
 20
-29.93902141149872
 10
216.7657825826572
 20
-29.96050147549873
 10
216.7816333698572
 20
-29.98105063869872
 10
216.7988118674572
 20
-30.00040486429873
 10
216.8173207458572
 20
-30.01830011549872
 10
216.8371626818572
 20
-30.03447235869872
 10
216.8614293474572
 20
-30.05063820189873
 10
216.8871368706572
 20
-30.06458349309873
 10
216.9139806674572
 20
-30.07668421629873
 10
216.9416561570572
 20
-30.08731634909873
 10
216.9698587554572
 20
-30.09685587229872
 10
216.9982838802572
 20
-30.10567876509873
 10
217.0627005682572
 20
-30.12447814269872
 10
217.1268061074572
 20
-30.14248323869873
 10
217.1907129906572
 20
-30.16065851069872
 10
217.2453136018572
 20
-30.17686002269872
 10
217.2999774754572
 20
-30.19324427549872
 10
217.3548309170572
 20
-30.20916384829873
 10
217.4100002306572
 20
-30.22397132029873
 10
217.4656117186572
 20
-30.23701926909873
 10
217.5131754210572
 20
-30.24624242269872
 10
217.5610580706572
 20
-30.25346088829872
 10
217.6091699426572
 20
-30.25840028029873
 10
217.6603737490572
 20
-30.26097875709872
 10
217.7116837202572
 20
-30.26117008669872
 10
217.7630490050572
 20
-30.25946129309873
 10
217.8144187458572
 20
-30.25633939549873
 10
217.8657420882572
 20
-30.25229141949872
 10
217.9812099970572
 20
-30.24135440029872
 10
218.0962408642572
 20
-30.22813449149873
 10
218.2108927138572
 20
-30.21258382589872
 10
218.3207749090572
 20
-30.19543633149872
 10
218.4303754546572
 20
-30.17628460189873
 10
218.5397092066572
 20
-30.15532155709873
 10
218.6487910162572
 20
-30.13274011549873
 10
218.7576357394572
 20
-30.10873319549872
 10
218.9215590866572
 20
-30.07021297789872
 10
219.0850269426572
 20
-30.02954696509872
 10
219.2480904338572
 20
-29.98739917789873
 10
219.4108006850572
 20
-29.94443363549872
 10
219.5732088226572
 20
-29.90131435389873
 10
219.7353659730572
 20
-29.85870535229873
 10
219.8973232610572
 20
-29.81727065149872
  0
LINE
  5
1D0
330
2
100
AcDbEntity
  8
0
100
AcDbLine
 10
213.1760883618572
 20
-26.38438980189873
 30
0.0
 11
213.1696263842572
 21
-26.40056088349872
 31
0.0
  0
LINE
  5
1D1
330
2
100
AcDbEntity
  8
0
100
AcDbLine
 10
220.0395297586572
 20
-28.19184283549872
 30
0.0
 11
219.8973232610572
 21
-29.81727065149872
 31
0.0
  0
LWPOLYLINE
  5
1D2
330
2
100
AcDbEntity
  8
0
100
AcDbPolyline
 90
       13
 70
     0
 43
0.0
 10
220.2080073266572
 20
-29.21105152509872
 10
220.2324834466572
 20
-28.70216022269873
 10
220.2411881794572
 20
-28.52277704029873
 10
220.2502104386572
 20
-28.33840094589872
 10
220.2595794258572
 20
-28.14896612669872
 10
220.2693289122572
 20
-27.95440394589872
 10
220.2794965202572
 20
-27.75467222909873
 10
220.2901243954572
 20
-27.54974886429872
 10
220.3012595858572
 20
-27.33962261309872
 10
220.3129546002572
 20
-27.12429534269872
 10
220.3252616882572
 20
-26.79661828189873
 10
220.3382391698572
 20
-26.57109948349873
 10
220.3483857426572
 20
-26.40056083229873
  0
LINE
  5
1D3
330
2
100
AcDbEntity
  8
0
100
AcDbLine
 10
220.1855170130572
 20
-29.67771937469872
 30
0.0
 11
220.2080073266572
 21
-29.21105152509872
 31
0.0
  0
LWPOLYLINE
  5
1D4
330
2
100
AcDbEntity
  8
0
100
AcDbPolyline
 90
        3
 70
     0
 43
0.0
 10
221.0778018050572
 20
-26.38387942109872
 10
221.6154859890572
 20
-26.38375587069873
 10
222.5879788946572
 20
-26.38345896189872
  0
LWPOLYLINE
  5
1D5
330
2
100
AcDbEntity
  8
0
100
AcDbPolyline
 90
        3
 70
     0
 43
0.0
 10
219.2673393506572
 20
-26.38407237789872
 10
219.9029802850572
 20
-26.38403067709873
 10
221.0778018050572
 20
-26.38387942109872
  0
LINE
  5
1D6
330
2
100
AcDbEntity
  8
0
100
AcDbLine
 10
222.5879788946572
 20
-26.38345896189872
 30
0.0
 11
223.0254480402572
 21
-26.38331302909873
 31
0.0
  0
LINE
  5
1D7
330
2
100
AcDbEntity
  8
0
100
AcDbLine
 10
223.0254480402572
 20
-26.38331302909873
 30
0.0
 11
223.7846372386572
 21
-26.38310119869872
 31
0.0
  0
LWPOLYLINE
  5
1D8
330
2
100
AcDbEntity
  8
0
100
AcDbPolyline
 90
        2
 70
     0
 43
0.0
 10
213.0635725842572
 20
-25.07342186589873
 10
213.0086444151873
 20
-24.38277818909873
  0
LINE
  5
1D9
330
2
100
AcDbEntity
  8
0
100
AcDbLine
 10
224.7592572962572
 20
-24.52538243229872
 30
0.0
 11
224.7559381106572
 21
-24.52484969309873
 31
0.0
  0
LINE
  5
1DA
330
2
100
AcDbEntity
  8
0
100
AcDbLine
 10
224.7615934498572
 20
-24.52569371709872
 30
0.0
 11
224.7462022850572
 21
-24.52340324189872
 31
0.0
  0
LINE
  5
1DB
330
2
100
AcDbEntity
  8
0
100
AcDbLine
 10
224.7644790946572
 20
-24.52614896829873
 30
0.0
 11
224.7611119602572
 21
-24.52561937949873
 31
0.0
  0
LINE
  5
1DC
330
2
100
AcDbEntity
  8
0
100
AcDbLine
 10
224.7667873010572
 20
-24.52652519869872
 30
0.0
 11
224.7636728946572
 21
-24.52602009469873
 31
0.0
  0
LINE
  5
1DD
330
2
100
AcDbEntity
  8
0
100
AcDbLine
 10
224.7694417346572
 20
-24.52697123229873
 30
0.0
 11
224.7660508754572
 21
-24.52640399389872
 31
0.0
  0
LINE
  5
1DE
330
2
100
AcDbEntity
  8
0
100
AcDbLine
 10
224.7713093554572
 20
-24.52729368029872
 30
0.0
 11
224.7682111266572
 21
-24.52676266589873
 31
0.0
  0
LINE
  5
1DF
330
2
100
AcDbEntity
  8
0
100
AcDbLine
 10
224.7733885138572
 20
-24.52766107869873
 30
0.0
 11
224.7703090546572
 21
-24.52712008829873
 31
0.0
  0
LINE
  5
1E0
330
2
100
AcDbEntity
  8
0
100
AcDbLine
 10
224.7761096994572
 20
-24.52815542589872
 30
0.0
 11
224.7730395170572
 21
-24.52759878589872
 31
0.0
  0
LINE
  5
1E1
330
2
100
AcDbEntity
  8
0
100
AcDbLine
 10
224.7789191890572
 20
-24.52868197469872
 30
0.0
 11
224.7749954818572
 21
-24.52795115389872
 31
0.0
  0
LINE
  5
1E2
330
2
100
AcDbEntity
  8
0
100
AcDbLine
 10
224.7799785074572
 20
-24.52888479229872
 30
0.0
 11
224.7768625602572
 21
-24.52829491229872
 31
0.0
  0
LINE
  5
1E3
330
2
100
AcDbEntity
  8
0
100
AcDbLine
 10
224.7839858850572
 20
-24.52967336989872
 30
0.0
 11
224.7787074066572
 21
-24.52864170909872
 31
0.0
  0
LINE
  5
1E4
330
2
100
AcDbEntity
  8
0
100
AcDbLine
 10
224.7872321330572
 20
-24.53033701949873
 30
0.0
 11
224.7839858850572
 21
-24.52967336989872
 31
0.0
  0
LINE
  5
1E5
330
2
100
AcDbEntity
  8
0
100
AcDbLine
 10
224.6462746578572
 20
-24.51424413629872
 30
0.0
 11
224.6412137986572
 21
-24.51398978909873
 31
0.0
  0
LINE
  5
1E6
330
2
100
AcDbEntity
  8
0
100
AcDbLine
 10
224.6668892178572
 20
-24.51540094749872
 30
0.0
 11
224.6462582162572
 21
-24.51424329469872
 31
0.0
  0
LINE
  5
1E7
330
2
100
AcDbEntity
  8
0
100
AcDbLine
 10
224.7053463634572
 20
-24.51845554909872
 30
0.0
 11
224.7052777330572
 21
-24.51844853629872
 31
0.0
  0
LINE
  5
1E8
330
2
100
AcDbEntity
  8
0
100
AcDbLine
 10
224.6416904850572
 20
-24.51405725309872
 30
0.0
 11
224.6208949074572
 21
-24.51111407069872
 31
0.0
  0
LWPOLYLINE
  5
1E9
330
2
100
AcDbEntity
  8
0
100
AcDbPolyline
 90
        3
 70
     0
 43
0.0
 10
224.7053463602572
 20
-24.51845558749873
 10
224.6861401682572
 20
-24.51673646429873
 10
224.6668892178572
 20
-24.51540094749872
  0
LWPOLYLINE
  5
1EA
330
2
100
AcDbEntity
  8
0
100
AcDbPolyline
 90
        7
 70
     0
 43
0.0
 10
224.6208949074572
 20
-24.51111407069872
 10
224.5779880722572
 20
-24.50392677149872
 10
224.5127766082572
 20
-24.49217784829873
 10
224.4231508338572
 20
-24.47575161789873
 10
224.3060900130572
 20
-24.45459004509872
 10
224.1597601586572
 20
-24.42862057469872
 10
223.9839175906572
 20
-24.39758519709872
  0
LWPOLYLINE
  5
1EB
330
2
100
AcDbEntity
  8
0
100
AcDbPolyline
 90
        2
 70
     0
 43
0.0
 10
223.9839175906572
 20
-24.39758519709872
 10
223.9014561339262
 20
-24.38277818909873
  0
LINE
  5
1EC
330
2
100
AcDbEntity
  8
0
100
AcDbLine
 10
224.7462022850572
 20
-24.52340324189872
 30
0.0
 11
224.7052777346572
 21
-24.51844853629872
 31
0.0
  0
LINE
  5
1ED
330
2
100
AcDbEntity
  8
0
100
AcDbLine
 10
224.7955153042572
 20
-24.53213203069872
 30
0.0
 11
224.7909056818572
 21
-24.53111501309872
 31
0.0
  0
LWPOLYLINE
  5
1EE
330
2
100
AcDbEntity
  8
0
100
AcDbPolyline
 90
        4
 70
     0
 43
0.0
 10
225.3469348066572
 20
-26.38277818909873
 10
225.2924199890572
 20
-25.87674869149872
 10
225.2363588418572
 20
-25.35654693789872
 10
225.1826300146572
 20
-24.96614396029873
  0
LINE
  5
1EF
330
2
100
AcDbEntity
  8
0
100
AcDbLine
 10
224.8077957698572
 20
-24.53506534749873
 30
0.0
 11
224.8009370434572
 21
-24.53338672349873
 31
0.0
  0
LINE
  5
1F0
330
2
100
AcDbEntity
  8
0
100
AcDbLine
 10
224.8161290290572
 20
-24.53724371389872
 30
0.0
 11
224.8076742866572
 21
-24.53503472189872
 31
0.0
  0
LINE
  5
1F1
330
2
100
AcDbEntity
  8
0
100
AcDbLine
 10
224.8989616882572
 20
-24.56789389149872
 30
0.0
 11
224.8999226402572
 21
-24.56818385629873
 31
0.0
  0
LINE
  5
1F2
330
2
100
AcDbEntity
  8
0
100
AcDbLine
 10
224.8386120754572
 20
-24.54389743229873
 30
0.0
 11
224.8261360274572
 21
-24.54006376189873
 31
0.0
  0
LINE
  5
1F3
330
2
100
AcDbEntity
  8
0
100
AcDbLine
 10
224.8410012850572
 20
-24.54467248029873
 30
0.0
 11
224.8343224114572
 21
-24.54253904669872
 31
0.0
  0
LINE
  5
1F4
330
2
100
AcDbEntity
  8
0
100
AcDbLine
 10
224.8529724498572
 20
-24.54875742749873
 30
0.0
 11
224.8383577730572
 21
-24.54381571869872
 31
0.0
  0
LINE
  5
1F5
330
2
100
AcDbEntity
  8
0
100
AcDbLine
 10
224.8695542418572
 20
-24.55498374109873
 30
0.0
 11
224.8526985970572
 21
-24.54866018589872
 31
0.0
  0
LINE
  5
1F6
330
2
100
AcDbEntity
  8
0
100
AcDbLine
 10
224.8999226402572
 20
-24.56818385629873
 30
0.0
 11
224.8512654786572
 21
-24.54815422429872
 31
0.0
  0
LINE
  5
1F7
330
2
100
AcDbEntity
  8
0
100
AcDbLine
 10
224.8888743010572
 20
-24.56310365309873
 30
0.0
 11
224.8692854546572
 21
-24.55487743389872
 31
0.0
  0
LWPOLYLINE
  5
1F8
330
2
100
AcDbEntity
  8
0
100
AcDbPolyline
 90
        3
 70
     0
 43
0.0
 10
224.8273390978572
 20
-24.54041796989872
 10
224.8204145778572
 20
-24.53842393949873
 10
224.8139905794572
 20
-24.53667007549872
  0
LWPOLYLINE
  5
1F9
330
2
100
AcDbEntity
  8
0
100
AcDbPolyline
 90
       14
 70
     0
 43
0.0
 10
225.1826358242572
 20
-24.96614335869873
 10
225.1765738194572
 20
-24.92566204989872
 10
225.1645980098572
 20
-24.87672294909872
 10
225.1483557906572
 20
-24.83069367389873
 10
225.1284351506572
 20
-24.78785989309872
 10
225.1054155778572
 20
-24.74841438589872
 10
225.0798657426572
 20
-24.71247793149872
 10
225.0523325730572
 20
-24.68009789629872
 10
225.0233324226572
 20
-24.65125431869872
 10
224.9934090850572
 20
-24.62591899229872
 10
224.9637293538572
 20
-24.60442909629873
 10
224.9358829906572
 20
-24.58707826109872
 10
224.9109855538572
 20
-24.57360262269872
 10
224.8886010738572
 20
-24.56298212029873
  0
ENDSEC
  0
SECTION
  2
OBJECTS
  0
DICTIONARY
  5
A
330
0
100
AcDbDictionary
  3
ACAD_GROUP
350
23
  3
ACAD_LAYOUT
350
9
  3
ACAD_MLINESTYLE
350
24
  3
ACAD_PLOTSETTINGS
350
25
  3
ACAD_PLOTSTYLENAME
350
26
  3
ACDBHEADERROUNDTRIPXREC
350
26E
  3
ACDBVARIABLEDICTIONARY
350
1FA
  0
DICTIONARY
  5
228
330
2
100
AcDbDictionary
280
     1
  3
ACAD_LAYOUTSELFREF
360
28F
  0
DICTIONARY
  5
22E
330
B
100
AcDbDictionary
280
     1
  3
ACAD_LAYOUTSELFREF
360
290
  0
DICTIONARY
  5
23
102
{ACAD_REACTORS
330
A
102
}
330
A
100
AcDbDictionary
  0
DICTIONARY
  5
9
102
{ACAD_REACTORS
330
A
102
}
330
A
100
AcDbDictionary
  0
DICTIONARY
  5
24
102
{ACAD_REACTORS
330
A
102
}
330
A
100
AcDbDictionary
  3
STANDARD
350
27
  0
DICTIONARY
  5
25
102
{ACAD_REACTORS
330
A
102
}
330
A
100
AcDbDictionary
  0
ACDBDICTIONARYWDFLT
  5
26
102
{ACAD_REACTORS
330
A
102
}
330
A
100
AcDbDictionary
281
     1
  3
Normal
350
5
100
AcDbDictionaryWithDefault
340
5
  0
DICTIONARY
  5
26E
102
{ACAD_REACTORS
330
A
102
}
330
A
100
AcDbDictionary
  3
CEPSNTYPE
350
278
  3
DIMSTYLEDATA
350
27C
  3
FINGERPRINTGUID
350
279
  3
HYPERLINKBASE
350
271
  3
INSUNITS
350
277
  3
LAYOUTDICT
350
273
  3
LWETCUNION
350
276
  3
PLOTSETDICT
350
274
  3
PLOTSTYLNAMDICT
350
275
  3
PSVPSCALE
350
27B
  3
PUCSBASE
350
27F
  3
PUCSORGBACK
350
285
  3
PUCSORGBOTTOM
350
281
  3
PUCSORGFRONT
350
284
  3
PUCSORGLEFT
350
282
  3
PUCSORGRIGHT
350
283
  3
PUCSORGTOP
350
280
  3
PUCSORTHOREF
350
27D
  3
PUCSORTHOVIEW
350
27E
  3
STYLESHEET
350
272
  3
TSTACKALIGN
350
26F
  3
TSTACKSIZE
350
270
  3
UCSBASE
350
288
  3
UCSORGBACK
350
28E
  3
UCSORGBOTTOM
350
28A
  3
UCSORGFRONT
350
28D
  3
UCSORGLEFT
350
28B
  3
UCSORGRIGHT
350
28C
  3
UCSORGTOP
350
289
  3
UCSORTHOREF
350
286
  3
UCSORTHOVIEW
350
287
  3
VERSIONGUID
350
27A
  0
DICTIONARY
  5
1FA
102
{ACAD_REACTORS
330
A
102
}
330
A
100
AcDbDictionary
  3
DIMASSOC
350
1FC
  3
HIDETEXT
350
1FB
  0
XRECORD
  5
28F
102
{ACAD_REACTORS
330
228
102
}
330
228
100
AcDbXrecord
340
2
  0
XRECORD
  5
290
102
{ACAD_REACTORS
330
22E
102
}
330
22E
100
AcDbXrecord
340
B
  0
MLINESTYLE
  5
27
102
{ACAD_REACTORS
330
24
102
}
330
24
100
AcDbMlineStyle
  2
STANDARD
 70
     0
  3

 62
   256
 51
90.0
 52
90.0
 71
     2
 49
0.5
 62
   256
  6
BYLAYER
 49
-0.5
 62
   256
  6
BYLAYER
  0
ACDBPLACEHOLDER
  5
5
102
{ACAD_REACTORS
330
26
102
}
330
0
100
AcDbPlaceHolder
280
     0
  0
XRECORD
  5
278
102
{ACAD_REACTORS
330
26E
102
}
330
26E
100
AcDbXrecord
 90
        0
  0
XRECORD
  5
27C
102
{ACAD_REACTORS
330
26E
102
}
330
26E
100
AcDbXrecord
1000
DSTYLE
1002
{
1070
   341
340
1E
1070
   342
340
1E
1002
}
  0
XRECORD
  5
279
102
{ACAD_REACTORS
330
26E
102
}
330
26E
100
AcDbXrecord
  1

  0
XRECORD
  5
271
102
{ACAD_REACTORS
330
26E
102
}
330
26E
100
AcDbXrecord
  1

  0
XRECORD
  5
277
102
{ACAD_REACTORS
330
26E
102
}
330
26E
100
AcDbXrecord
 90
        1
  0
XRECORD
  5
273
102
{ACAD_REACTORS
330
26E
102
}
330
26E
100
AcDbXrecord
340
9
  0
XRECORD
  5
276
102
{ACAD_REACTORS
330
26E
102
}
330
26E
100
AcDbXrecord
 90
    10781
  0
XRECORD
  5
274
102
{ACAD_REACTORS
330
26E
102
}
330
26E
100
AcDbXrecord
340
25
  0
XRECORD
  5
275
102
{ACAD_REACTORS
330
26E
102
}
330
26E
100
AcDbXrecord
340
26
  0
XRECORD
  5
27B
102
{ACAD_REACTORS
330
26E
102
}
330
26E
100
AcDbXrecord
 40
0.0
  0
XRECORD
  5
27F
102
{ACAD_REACTORS
330
26E
102
}
330
26E
100
AcDbXrecord
340
0
  0
XRECORD
  5
285
102
{ACAD_REACTORS
330
26E
102
}
330
26E
100
AcDbXrecord
 10
0.0
 20
0.0
 30
0.0
  0
XRECORD
  5
281
102
{ACAD_REACTORS
330
26E
102
}
330
26E
100
AcDbXrecord
 10
0.0
 20
0.0
 30
0.0
  0
XRECORD
  5
284
102
{ACAD_REACTORS
330
26E
102
}
330
26E
100
AcDbXrecord
 10
0.0
 20
0.0
 30
0.0
  0
XRECORD
  5
282
102
{ACAD_REACTORS
330
26E
102
}
330
26E
100
AcDbXrecord
 10
0.0
 20
0.0
 30
0.0
  0
XRECORD
  5
283
102
{ACAD_REACTORS
330
26E
102
}
330
26E
100
AcDbXrecord
 10
0.0
 20
0.0
 30
0.0
  0
XRECORD
  5
280
102
{ACAD_REACTORS
330
26E
102
}
330
26E
100
AcDbXrecord
 10
0.0
 20
0.0
 30
0.0
  0
XRECORD
  5
27D
102
{ACAD_REACTORS
330
26E
102
}
330
26E
100
AcDbXrecord
340
0
  0
XRECORD
  5
27E
102
{ACAD_REACTORS
330
26E
102
}
330
26E
100
AcDbXrecord
 70
     0
  0
XRECORD
  5
272
102
{ACAD_REACTORS
330
26E
102
}
330
26E
100
AcDbXrecord
  1

  0
XRECORD
  5
26F
102
{ACAD_REACTORS
330
26E
102
}
330
26E
100
AcDbXrecord
 90
        1
  0
XRECORD
  5
270
102
{ACAD_REACTORS
330
26E
102
}
330
26E
100
AcDbXrecord
 90
       70
  0
XRECORD
  5
288
102
{ACAD_REACTORS
330
26E
102
}
330
26E
100
AcDbXrecord
340
0
  0
XRECORD
  5
28E
102
{ACAD_REACTORS
330
26E
102
}
330
26E
100
AcDbXrecord
 10
0.0
 20
0.0
 30
0.0
  0
XRECORD
  5
28A
102
{ACAD_REACTORS
330
26E
102
}
330
26E
100
AcDbXrecord
 10
0.0
 20
0.0
 30
0.0
  0
XRECORD
  5
28D
102
{ACAD_REACTORS
330
26E
102
}
330
26E
100
AcDbXrecord
 10
0.0
 20
0.0
 30
0.0
  0
XRECORD
  5
28B
102
{ACAD_REACTORS
330
26E
102
}
330
26E
100
AcDbXrecord
 10
0.0
 20
0.0
 30
0.0
  0
XRECORD
  5
28C
102
{ACAD_REACTORS
330
26E
102
}
330
26E
100
AcDbXrecord
 10
0.0
 20
0.0
 30
0.0
  0
XRECORD
  5
289
102
{ACAD_REACTORS
330
26E
102
}
330
26E
100
AcDbXrecord
 10
0.0
 20
0.0
 30
0.0
  0
XRECORD
  5
286
102
{ACAD_REACTORS
330
26E
102
}
330
26E
100
AcDbXrecord
340
0
  0
XRECORD
  5
287
102
{ACAD_REACTORS
330
26E
102
}
330
26E
100
AcDbXrecord
 70
     0
  0
XRECORD
  5
27A
102
{ACAD_REACTORS
330
26E
102
}
330
26E
100
AcDbXrecord
  1
{21FE4A43-718B-4361-ABE1-0B202E7F397A}
  0
DICTIONARYVAR
  5
1FC
102
{ACAD_REACTORS
330
1FA
102
}
330
1FA
100
DictionaryVariables
280
     0
  1
1
  0
DICTIONARYVAR
  5
1FB
102
{ACAD_REACTORS
330
1FA
102
}
330
1FA
100
DictionaryVariables
280
     0
  1
1
  0
ENDSEC
  0
EOF
