  0
SECTION
  2
HEADER
  9
$ACADVER
  1
AC1014
  9
$ACADMAINTVER
 70
     9
  9
$DWGCODEPAGE
  3
ANSI_1252
  9
$INSBASE
 10
112.4333796306572
 20
33.86219012770126
 30
0.0
  9
$EXTMIN
 10
76.42497785312611
 20
20.36109602480613
 30
-0.0015258207003583
  9
$EXTMAX
 10
148.4379036161312
 20
62.36691787974857
 30
0.0000000349246037
  9
$LIMMIN
 10
0.0
 20
0.0
  9
$LIMMAX
 10
17.0
 20
11.0
  9
$ORTHOMODE
 70
     1
  9
$REGENMODE
 70
     1
  9
$FILLMODE
 70
     1
  9
$QTEXTMODE
 70
     0
  9
$MIRRTEXT
 70
     1
  9
$DRAGMODE
 70
     2
  9
$LTSCALE
 40
2.0
  9
$OSMODE
 70
    55
  9
$ATTMODE
 70
     1
  9
$TEXTSIZE
 40
0.2
  9
$TRACEWID
 40
0.05
  9
$TEXTSTYLE
  7
STANDARD
  9
$CLAYER
  8
0
  9
$CELTYPE
  6
BYLAYER
  9
$CECOLOR
 62
   256
  9
$CELTSCALE
 40
1.0
  9
$DELOBJ
 70
     1
  9
$DISPSILH
 70
     0
  9
$DIMSCALE
 40
16.0
  9
$DIMASZ
 40
0.1875
  9
$DIMEXO
 40
0.0625
  9
$DIMDLI
 40
0.38
  9
$DIMRND
 40
0.0
  9
$DIMDLE
 40
0.0
  9
$DIMEXE
 40
0.18
  9
$DIMTP
 40
0.0
  9
$DIMTM
 40
0.0
  9
$DIMTXT
 40
0.125
  9
$DIMCEN
 40
0.09
  9
$DIMTSZ
 40
0.0
  9
$DIMTOL
 70
     0
  9
$DIMLIM
 70
     0
  9
$DIMTIH
 70
     1
  9
$DIMTOH
 70
     1
  9
$DIMSE1
 70
     0
  9
$DIMSE2
 70
     0
  9
$DIMTAD
 70
     0
  9
$DIMZIN
 70
     4
  9
$DIMBLK
  1
_FILLED
  9
$DIMASO
 70
     1
  9
$DIMSHO
 70
     1
  9
$DIMPOST
  1

  9
$DIMAPOST
  1

  9
$DIMALT
 70
     0
  9
$DIMALTD
 70
     2
  9
$DIMALTF
 40
25.4
  9
$DIMLFAC
 40
1.0
  9
$DIMTOFL
 70
     0
  9
$DIMTVP
 40
0.0
  9
$DIMTIX
 70
     0
  9
$DIMSOXD
 70
     0
  9
$DIMSAH
 70
     0
  9
$DIMBLK1
  1

  9
$DIMBLK2
  1

  9
$DIMSTYLE
  2
STANDARD
  9
$DIMCLRD
 70
     0
  9
$DIMCLRE
 70
     0
  9
$DIMCLRT
 70
     0
  9
$DIMTFAC
 40
1.0
  9
$DIMGAP
 40
0.09
  9
$DIMJUST
 70
     0
  9
$DIMSD1
 70
     0
  9
$DIMSD2
 70
     0
  9
$DIMTOLJ
 70
     1
  9
$DIMTZIN
 70
     4
  9
$DIMALTZ
 70
     0
  9
$DIMALTTZ
 70
     0
  9
$DIMFIT
 70
     3
  9
$DIMUPT
 70
     0
  9
$DIMUNIT
 70
     2
  9
$DIMDEC
 70
     3
  9
$DIMTDEC
 70
     3
  9
$DIMALTU
 70
     2
  9
$DIMALTTD
 70
     2
  9
$DIMTXSTY
  7
STANDARD
  9
$DIMAUNIT
 70
     0
  9
$LUNITS
 70
     2
  9
$LUPREC
 70
     4
  9
$SKETCHINC
 40
0.1
  9
$FILLETRAD
 40
0.0
  9
$AUNITS
 70
     0
  9
$AUPREC
 70
     0
  9
$MENU
  1
acad
  9
$ELEVATION
 40
0.0
  9
$PELEVATION
 40
0.0
  9
$THICKNESS
 40
0.0
  9
$LIMCHECK
 70
     0
  9
$BLIPMODE
 70
     0
  9
$CHAMFERA
 40
0.0
  9
$CHAMFERB
 40
0.0
  9
$CHAMFERC
 40
0.0
  9
$CHAMFERD
 40
0.0
  9
$SKPOLY
 70
     0
  9
$TDCREATE
 40
2453681.610012523
  9
$TDUPDATE
 40
2453685.499351863
  9
$TDINDWG
 40
0.0530917361
  9
$TDUSRTIMER
 40
0.0530917361
  9
$USRTIMER
 70
     1
  9
$ANGBASE
 50
0.0
  9
$ANGDIR
 70
     0
  9
$PDMODE
 70
     3
  9
$PDSIZE
 40
0.3125
  9
$PLINEWID
 40
0.0
  9
$COORDS
 70
     1
  9
$SPLFRAME
 70
     0
  9
$SPLINETYPE
 70
     6
  9
$SPLINESEGS
 70
     8
  9
$ATTDIA
 70
     0
  9
$ATTREQ
 70
     1
  9
$HANDLING
 70
 22529
  9
$HANDSEED
  5
215
  9
$SURFTAB1
 70
     6
  9
$SURFTAB2
 70
     6
  9
$SURFTYPE
 70
     6
  9
$SURFU
 70
     6
  9
$SURFV
 70
     6
  9
$UCSNAME
  2

  9
$UCSORG
 10
0.0
 20
0.0
 30
0.0
  9
$UCSXDIR
 10
1.0
 20
0.0
 30
0.0
  9
$UCSYDIR
 10
0.0
 20
1.0
 30
0.0
  9
$PUCSNAME
  2

  9
$PUCSORG
 10
0.0
 20
0.0
 30
0.0
  9
$PUCSXDIR
 10
1.0
 20
0.0
 30
0.0
  9
$PUCSYDIR
 10
0.0
 20
1.0
 30
0.0
  9
$USERI1
 70
     0
  9
$USERI2
 70
     0
  9
$USERI3
 70
     0
  9
$USERI4
 70
     0
  9
$USERI5
 70
     0
  9
$USERR1
 40
0.0
  9
$USERR2
 40
0.0
  9
$USERR3
 40
0.0
  9
$USERR4
 40
0.0
  9
$USERR5
 40
0.0
  9
$WORLDVIEW
 70
     1
  9
$SHADEDGE
 70
     3
  9
$SHADEDIF
 70
    70
  9
$TILEMODE
 70
     1
  9
$MAXACTVP
 70
    16
  9
$PINSBASE
 10
0.0
 20
0.0
 30
0.0
  9
$PLIMCHECK
 70
     0
  9
$PEXTMIN
 10
1.000000000000000E+20
 20
1.000000000000000E+20
 30
1.000000000000000E+20
  9
$PEXTMAX
 10
-1.000000000000000E+20
 20
-1.000000000000000E+20
 30
-1.000000000000000E+20
  9
$PLIMMIN
 10
0.0
 20
0.0
  9
$PLIMMAX
 10
12.0
 20
9.0
  9
$UNITMODE
 70
     0
  9
$VISRETAIN
 70
     0
  9
$PLINEGEN
 70
     1
  9
$PSLTSCALE
 70
     0
  9
$TREEDEPTH
 70
  3020
  9
$PICKSTYLE
 70
     1
  9
$CMLSTYLE
  2
STANDARD
  9
$CMLJUST
 70
     0
  9
$CMLSCALE
 40
1.0
  9
$PROXYGRAPHICS
 70
     0
  9
$MEASUREMENT
 70
     0
  0
ENDSEC
  0
SECTION
  2
CLASSES
  0
CLASS
  1
ACDBDICTIONARYWDFLT
  2
AcDbDictionaryWithDefault
  3
AutoCAD 2000
 90
        0
280
     0
281
     0
  0
CLASS
  1
ACDBPLACEHOLDER
  2
AcDbPlaceHolder
  3
AutoCAD 2000
 90
        0
280
     0
281
     0
  0
CLASS
  1
LAYOUT
  2
AcDbLayout
  3
AutoCAD 2000
 90
        0
280
     0
281
     0
  0
CLASS
  1
LWPOLYLINE
  2
AcDbPolyline
  3
AutoCAD 2000
 90
        0
280
     0
281
     1
  0
CLASS
  1
IMAGE
  2
AcDbRasterImage
  3
ISM
 90
      127
280
     0
281
     1
  0
CLASS
  1
OLE2FRAME
  2
AcDbOle2Frame
  3
AutoCAD 2000
 90
        0
280
     0
281
     1
  0
CLASS
  1
HATCH
  2
AcDbHatch
  3
AutoCAD 2000
 90
        0
280
     0
281
     1
  0
CLASS
  1
DICTIONARYVAR
  2
AcDbDictionaryVar
  3
AutoCAD 2000
 90
        0
280
     0
281
     0
  0
CLASS
  1
RASTERVARIABLES
  2
AcDbRasterVariables
  3
ISM
 90
        0
280
     0
281
     0
  0
CLASS
  1
IMAGEDEF
  2
AcDbRasterImageDef
  3
ISM
 90
        0
280
     0
281
     0
  0
CLASS
  1
IMAGEDEF_REACTOR
  2
AcDbRasterImageDefReactor
  3
ISM
 90
        1
280
     0
281
     0
  0
CLASS
  1
IDBUFFER
  2
AcDbIdBuffer
  3
AutoCAD 2000
 90
        0
280
     0
281
     0
  0
CLASS
  1
SPATIAL_FILTER
  2
AcDbSpatialFilter
  3
AutoCAD 2000
 90
        0
280
     0
281
     0
  0
CLASS
  1
XRECORD
  2
AcDbXrecord
  3
AutoCAD 2000
 90
        0
280
     0
281
     0
  0
CLASS
  1
SORTENTSTABLE
  2
AcDbSortentsTable
  3
AutoCAD 2000
 90
        0
280
     0
281
     0
  0
CLASS
  1
LAYER_INDEX
  2
AcDbLayerIndex
  3
AutoCAD 2000
 90
        0
280
     0
281
     0
  0
CLASS
  1
SPATIAL_INDEX
  2
AcDbSpatialIndex
  3
AutoCAD 2000
 90
        0
280
     0
281
     0
  0
CLASS
  1
OBJECT_PTR
  2
CAseDLPNTableRecord
  3
ASE-LPNTableRecord
 90
        1
280
     0
281
     0
  0
CLASS
  1
PLOTSETTINGS
  2
AcDbPlotSettings
  3
AutoCAD 2000
 90
        0
280
     0
281
     0
  0
CLASS
  1
VBA_PROJECT
  2
AcDbVbaProject
  3
acadvba
 90
        0
280
     0
281
     0
  0
CLASS
  1
WIPEOUT
  2
AcDbWipeout
  3
WipeOut|AutoCAD Express Tool|expresstools@autodesk.com
 90
      127
280
     1
281
     1
  0
CLASS
  1
WIPEOUTVARIABLES
  2
AcDbWipeoutVariables
  3
WipeOut|AutoCAD Express Tool|expresstools@autodesk.com
 90
        0
280
     1
281
     0
  0
CLASS
  1
RTEXT
  2
RText
  3
RText|AutoCAD Express Tool|expresstools@autodesk.com
 90
        0
280
     1
281
     1
  0
CLASS
  1
ARCALIGNEDTEXT
  2
AcDbArcAlignedText
  3
ATEXT|AutoCAD Express Tool|expresstools@autodesk.com
 90
        0
280
     1
281
     1
  0
CLASS
  1
LONG_TRANSACTION
  2
AcDbLongTransaction
  3
AutoCAD 2000
 90
        0
280
     0
281
     0
  0
CLASS
  1
LWPOLYLINE
  2
AcDbPolyline
  3
AutoCAD 2000
 90
        0
280
     0
281
     1
  0
CLASS
  1
HATCH
  2
AcDbHatch
  3
AutoCAD 2000
 90
        0
280
     0
281
     1
  0
CLASS
  1
XRECORD
  2
AcDbXrecord
  3
AutoCAD 2000
 90
        0
280
     0
281
     0
  0
CLASS
  1
LONG_TRANSACTION
  2
AcDbLongTransaction
  3
AutoCAD 2000
 90
        0
280
     0
281
     0
  0
CLASS
  1
LWPOLYLINE
  2
AcDbPolyline
  3
AutoCAD 2000
 90
        0
280
     0
281
     1
  0
CLASS
  1
HATCH
  2
AcDbHatch
  3
AutoCAD 2000
 90
        0
280
     0
281
     1
  0
CLASS
  1
XRECORD
  2
AcDbXrecord
  3
AutoCAD 2000
 90
        0
280
     0
281
     0
  0
ENDSEC
  0
SECTION
  2
TABLES
  0
TABLE
  2
VPORT
  5
18
330
0
100
AcDbSymbolTable
 70
     3
  0
VPORT
  5
1F1
330
18
100
AcDbSymbolTableRecord
100
AcDbViewportTableRecord
  2
*ACTIVE
 70
     0
 10
0.0
 20
0.0
 11
1.0
 21
1.0
 12
112.4314406560505
 22
41.36400689296928
 13
0.0
 23
0.0
 14
1.0
 24
1.0
 15
0.0
 25
0.0
 16
0.0
 26
0.0
 36
1.0
 17
0.0
 27
0.0
 37
0.0
 40
50.12694736317006
 41
1.786792452830188
 42
50.0
 43
0.0
 44
0.0
 50
0.0
 51
0.0
 71
     0
 72
   100
 73
     1
 74
     1
 75
     0
 76
     0
 77
     0
 78
     0
  0
ENDTAB
  0
TABLE
  2
LTYPE
  5
13
330
0
100
AcDbSymbolTable
 70
     2
  0
LTYPE
  5
14
330
13
100
AcDbSymbolTableRecord
100
AcDbLinetypeTableRecord
  2
BYBLOCK
 70
     0
  3

 72
    65
 73
     0
 40
0.0
  0
LTYPE
  5
15
330
13
100
AcDbSymbolTableRecord
100
AcDbLinetypeTableRecord
  2
BYLAYER
 70
     0
  3

 72
    65
 73
     0
 40
0.0
  0
LTYPE
  5
6
330
13
100
AcDbSymbolTableRecord
100
AcDbLinetypeTableRecord
  2
CONTINUOUS
 70
     0
  3
Solid line
 72
    65
 73
     0
 40
0.0
  0
LTYPE
  5
5D
330
13
100
AcDbSymbolTableRecord
100
AcDbLinetypeTableRecord
  2
CENTER
 70
     0
  3
____ _ ____ _ ____ _ ____ _ ____ _ ____ _ ____
 72
    65
 73
     4
 40
0.6
 49
0.375
 74
     0
 49
-0.075
 74
     0
 49
0.075
 74
     0
 49
-0.075
 74
     0
  0
ENDTAB
  0
TABLE
  2
LAYER
  5
F
330
0
100
AcDbSymbolTable
 70
     2
  0
LAYER
  5
4
330
F
100
AcDbSymbolTableRecord
100
AcDbLayerTableRecord
  2
0
 70
     0
 62
     7
  6
CONTINUOUS
  0
LAYER
  5
5C
330
F
100
AcDbSymbolTableRecord
100
AcDbLayerTableRecord
  2
CENTER
 70
     0
 62
     1
  6
CENTER
  0
ENDTAB
  0
TABLE
  2
STYLE
  5
10
330
0
100
AcDbSymbolTable
 70
     1
  0
STYLE
  5
11
330
10
100
AcDbSymbolTableRecord
100
AcDbTextStyleTableRecord
  2
STANDARD
 70
     0
 40
0.0
 41
0.8
 50
0.0
 71
     0
 42
0.2
  3
txt
  4

  0
ENDTAB
  0
TABLE
  2
VIEW
  5
16
330
0
100
AcDbSymbolTable
 70
     0
  0
ENDTAB
  0
TABLE
  2
UCS
  5
17
330
0
100
AcDbSymbolTable
 70
     0
  0
ENDTAB
  0
TABLE
  2
APPID
  5
1A
330
0
100
AcDbSymbolTable
 70
     1
  0
APPID
  5
1B
330
1A
100
AcDbSymbolTableRecord
100
AcDbRegAppTableRecord
  2
ACAD
 70
     0
  0
ENDTAB
  0
TABLE
  2
DIMSTYLE
  5
1C
330
0
100
AcDbSymbolTable
 70
     1
  0
DIMSTYLE
105
1D
330
1C
100
AcDbSymbolTableRecord
100
AcDbDimStyleTableRecord
  2
STANDARD
 70
     0
  3

  4

  5
_FILLED
  6

  7

 40
16.0
 41
0.1875
 42
0.0625
 43
0.38
 44
0.18
 45
0.0
 46
0.0
 47
0.0
 48
0.0
140
0.125
141
0.09
142
0.0
143
25.4
144
1.0
145
0.0
146
1.0
147
0.09
 71
     0
 72
     0
 73
     1
 74
     1
 75
     0
 76
     0
 77
     0
 78
     4
170
     0
171
     2
172
     0
173
     0
174
     0
175
     0
176
     0
177
     0
178
     0
270
     2
271
     3
272
     3
273
     2
274
     2
340
11
275
     0
280
     0
281
     0
282
     0
283
     1
284
     4
285
     0
286
     0
287
     3
288
     0
  0
ENDTAB
  0
TABLE
  2
BLOCK_RECORD
  5
1
330
0
100
AcDbSymbolTable
 70
     1
  0
BLOCK_RECORD
  5
2
102
{ACAD_XDICTIONARY
360
1AA
102
}
330
1
100
AcDbSymbolTableRecord
100
AcDbBlockTableRecord
  2
*MODEL_SPACE
  0
BLOCK_RECORD
  5
B
102
{ACAD_XDICTIONARY
360
1B0
102
}
330
1
100
AcDbSymbolTableRecord
100
AcDbBlockTableRecord
  2
*PAPER_SPACE
  0
BLOCK_RECORD
  5
1E
330
1
100
AcDbSymbolTableRecord
100
AcDbBlockTableRecord
  2
_FILLED
  0
ENDTAB
  0
ENDSEC
  0
SECTION
  2
BLOCKS
  0
BLOCK
  5
3
330
2
100
AcDbEntity
  8
0
100
AcDbBlockBegin
  2
*MODEL_SPACE
 70
     0
 10
0.0
 20
0.0
 30
0.0
  3
*MODEL_SPACE
  1

  0
ENDBLK
  5
7
330
2
100
AcDbEntity
  8
0
100
AcDbBlockEnd
  0
BLOCK
  5
C
330
B
100
AcDbEntity
 67
     1
  8
0
100
AcDbBlockBegin
  2
*PAPER_SPACE
 70
     0
 10
0.0
 20
0.0
 30
0.0
  3
*PAPER_SPACE
  1

  0
ENDBLK
  5
D
330
B
100
AcDbEntity
 67
     1
  8
0
100
AcDbBlockEnd
  0
BLOCK
  5
20
330
1E
100
AcDbEntity
  8
0
100
AcDbBlockBegin
  2
_FILLED
 70
     0
 10
0.0
 20
0.0
 30
0.0
  3
_FILLED
  1

  0
SOLID
  5
1F
330
1E
100
AcDbEntity
  8
0
  6
BYBLOCK
 62
     0
100
AcDbTrace
 10
0.0
 20
0.0
 30
0.0
 11
-1.0
 21
0.1666666667
 31
0.0
 12
-1.0
 22
-0.1666666667
 32
0.0
 13
-1.0
 23
-0.1666666667
 33
0.0
  0
ENDBLK
  5
21
330
1E
100
AcDbEntity
  8
0
  6
BYBLOCK
 62
     0
100
AcDbBlockEnd
  0
ENDSEC
  0
SECTION
  2
ENTITIES
  0
LWPOLYLINE
  5
28
330
2
100
AcDbEntity
  8
0
100
AcDbPolyline
 90
        3
 70
     0
 43
0.0
 10
148.4055806754572
 20
40.25544361410126
 10
148.4175307074572
 20
40.52652256290127
 10
148.4333734434572
 20
41.36219012770126
  0
LWPOLYLINE
  5
29
330
2
100
AcDbEntity
  8
0
100
AcDbPolyline
 90
       22
 70
     0
 43
0.0
 10
138.5440495922572
 20
39.99919309570127
 10
138.5568340146572
 20
40.06179191490128
 10
138.5691075986572
 20
40.12453602050126
 10
138.5808629650572
 20
40.18740572770127
 10
138.5920937170572
 20
40.25039258530127
 10
138.6027974242572
 20
40.31353307970127
 10
138.6129726450572
 20
40.37687493410127
 10
138.6226163634572
 20
40.44046211010128
 10
138.6317192562572
 20
40.50432354370127
 10
138.6402704210572
 20
40.56848440610127
 10
138.6482576482572
 20
40.63296442850126
 10
138.6556634818572
 20
40.69776156770127
 10
138.6624691586572
 20
40.76286833570127
 10
138.6686555874572
 20
40.82827912930127
 10
138.6742023810572
 20
40.89399588930127
 10
138.6790888242572
 20
40.96002244770128
 10
138.6832934834572
 20
41.02635880610127
 10
138.6867920258572
 20
41.09298965250127
 10
138.6895593986572
 20
41.15989585250128
 10
138.6915701282572
 20
41.22706252770128
 10
138.6927970786572
 20
41.29449181890127
 10
138.6932126962572
 20
41.36219012930126
  0
LWPOLYLINE
  5
2A
330
2
100
AcDbEntity
  8
0
100
AcDbPolyline
 90
       22
 70
     0
 43
0.0
 10
86.17354656505725
 20
41.36219012930126
 10
86.17396077625725
 20
41.29462738850127
 10
86.17518100185725
 20
41.22741761570127
 10
86.17717592185725
 20
41.16056763170127
 10
86.17991536185725
 20
41.09407969730127
 10
86.18337370745726
 20
41.02793783010127
 10
86.18752648665724
 20
40.96212149410127
 10
86.19235047385727
 20
40.89660904930127
 10
86.19782740985725
 20
40.83137444930128
 10
86.20394028345726
 20
40.76639054370128
 10
86.21067299865726
 20
40.70163088450127
 10
86.21801313785725
 20
40.63707181250127
 10
86.22594920185724
 20
40.57269036130127
 10
86.23447014585726
 20
40.50846583810127
 10
86.24356674585726
 20
40.44438661890128
 10
86.25323023865727
 20
40.38044334210127
 10
86.26345220505726
 20
40.31662667970127
 10
86.27422564025726
 20
40.25292740450128
 10
86.28554388985724
 20
40.18933631330127
 10
86.29740061625724
 20
40.12584693730127
 10
86.30979074265725
 20
40.06246371970127
 10
86.32270951385725
 20
39.99919383650127
  0
LWPOLYLINE
  5
2B
330
2
100
AcDbEntity
  8
0
100
AcDbPolyline
 90
        3
 70
     0
 43
0.0
 10
76.43338581785726
 20
41.36219012770126
 10
76.44922855385726
 20
40.52652256290127
 10
76.46117858425725
 20
40.25544361410126
  0
LWPOLYLINE
  5
2C
330
2
100
AcDbEntity
  8
0
100
AcDbPolyline
 90
       24
 70
     0
 43
0.0
 10
146.0095510786572
 20
36.96564186850128
 10
146.0690530018572
 20
37.15212346690127
 10
146.1262306466572
 20
37.34011701570127
 10
146.1808862402572
 20
37.52900880930127
 10
146.2329298882572
 20
37.71854137090127
 10
146.2822003810572
 20
37.90810816930127
 10
146.3287017714572
 20
38.09765050370127
 10
146.3725146962572
 20
38.28744294530128
 10
146.4136288242572
 20
38.47740476130127
 10
146.4520534194572
 20
38.66753575970126
 10
146.4877972210572
 20
38.85783643490127
 10
146.5208723794572
 20
39.04833157090127
 10
146.5512934578572
 20
39.23907455010128
 10
146.5790696626572
 20
39.43010508930127
 10
146.6042043170572
 20
39.62143529730127
 10
146.6267000978572
 20
39.81308067970127
 10
146.6465601746572
 20
40.00507429730127
 10
146.6637858978572
 20
40.19745080450127
 10
146.6783708642572
 20
40.39015983810126
 10
146.6903504050572
 20
40.58385973250127
 10
146.6996803266572
 20
40.77815593730128
 10
146.7062948946572
 20
40.97106996130126
 10
146.7102794482572
 20
41.16372396130127
 10
146.7116595202572
 20
41.36219012770126
  0
LWPOLYLINE
  5
2D
330
2
100
AcDbEntity
  8
0
100
AcDbPolyline
 90
       53
 70
     0
 43
0.0
 10
140.9507575602572
 20
41.36219012770126
 10
140.9488959394572
 20
41.25850168930127
 10
140.9434807122572
 20
41.15892908450127
 10
140.9348425938572
 20
41.06494628290128
 10
140.9231662306572
 20
40.97616593890127
 10
140.9081620914572
 20
40.88977348130128
 10
140.8895521506572
 20
40.80450029090127
 10
140.8675593650572
 20
40.72200282850127
 10
140.8421368098572
 20
40.64266912770126
 10
140.8127120690572
 20
40.56552083650127
 10
140.7788833874572
 20
40.49058149250128
 10
140.7407252226572
 20
40.41910229250127
 10
140.7015511874572
 20
40.35717010050127
 10
140.6654886738572
 20
40.30934011970127
 10
140.6315414562572
 20
40.27326836290128
 10
140.5959313778572
 20
40.24498710850127
 10
140.5555965618572
 20
40.22262683330128
 10
140.5098841666572
 20
40.20557688290127
 10
140.4594704946572
 20
40.19135463010127
 10
140.4043652786572
 20
40.17881548290127
 10
140.3443927810572
 20
40.16667896450127
 10
140.2790883554572
 20
40.15406969090126
 10
140.2078732850572
 20
40.14043309730126
 10
140.1300769618572
 20
40.12478528450126
 10
140.0449611330572
 20
40.10575205570127
 10
139.9516434674572
 20
40.08184261890128
 10
139.8489740242572
 20
40.05129653090127
 10
139.7353564418572
 20
40.01234974530127
 10
139.6093290866572
 20
39.96285093570127
 10
139.4707206754572
 20
39.90035828450126
 10
139.3295328322572
 20
39.82765560450127
 10
139.1963800450572
 20
39.74987582370127
 10
139.0725932498572
 20
39.66892495650127
 10
138.9534982610572
 20
39.58218857890127
 10
138.8301746866572
 20
39.48147018370127
 10
138.6976504258572
 20
39.35873847490127
 10
138.5695079266572
 20
39.22338190210126
 10
138.4568224642572
 20
39.08908489730127
 10
138.3623259842572
 20
38.96434663490127
 10
138.2811484434572
 20
38.84789898370127
 10
138.2095255602572
 20
38.73832454530127
 10
138.1455558562572
 20
38.63551282370127
 10
138.0879339458572
 20
38.53946649570128
 10
138.0359874994572
 20
38.45059211810127
 10
137.9893783042572
 20
38.36934430370126
 10
137.9478271442572
 20
38.29579162050127
 10
137.9104676146572
 20
38.22877952610127
 10
137.8759729794572
 20
38.16618519170127
 10
137.8429915794572
 20
38.10567107330126
 10
137.8102452226572
 20
38.04474750210127
 10
137.7773381346572
 20
37.98242396130127
 10
137.7443399874572
 20
37.91856311490127
 10
137.7113056338572
 20
37.85302974690127
  0
LWPOLYLINE
  5
2E
330
2
100
AcDbEntity
  8
0
100
AcDbPolyline
 90
       34
 70
     0
 43
0.0
 10
118.9926660610572
 20
31.51665542370126
 10
119.0811741026572
 20
31.73862907170127
 10
119.1686297970572
 20
31.96625725410128
 10
119.2550263890572
 20
32.19981490690126
 10
119.3402364018572
 20
32.43927287970127
 10
119.4240829090572
 20
32.68444792930127
 10
119.5064319874572
 20
32.93525956290126
 10
119.5871205954572
 20
33.19152015490127
 10
119.6660307490572
 20
33.45316410370127
 10
119.7430631938572
 20
33.72018483330127
 10
119.8180515138572
 20
33.99233130050127
 10
119.8908655922572
 20
34.26945192770126
 10
119.9613993090572
 20
34.55147245410127
 10
120.0295002050572
 20
34.83811413570127
 10
120.0950544882572
 20
35.12922789090128
 10
120.1580254482572
 20
35.42500795490127
 10
120.2183822146572
 20
35.72568942210127
 10
120.2760618210572
 20
36.03137077250127
 10
120.3309487986572
 20
36.34189593090127
 10
120.3828983298572
 20
36.65690211970127
 10
120.4317821442572
 20
36.97605389570127
 10
120.4774809522572
 20
37.29900288130127
 10
120.5198912466572
 20
37.62544056290127
 10
120.5589253330572
 20
37.95512300290127
 10
120.5944929698572
 20
38.28772932610127
 10
120.6264882354572
 20
38.62267054050127
 10
120.6548361986572
 20
38.95949387490126
 10
120.6794954082572
 20
39.29804035170127
 10
120.7004450594572
 20
39.63843558530126
 10
120.7176707138572
 20
39.98095743010127
 10
120.7311094242572
 20
40.32494259010127
 10
120.7407274130572
 20
40.67002254850128
 10
120.7465007202572
 20
41.01587924290128
 10
120.7484122610572
 20
41.36219012770126
  0
LWPOLYLINE
  5
2F
330
2
100
AcDbEntity
  8
0
100
AcDbPolyline
 90
       29
 70
     0
 43
0.0
 10
118.9000150226572
 20
32.73719012770127
 10
119.0100926658572
 20
33.06413751650127
 10
119.1147824450572
 20
33.39290914050127
 10
119.2142597426572
 20
33.72346646530127
 10
119.3086284418572
 20
34.05561892450127
 10
119.3979734322572
 20
34.38914373890126
 10
119.4823751474572
 20
34.72384127010127
 10
119.5619192578572
 20
35.05955055650128
 10
119.6367168290572
 20
35.39624217730127
 10
119.7069284482572
 20
35.73418868290128
 10
119.7728873586572
 20
36.07473896290128
 10
119.8146718530572
 20
36.30401685730127
 10
119.8547767986572
 20
36.53564347490128
 10
119.8932454434572
 20
36.77009120290127
 10
119.9301004690572
 20
37.00772389890127
 10
119.9652822754572
 20
37.24847127170127
 10
119.9987106946572
 20
37.49215450210127
 10
120.0303081922572
 20
37.73859028290127
 10
120.0600077762572
 20
37.98757737250127
 10
120.0877450850572
 20
38.23891004450127
 10
120.1134579746572
 20
38.49238192930127
 10
120.1370931602572
 20
38.74778409890128
 10
120.1585995730572
 20
39.00490697890127
 10
120.1867678082572
 20
39.39336995170127
 10
120.2099297298572
 20
39.78459023810127
 10
120.2279941074572
 20
40.17786617730126
 10
120.2409114722572
 20
40.57226044770127
 10
120.2486501666572
 20
40.96699820130126
 10
120.2512080050572
 20
41.36219012770126
  0
LWPOLYLINE
  5
30
330
2
100
AcDbEntity
  8
0
100
AcDbPolyline
 90
       34
 70
     0
 43
0.0
 10
104.1183470002572
 20
41.36219012770126
 10
104.1202585410572
 20
41.01587924290128
 10
104.1260318482572
 20
40.67002254850128
 10
104.1356498354572
 20
40.32494259010127
 10
104.1490885458572
 20
39.98095743010127
 10
104.1663142002572
 20
39.63843558530126
 10
104.1872638514572
 20
39.29804035170127
 10
104.2119230610572
 20
38.95949387490126
 10
104.2402710258572
 20
38.62267054050127
 10
104.2722662898572
 20
38.28772932610127
 10
104.3078339266572
 20
37.95512300290127
 10
104.3468680130572
 20
37.62544056290127
 10
104.3892783074572
 20
37.29900288130127
 10
104.4349771170572
 20
36.97605389570127
 10
104.4838609314572
 20
36.65690211970127
 10
104.5358104626572
 20
36.34189593090127
 10
104.5906974386572
 20
36.03137077250127
 10
104.6483770466572
 20
35.72568942210127
 10
104.7087338130572
 20
35.42500795490127
 10
104.7717047714572
 20
35.12922789090128
 10
104.8372590546572
 20
34.83811413570127
 10
104.9053599506572
 20
34.55147245410127
 10
104.9758936674572
 20
34.26945192770126
 10
105.0487077474572
 20
33.99233130050127
 10
105.1236960658572
 20
33.72018483330127
 10
105.2007285106572
 20
33.45316410370127
 10
105.2796386658572
 20
33.19152015490127
 10
105.3603272722572
 20
32.93525956290126
 10
105.4426763506572
 20
32.68444792930127
 10
105.5265228578572
 20
32.43927287970127
 10
105.6117328722572
 20
32.19981490690126
 10
105.6981294642572
 20
31.96625725410128
 10
105.7855851570572
 20
31.73862907170127
 10
105.8740931986572
 20
31.51665542370126
  0
LWPOLYLINE
  5
31
330
2
100
AcDbEntity
  8
0
100
AcDbPolyline
 90
       35
 70
     0
 43
0.0
 10
104.5994616018572
 20
41.36219012770126
 10
104.6014441250572
 20
41.01276061250127
 10
104.6074281330572
 20
40.66380569890127
 10
104.6173944834572
 20
40.31567618850127
 10
104.6313160914572
 20
39.96872049730127
 10
104.6491540770572
 20
39.62335180770127
 10
104.6708404386572
 20
39.28024214530127
 10
104.6963624482572
 20
38.93903896610128
 10
104.7256915154572
 20
38.59967543010127
 10
104.7587757890572
 20
38.26238207170126
 10
104.7955263218572
 20
37.92768077890127
 10
104.8358260242572
 20
37.59617857410127
 10
104.8795827746572
 20
37.26814700770127
 10
104.9266960850572
 20
36.94387107490126
 10
104.9770470194572
 20
36.62370361730127
 10
105.0305010690572
 20
36.30802297410127
 10
105.0869158066572
 20
35.99718085570127
 10
105.1461305618572
 20
35.69155892770126
 10
105.2080498274572
 20
35.39116406530126
 10
105.2726160674572
 20
35.09584440290128
 10
105.3398069458572
 20
34.80529279010127
 10
105.4095475186572
 20
34.51946046530128
 10
105.4816648498572
 20
34.23869434210127
 10
105.5560295586572
 20
33.96313117410127
 10
105.6325258338572
 20
33.69284645090127
 10
105.7109613026572
 20
33.42816376610127
 10
105.7912132930572
 20
33.16913846690127
 10
105.8731677698572
 20
32.91579562530127
 10
105.9566486514572
 20
32.66834017570127
 10
106.0415148386572
 20
32.42684966850127
 10
106.1275824146572
 20
32.19150538530127
 10
106.2146911442572
 20
31.96239966690127
 10
106.3028101538572
 20
31.73928764770127
 10
106.3919230594572
 20
31.52191527330127
 10
106.4819914962572
 20
31.31009129410127
  0
LWPOLYLINE
  5
32
330
2
100
AcDbEntity
  8
0
100
AcDbPolyline
 90
       37
 70
     0
 43
0.0
 10
106.5441864946572
 20
31.32369026850126
 10
106.4659734770572
 20
31.50210872450127
 10
106.3880428322572
 20
31.68545879010128
 10
106.3101676178572
 20
31.87452188930127
 10
106.2322799154572
 20
32.06982139810127
 10
106.1545642018572
 20
32.27127323330127
 10
106.0769231202572
 20
32.47954845730127
 10
105.9992288002572
 20
32.69550038210127
 10
105.9210728754572
 20
32.92093713730126
 10
105.8420588482572
 20
33.15792649890127
 10
105.7622144610572
 20
33.40754402530127
 10
105.6831163122572
 20
33.66590020130127
 10
105.6062026258572
 20
33.92884031970126
 10
105.5312334674572
 20
34.19749605570128
 10
105.4583395138572
 20
34.47177976770127
 10
105.3877281442572
 20
34.75128358690126
 10
105.3200572434572
 20
35.03358826690127
 10
105.2557100610572
 20
35.31697885730128
 10
105.1945676386572
 20
35.60175664610127
 10
105.1362834770572
 20
35.88942837890127
 10
105.0804786818572
 20
36.18209683490127
 10
105.0272980274572
 20
36.47945016450127
 10
104.9768450882572
 20
36.78136588290127
 10
104.9292280818572
 20
37.08768158530126
 10
104.8845717410572
 20
37.39809363810127
 10
104.8429713458572
 20
37.71245553890127
 10
104.8045363778572
 20
38.03048132610126
 10
104.7693687314572
 20
38.35188270050128
 10
104.7375530818572
 20
38.67647636450127
 10
104.7092229858572
 20
39.00344920450126
 10
104.6844434594572
 20
39.33253119490128
 10
104.6632375186572
 20
39.66399477570126
 10
104.6456390802572
 20
39.99801565890127
 10
104.6317153250572
 20
40.33418676930127
 10
104.6215208498572
 20
40.67216255490127
 10
104.6151025666572
 20
41.01153683490127
 10
104.6124963778572
 20
41.35186536290127
  0
LWPOLYLINE
  5
33
330
2
100
AcDbEntity
  8
0
100
AcDbPolyline
 90
       35
 70
     0
 43
0.0
 10
118.3847677650572
 20
31.31009129410127
 10
118.4748362018572
 20
31.52191527330127
 10
118.5639491074572
 20
31.73928764770127
 10
118.6520681154572
 20
31.96239966690127
 10
118.7391768466572
 20
32.19150538530127
 10
118.8252444210572
 20
32.42684966850127
 10
118.9101106098572
 20
32.66834017570127
 10
118.9935914914572
 20
32.91579562530127
 10
119.0755459682572
 20
33.16913846690127
 10
119.1557979570572
 20
33.42816376610127
 10
119.2342334274572
 20
33.69284645090127
 10
119.3107297010572
 20
33.96313117410127
 10
119.3850944098572
 20
34.23869434210127
 10
119.4572117426572
 20
34.51946046530128
 10
119.5269523154572
 20
34.80529279010127
 10
119.5941431938572
 20
35.09584440290128
 10
119.6587094338572
 20
35.39116406530126
 10
119.7206286978572
 20
35.69155892770126
 10
119.7798434530572
 20
35.99718085570127
 10
119.8362581906572
 20
36.30802297410127
 10
119.8897122418572
 20
36.62370361730127
 10
119.9400631762572
 20
36.94387107490126
 10
119.9871764850572
 20
37.26814700770127
 10
120.0309332354572
 20
37.59617857410127
 10
120.0712329378572
 20
37.92768077890127
 10
120.1079834722572
 20
38.26238207170126
 10
120.1410677442572
 20
38.59967543010127
 10
120.1703968130572
 20
38.93903896610128
 10
120.1959188210572
 20
39.28024214530127
 10
120.2176051842572
 20
39.62335180770127
 10
120.2354431682572
 20
39.96872049730127
 10
120.2493647762572
 20
40.31567618850127
 10
120.2593311282572
 20
40.66380569890127
 10
120.2653151346572
 20
41.01276061250127
 10
120.2672976594572
 20
41.36219012770126
  0
LWPOLYLINE
  5
34
330
2
100
AcDbEntity
  8
0
100
AcDbPolyline
 90
       37
 70
     0
 43
0.0
 10
120.2542628818572
 20
41.35186536290127
 10
120.2516573122572
 20
41.01158341410126
 10
120.2452409602572
 20
40.67226639330127
 10
120.2350496370572
 20
40.33434608290128
 10
120.2211305042572
 20
39.99823508130127
 10
120.2035375874572
 20
39.66426640770127
 10
120.1823381250572
 20
39.33285179010127
 10
120.1575668738572
 20
39.00382713090127
 10
120.1292454050572
 20
38.67690123490126
 10
120.0974401810572
 20
38.35236144290126
 10
120.0622834802572
 20
38.03100766370127
 10
120.0238605442572
 20
37.71302928930127
 10
119.9822730354572
 20
37.39871292450127
 10
119.9376295586572
 20
37.08833900450128
 10
119.8900273778572
 20
36.78206784770127
 10
119.8395896834572
 20
36.48019280770127
 10
119.7864243650572
 20
36.18287512450128
 10
119.7306320898572
 20
35.89022332770127
 10
119.6723656834572
 20
35.60259103810127
 10
119.6112457634572
 20
35.31786901250127
 10
119.5469206834572
 20
35.03452546370127
 10
119.4792721170572
 20
34.75226280290127
 10
119.4086799522572
 20
34.47278378050127
 10
119.3358061602572
 20
34.19852538370126
 10
119.2608574402572
 20
33.92989300130127
 10
119.1839647058572
 20
33.66697523970127
 10
119.1048876914572
 20
33.40863941890127
 10
119.0250505362572
 20
33.15899815330126
 10
118.9460470626572
 20
32.92199760130127
 10
118.8679008482572
 20
32.69654883970128
 10
118.7902190258572
 20
32.48059376450127
 10
118.7125921250572
 20
32.27232011650127
 10
118.6348904914572
 20
32.07086951650127
 10
118.5570344786572
 20
31.87561425410128
 10
118.4790325730572
 20
31.68621473570127
 10
118.4009931986572
 20
31.50258756610126
 10
118.3225729218572
 20
31.32369061890126
  0
LWPOLYLINE
  5
35
330
2
100
AcDbEntity
  8
0
100
AcDbPolyline
 90
       24
 70
     0
 43
0.0
 10
78.15509973945726
 20
41.36219012770126
 10
78.15647981145726
 20
41.16372396130127
 10
78.16046436665726
 20
40.97106996130126
 10
78.16707893465725
 20
40.77815593730128
 10
78.17640885465725
 20
40.58385973250127
 10
78.18838839545725
 20
40.39015983810126
 10
78.20297336345726
 20
40.19745080450127
 10
78.22019908665726
 20
40.00507429730127
 10
78.24005916345726
 20
39.81308067970127
 10
78.26255494265726
 20
39.62143529730127
 10
78.28768959865726
 20
39.43010508930127
 10
78.31546580185726
 20
39.23907455010128
 10
78.34588688025725
 20
39.04833157090127
 10
78.37896204025724
 20
38.85783643490127
 10
78.41470584185725
 20
38.66753575970126
 10
78.45313043705726
 20
38.47740476130127
 10
78.49424456505726
 20
38.28744294530128
 10
78.53805748825727
 20
38.09765050370127
 10
78.58455887865725
 20
37.90810816930127
 10
78.63382937145726
 20
37.71854137090127
 10
78.68587302105726
 20
37.52900880930127
 10
78.74052861465725
 20
37.34011701570127
 10
78.79770625785726
 20
37.15212346690127
 10
78.85720818265726
 20
36.96564186850128
  0
LWPOLYLINE
  5
36
330
2
100
AcDbEntity
  8
0
100
AcDbPolyline
 90
       53
 70
     0
 43
0.0
 10
83.91600169945725
 20
41.36219012770126
 10
83.91786332025725
 20
41.25850168930127
 10
83.92327854745726
 20
41.15892908450127
 10
83.93191666745726
 20
41.06494628290128
 10
83.94359303065725
 20
40.97616593890127
 10
83.95859716985725
 20
40.88977348130128
 10
83.97720710905725
 20
40.80450029090127
 10
83.99919989625727
 20
40.72200282850127
 10
84.02462245145725
 20
40.64266912770126
 10
84.05404719225726
 20
40.56552083650127
 10
84.08787587385726
 20
40.49058149250128
 10
84.12603403865725
 20
40.41910229250127
 10
84.16520807385726
 20
40.35717010050127
 10
84.20127058585725
 20
40.30934011970127
 10
84.23521780505726
 20
40.27326836290128
 10
84.27082788345726
 20
40.24498710850127
 10
84.31116269945725
 20
40.22262683330128
 10
84.35687509465726
 20
40.20557688290127
 10
84.40728876665726
 20
40.19135463010127
 10
84.46239398265726
 20
40.17881548290127
 10
84.52236647865726
 20
40.16667896450127
 10
84.58767090585727
 20
40.15406969090126
 10
84.65888597465726
 20
40.14043309730126
 10
84.73668229945726
 20
40.12478528450126
 10
84.82179812665725
 20
40.10575205570127
 10
84.91511579385726
 20
40.08184261890128
 10
85.01778523705725
 20
40.05129653090127
 10
85.13140281785727
 20
40.01234974530127
 10
85.25743017305726
 20
39.96285093570127
 10
85.39603858425726
 20
39.90035828450126
 10
85.53722642905725
 20
39.82765560450127
 10
85.67037921465725
 20
39.74987582370127
 10
85.79416601145727
 20
39.66892495650127
 10
85.91326100025725
 20
39.58218857890127
 10
86.03658457465725
 20
39.48147018370127
 10
86.16910883385726
 20
39.35873847490127
 10
86.29725133465726
 20
39.22338190210126
 10
86.40993679705726
 20
39.08908489730127
 10
86.50443327705726
 20
38.96434663490127
 10
86.58561081785725
 20
38.84789898370127
 10
86.65723370105727
 20
38.73832454530127
 10
86.72120340345726
 20
38.63551282370127
 10
86.77882531545725
 20
38.53946649570128
 10
86.83077176185724
 20
38.45059211810127
 10
86.87738095545725
 20
38.36934430370126
 10
86.91893211705727
 20
38.29579162050127
 10
86.95629164665726
 20
38.22877952610127
 10
86.99078628185725
 20
38.16618519170127
 10
87.02376768025727
 20
38.10567107330126
 10
87.05651403865726
 20
38.04474750210127
 10
87.08942112505726
 20
37.98242396130127
 10
87.12241927385724
 20
37.91856311490127
 10
87.15545362585727
 20
37.85302974690127
  0
LWPOLYLINE
  5
37
330
2
100
AcDbEntity
  8
0
100
AcDbPolyline
 90
       72
 70
     0
 43
0.0
 10
131.2888118626572
 20
29.08814963490127
 10
131.1857380226572
 20
29.06207578690127
 10
131.0795299618572
 20
29.03567474530127
 10
130.9704017890572
 20
29.00903554050127
 10
130.8584652834572
 20
28.98222442050126
 10
130.7434229426572
 20
28.95521650370126
 10
130.6248749378572
 20
28.92796412450127
 10
130.5025514674572
 20
28.90045040930127
 10
130.3767028306572
 20
28.87278164130127
 10
130.2477093586572
 20
28.84509488930127
 10
130.1492131618572
 20
28.82441494850127
 10
130.0498258850572
 20
28.80394662370127
 10
129.8493953778572
 20
28.76389292770127
 10
129.6445891410572
 20
28.72464865250127
 10
129.4361495938572
 20
28.68643779810126
 10
129.2259330850572
 20
28.64967804130127
 10
129.0160420338572
 20
28.61472221570128
 10
128.8080291282572
 20
28.58180711490126
 10
128.6010020882572
 20
28.55077023010128
 10
128.3939732322572
 20
28.52142529250127
 10
128.1880182850572
 20
28.49389031170128
 10
127.9842289362572
 20
28.46828870530127
 10
127.7816973602572
 20
28.44446124290127
 10
127.5788020034572
 20
28.42218300290127
 10
127.3730659298572
 20
28.40124896450127
 10
127.1627488562572
 20
28.38154920290127
 10
126.9499124610572
 20
28.36333428610128
 10
126.7371943282572
 20
28.34688912770127
 10
126.5257336562572
 20
28.33227554690127
 10
126.3162247346572
 20
28.31949317730126
 10
126.1090805858572
 20
28.30851599650127
 10
125.9048094690572
 20
28.29930939010127
 10
125.7045818818572
 20
28.29183004450126
 10
125.5094441314572
 20
28.28601987970127
 10
125.3192835394572
 20
28.28177047330127
 10
125.1951562610572
 20
28.27974546530127
 10
125.0734235218572
 20
28.27832808290127
 10
124.9544466466572
 20
28.27748606210127
 10
124.8384765394572
 20
28.27718672450128
 10
124.7253224210572
 20
28.27739571330127
 10
124.6146830882572
 20
28.27807825410127
 10
124.4529836818572
 20
28.27991656130127
 10
124.2964677666572
 20
28.28264068130127
 10
124.1452124530572
 20
28.28615689890126
 10
123.9987915858572
 20
28.29040236290127
 10
123.8566531938572
 20
28.29532194530127
 10
123.7182453090572
 20
28.30086051490127
 10
123.5385902978572
 20
28.30913129250127
 10
123.3635167490572
 20
28.31838441410127
 10
123.1919553938572
 20
28.32859980610126
 10
123.0229140018572
 20
28.33976468290127
 10
122.8557084978572
 20
28.35189540930127
 10
122.6897318402572
 20
28.36501563170127
 10
122.5246315666572
 20
28.37912568610127
 10
122.3610735154572
 20
28.39413264610127
 10
122.1999781042572
 20
28.40992027810127
 10
122.0421705618572
 20
28.42637255010128
 10
121.8880953730572
 20
28.44337425730127
 10
121.7381018306572
 20
28.46081040610127
 10
121.5923546818572
 20
28.47859187170127
 10
121.4502804642572
 20
28.49673301090126
 10
121.3111211682572
 20
28.51527405250127
 10
121.1062270962572
 20
28.54394942050127
 10
120.9038530354572
 20
28.57390675650127
 10
120.7020215234572
 20
28.60539675810128
 10
120.5001774306572
 20
28.63850621250127
 10
120.2981879378572
 20
28.67326855330126
 10
120.0961871618572
 20
28.70966769730127
 10
119.8943730242572
 20
28.74767364610127
 10
119.6929317250572
 20
28.78725028770126
 10
119.4920076994572
 20
28.82836708770126
 10
119.2915900434572
 20
28.87102192930127
  0
LWPOLYLINE
  5
38
330
2
100
AcDbEntity
  8
0
100
AcDbPolyline
 90
       21
 70
     0
 43
0.0
 10
127.1075039618572
 20
29.20174327330127
 10
127.0642218226572
 20
29.19760881250127
 10
127.0347454802572
 20
29.19487139170127
 10
126.9977507842572
 20
29.19151944130126
 10
126.9536855874572
 20
29.18764450690128
 10
126.9026641954572
 20
29.18331339810127
 10
126.8447512738572
 20
29.17859432130127
 10
126.7801373698572
 20
29.17357007810128
 10
126.7090969762572
 20
29.16833187650127
 10
126.6316016946572
 20
29.16295041250127
 10
126.5475728098572
 20
29.15749758050127
 10
126.4569987794572
 20
29.15205410210127
 10
126.3599009042572
 20
29.14670574850127
 10
126.2562207922572
 20
29.14153677410126
 10
126.1459195970572
 20
29.13663582210126
 10
126.0290158162572
 20
29.13209650050127
 10
125.9055931298572
 20
29.12801569250127
 10
125.7757022962572
 20
29.12448893890126
 10
125.6393514018572
 20
29.12161095650127
 10
125.4966023810572
 20
29.11947709890127
 10
125.3475671298572
 20
29.11817955490127
  0
LWPOLYLINE
  5
39
330
2
100
AcDbEntity
  8
0
100
AcDbPolyline
 90
        8
 70
     0
 43
0.0
 10
127.2982375858572
 20
29.23208979650127
 10
127.0740561186572
 20
29.20871687170127
 10
126.8436443138572
 20
29.18789451650127
 10
126.6059254690572
 20
29.16967837730126
 10
126.3601570114572
 20
29.15417243810127
 10
126.1063247138572
 20
29.14155259970127
 10
125.8446381538572
 20
29.13200211650126
 10
125.5751812594572
 20
29.12569341890128
  0
LWPOLYLINE
  5
3A
330
2
100
AcDbEntity
  8
0
100
AcDbPolyline
 90
       31
 70
     0
 43
0.0
 10
123.5783796306572
 20
26.36219012770126
 10
123.7435043266572
 20
26.36238540290126
 10
123.9045979842572
 20
26.36295183970126
 10
124.0615887538572
 20
26.36386035970128
 10
124.2144047858572
 20
26.36508188290128
 10
124.3629742322572
 20
26.36658732770126
 10
124.5072746178572
 20
26.36834935170127
 10
124.6474809730572
 20
26.37034753730127
 10
124.7838177074572
 20
26.37256320610127
 10
124.9165092226572
 20
26.37497767810127
 10
125.0457799282572
 20
26.37757227330126
 10
125.1718410194572
 20
26.38032967010127
 10
125.2948508386572
 20
26.38323798370127
 10
125.4149545218572
 20
26.38628668770127
 10
125.5322972018572
 20
26.38946525570126
 10
125.6470240130572
 20
26.39276315970127
 10
125.7869817842572
 20
26.39703945250127
 10
125.9234028274572
 20
26.40147800130127
 10
126.0566109314572
 20
26.40607104770127
 10
126.1869298914572
 20
26.41081083170127
 10
126.3146799170572
 20
26.41569120610127
 10
126.4401668898572
 20
26.42071247810128
 10
126.5636931026572
 20
26.42587656450126
 10
126.6855608530572
 20
26.43118538210127
 10
126.8460106562572
 20
26.43849683330127
 10
127.0048669218572
 20
26.44610098530127
 10
127.1629470770572
 20
26.45402983010127
 10
127.6373656994572
 20
26.47997041410127
 10
128.1134400802572
 20
26.50925012770128
 10
128.5895261330572
 20
26.54178902210126
 10
129.0640015250572
 20
26.57746434690126
  0
LWPOLYLINE
  5
3B
330
2
100
AcDbEntity
  8
0
100
AcDbPolyline
 90
       51
 70
     0
 43
0.0
 10
119.9247626354572
 20
29.65509929090127
 10
120.2950945826572
 20
29.58503838690127
 10
120.6657124834572
 20
29.51876570210128
 10
121.0368485378572
 20
29.45706042050128
 10
121.4086522290572
 20
29.40055043650128
 10
121.7809421490572
 20
29.34925851170127
 10
122.1534541650572
 20
29.30305611490126
 10
122.4327074770572
 20
29.27168752770127
 10
122.7111203618572
 20
29.24317840930127
 10
122.9878760402572
 20
29.21759766850127
 10
123.2621577282572
 20
29.19501420770128
 10
123.4792766610572
 20
29.17914116290127
 10
123.6940136994572
 20
29.16520200930126
 10
123.9060930482572
 20
29.15316827810127
 10
124.1152389042572
 20
29.14301150370127
 10
124.3211754706572
 20
29.13470321410128
 10
124.5236411426572
 20
29.12820965570126
 10
124.7224310978572
 20
29.12347592130128
 10
124.9173547058572
 20
29.12044181410127
 10
125.1082213378572
 20
29.11904713890126
 10
125.2948403650572
 20
29.11923170210127
 10
125.4770737906572
 20
29.12093440610127
 10
125.6549941346572
 20
29.12409054690127
 10
125.8287265490572
 20
29.12863452290128
 10
125.9983961874572
 20
29.13450072770126
 10
126.1641282002572
 20
29.14162355970127
 10
126.3260492514572
 20
29.14994149410127
 10
126.4842920610572
 20
29.15940934850127
 10
126.6389908594572
 20
29.16998602050126
 10
126.7902798770572
 20
29.18163040450128
 10
126.9382933458572
 20
29.19430140130127
 10
127.1189276178572
 20
29.21152736130128
 10
127.2950308578572
 20
29.23024984450127
 10
127.4669803458572
 20
29.25042551330126
 10
127.6351533618572
 20
29.27201103650126
 10
127.7999395586572
 20
29.29497842530127
 10
127.9617780914572
 20
29.31936109730127
 10
128.1211204930572
 20
29.34520782210127
 10
128.2784182946572
 20
29.37256736770128
 10
128.4856546658572
 20
29.41148432130127
 10
128.6905654178572
 20
29.45329298850127
 10
128.8936570498572
 20
29.49810892930127
 10
129.0953718258572
 20
29.54603604610127
 10
129.2958950642572
 20
29.59713163010127
 10
129.4953478434572
 20
29.65144131010127
 10
129.6938131554572
 20
29.70899634690127
 10
129.8912216450572
 20
29.76977050050127
 10
130.0874658690572
 20
29.83372315330127
 10
130.2824630066572
 20
29.90082081570126
 10
130.4762286994572
 20
29.97105849890127
 10
130.6688032114572
 20
30.04443833730127
  0
LWPOLYLINE
  5
3C
330
2
100
AcDbEntity
  8
0
100
AcDbPolyline
 90
       25
 70
     0
 43
0.0
 10
130.6988874578572
 20
25.05308006530127
 10
130.4288544130572
 20
25.02646204770127
 10
130.1510523826572
 20
25.00214706690127
 10
129.8649112850572
 20
24.98022217250127
 10
129.5698670162572
 20
24.96078984610127
 10
129.2652627522572
 20
24.94396188770128
 10
128.9502618658572
 20
24.92985973890127
 10
128.6244465938572
 20
24.91863522850127
 10
128.2822013170572
 20
24.91034284450127
 10
127.9059233746572
 20
24.90499679490127
 10
127.4820833586572
 20
24.90297011650127
 10
127.0038145874572
 20
24.90439485250127
 10
126.4692453266572
 20
24.90881562530127
 10
125.8745295666572
 20
24.91521942210127
 10
125.2111702914572
 20
24.92200014050126
 10
124.4686694434572
 20
24.92769853410127
 10
123.6368539698572
 20
24.93206335810127
 10
122.7046487954572
 20
24.93494851170128
 10
121.6593893618572
 20
24.93615991970127
 10
120.4870908530572
 20
24.93550431330126
 10
119.1732412514572
 20
24.93287943650126
 10
117.7025453794572
 20
24.92846747970126
 10
116.0488425794572
 20
24.92297870370127
 10
114.1926793954572
 20
24.91800741090127
 10
112.4333796306572
 20
24.91607699970127
  0
LWPOLYLINE
  5
3D
330
2
100
AcDbEntity
  8
0
100
AcDbPolyline
 90
        4
 70
     0
 43
0.0
 10
112.4333796306572
 20
20.36224229570126
 10
117.9055521858572
 20
20.36213787010126
 10
123.2412506898572
 20
20.36192741410127
 10
128.4360947650572
 20
20.36229212290126
  0
LWPOLYLINE
  5
3E
330
2
100
AcDbEntity
  8
0
100
AcDbPolyline
 90
       26
 70
     0
 43
0.0
 10
78.28796243865726
 20
32.53112153410127
 10
78.68387255865726
 20
31.68477092450128
 10
79.11466654745726
 20
30.85953403650127
 10
79.57913773145725
 20
30.05716201730126
 10
80.07606360825725
 20
29.27928324770127
 10
80.60416927865725
 20
28.52726830370127
 10
81.16208448185725
 20
27.80252495330127
 10
81.74844340665726
 20
27.10637518370127
 10
82.36189851225725
 20
26.43987052450127
 10
83.00087236825726
 20
25.80422959010127
 10
83.66388004025726
 20
25.20051470210127
 10
84.34965366585727
 20
24.62940807010127
 10
85.05670992505725
 20
24.09172388610127
 10
85.78368612025725
 20
23.58597127970126
 10
86.52936190425725
 20
23.11703507810126
 10
87.29213224665725
 20
22.68339747010127
 10
88.07049806745727
 20
22.28565943330126
 10
88.86317834745725
 20
21.92420827170127
 10
89.66884721785726
 20
21.59939432770126
 10
90.48572064185725
 20
21.31176301410127
 10
91.31145449305725
 20
21.06188754690127
 10
92.14357346745726
 20
20.85020479010127
 10
92.98134040985726
 20
20.67668926050126
 10
93.82552150905725
 20
20.54106555650126
 10
94.67571312185725
 20
20.44332885730126
 10
95.53119180345726
 20
20.38365669250126
  0
LWPOLYLINE
  5
3F
330
2
100
AcDbEntity
  8
0
100
AcDbPolyline
 90
        4
 70
     0
 43
0.0
 10
96.43066449465727
 20
20.36229212290126
 10
101.6284699426572
 20
20.36192749890126
 10
106.9636764850572
 20
20.36213795970127
 10
112.4333796306572
 20
20.36224229570126
  0
LWPOLYLINE
  5
41
330
2
100
AcDbEntity
  8
0
100
AcDbPolyline
 90
        4
 70
     0
 43
0.0
 10
95.53119180345726
 20
20.38365669250126
 10
95.83082594905725
 20
20.37184537890126
 10
96.13066128665726
 20
20.36472322210126
 10
96.43066449465727
 20
20.36229212290126
  0
LWPOLYLINE
  5
43
330
2
100
AcDbEntity
  8
0
100
AcDbPolyline
 90
       71
 70
     0
 43
0.0
 10
105.5751692178572
 20
28.87102192930127
 10
105.3730500530572
 20
28.82801144610127
 10
105.1699024258572
 20
28.78646340610128
 10
104.9656726466572
 20
28.74638390530127
 10
104.7607899698572
 20
28.70786723970127
 10
104.5557975458572
 20
28.67102224610127
 10
104.3512111794572
 20
28.63592768930127
 10
104.1474300626572
 20
28.60263327170128
 10
103.9444142770572
 20
28.57110250530126
 10
103.7416063538572
 20
28.54123020930127
 10
103.5368177266572
 20
28.51272264610127
 10
103.3979088338572
 20
28.49431713410126
 10
103.2561927634572
 20
28.47632376290127
 10
103.1108965778572
 20
28.45869962690128
 10
102.9614319858572
 20
28.44142747970127
 10
102.8079493010572
 20
28.42459273730126
 10
102.6507834882572
 20
28.40830647010126
 10
102.4903371138572
 20
28.39267845730127
 10
102.3272831794572
 20
28.37781328770127
 10
102.1623622850572
 20
28.36381425250127
 10
101.9960731250572
 20
28.35076454690127
 10
101.8279467330572
 20
28.33866697730127
 10
101.6572722338572
 20
28.32750425090127
 10
101.5271435458572
 20
28.31973946210126
 10
101.3947439042572
 20
28.31250849730126
 10
101.2596355346572
 20
28.30582905410127
 10
101.1213806642572
 20
28.29971883010127
 10
100.9795352642572
 20
28.29420305730127
 10
100.8336302754572
 20
28.28933708130127
 10
100.6831903858572
 20
28.28518377570127
 10
100.5277402834572
 20
28.28180602050128
 10
100.3994813490572
 20
28.27970886530127
 10
100.2676357922572
 20
28.27820690690127
 10
100.1321277298572
 20
28.27735874850127
 10
99.99288127545725
 20
28.27722299810126
 10
99.84982054425726
 20
28.27785825730127
 10
99.70291203705727
 20
28.27932363650127
 10
99.55229178905725
 20
28.28168025570127
 10
99.39813821945726
 20
28.28498974210127
 10
99.24062974745726
 20
28.28931371970126
 10
99.07994479385727
 20
28.29471381410127
 10
98.87498593785725
 20
28.30305483650127
 10
98.66624581305726
 20
28.31319633410128
 10
98.45462761945725
 20
28.32516106050127
 10
98.24103455865724
 20
28.33897176610126
 10
98.02629001945726
 20
28.35464551170128
 10
97.81089812665726
 20
28.37217657730127
 10
97.59560177785726
 20
28.39150448130126
 10
97.38241822265727
 20
28.41237248130127
 10
97.17301685945725
 20
28.43455471010127
 10
96.96640133625727
 20
28.45814504930128
 10
96.76090885945725
 20
28.48331732450127
 10
96.55487663545725
 20
28.51024535810127
 10
96.34725192025726
 20
28.53903422370128
 10
96.13942215705726
 20
28.56951400130127
 10
95.93302055225725
 20
28.60148517410127
 10
95.72822317945727
 20
28.63490485890128
 10
95.52501412185725
 20
28.66973324610127
 10
95.32406663225726
 20
28.70578621890127
 10
95.12622625465725
 20
28.74284357570127
 10
94.93233853145724
 20
28.78068511650127
 10
94.78060071545725
 20
28.81137662850127
 10
94.63211614105725
 20
28.84232620130127
 10
94.48706720505725
 20
28.87343094370126
 10
94.34563630105726
 20
28.90458796450127
 10
94.20800582265725
 20
28.93569437250127
 10
94.07431579545727
 20
28.96665754850127
 10
93.94453676505724
 20
28.99742594050127
 10
93.81859690425725
 20
29.02795827330126
 10
93.69642439065726
 20
29.05821326370127
 10
93.57794739705726
 20
29.08814963490127
  0
LWPOLYLINE
  5
44
330
2
100
AcDbEntity
  8
0
100
AcDbPolyline
 90
       31
 70
     0
 43
0.0
 10
95.80275773465727
 20
26.57746434690126
 10
96.27823092505726
 20
26.54171741410127
 10
96.75539328985728
 20
26.50911550210127
 10
97.23255817625727
 20
26.47978667490127
 10
97.70800787865725
 20
26.45381482050128
 10
97.86634975705727
 20
26.44588265090126
 10
98.02540878425725
 20
26.43827919970127
 10
98.18599920665725
 20
26.43097223810127
 10
98.30793011545726
 20
26.42566911010126
 10
98.43148372825726
 20
26.42051250850127
 10
98.55696332185726
 20
26.41550031490126
 10
98.68467217785727
 20
26.41063040610127
 10
98.81491705785727
 20
26.40590228130126
 10
98.94801864505726
 20
26.40132189090127
 10
99.08430110585726
 20
26.39689680450127
 10
99.22408860665726
 20
26.39263458690126
 10
99.33865663705725
 20
26.38934825410128
 10
99.45582071065727
 20
26.38618140770127
 10
99.57572617625727
 20
26.38314445090127
 10
99.69851838265725
 20
26.38024779010128
 10
99.82434268185727
 20
26.37750183330126
 10
99.95335765625725
 20
26.37491833730126
 10
100.0857748274572
 20
26.37251447810126
 10
100.2218189474572
 20
26.37030878850127
 10
100.3617147714572
 20
26.36831979650127
 10
100.5056870530572
 20
26.36656603490127
 10
100.6539110882572
 20
26.36506775810127
 10
100.8063643474572
 20
26.36385213570128
 10
100.9629748498572
 20
26.36294806050127
 10
101.1236706050572
 20
26.36238442690127
 10
101.2883796306572
 20
26.36219012770126
  0
LWPOLYLINE
  5
45
330
2
100
AcDbEntity
  8
0
100
AcDbPolyline
 90
       24
 70
     0
 43
0.0
 10
94.16787180185727
 20
25.05308006530127
 10
94.44981990265725
 20
25.02535619010127
 10
94.74025230745725
 20
25.00014407650127
 10
95.03981812825726
 20
24.97754360130127
 10
95.34916604825726
 20
24.95767249890127
 10
95.66906719865725
 20
24.94065949410126
 10
96.00050869945725
 20
24.92664504930127
 10
96.34463694585726
 20
24.91579047010127
 10
96.71052137145725
 20
24.90813463810127
 10
97.12041219065724
 20
24.90379198210126
 10
97.58547282425727
 20
24.90317570050128
 10
98.11167451865726
 20
24.90619230370127
 10
98.69973892345726
 20
24.91199115330127
 10
99.35824476985727
 20
24.91913907490126
 10
100.0974161698572
 20
24.92562102690127
 10
100.9296760210572
 20
24.93070312610127
 10
101.8668599170572
 20
24.93423755010127
 10
102.9227775826572
 20
24.93601623010127
 10
104.1129445154572
 20
24.93581411010127
 10
105.4539366274572
 20
24.93347542370127
 10
106.9620372866572
 20
24.92912878690127
 10
108.6642859602572
 20
24.92347040930127
 10
110.5952996450572
 20
24.91816983490128
 10
112.4333796306572
 20
24.91607700290127
  0
LWPOLYLINE
  5
46
330
2
100
AcDbEntity
  8
0
100
AcDbPolyline
 90
       31
 70
     0
 43
0.0
 10
102.0897927586572
 20
29.22150646050127
 10
101.8572161602572
 20
29.20354462210127
 10
101.6286452530572
 20
29.18743629730127
 10
101.4052977682572
 20
29.17319292130128
 10
101.1880504674572
 20
29.16078804290127
 10
100.9772525202572
 20
29.15015234050128
 10
100.7729496402572
 20
29.14119780610127
 10
100.5751101346572
 20
29.13383412290127
 10
100.3836132978572
 20
29.12796998530128
 10
100.1983128194572
 20
29.12351748450127
 10
100.0193245874572
 20
29.12039697090126
 10
99.84683092825726
 20
29.11852514210128
 10
99.68095459385725
 20
29.11781250210127
 10
99.52176551065726
 20
29.11816532130128
 10
99.36929769305727
 20
29.11948730690127
 10
99.22363840985726
 20
29.12167937410128
 10
99.08485509945727
 20
29.12463974210126
 10
98.95296121785726
 20
29.12826469090127
 10
98.82790247225726
 20
29.13245308610127
 10
98.70960335705726
 20
29.13710734690127
 10
98.59799219385728
 20
29.14213299170127
 10
98.49294667225727
 20
29.14744158850126
 10
98.39430665785727
 20
29.15295150530127
 10
98.30200970905726
 20
29.15858035970127
 10
98.21641513945726
 20
29.16422057090128
 10
98.13786403065726
 20
29.16976205890127
 10
98.06656029305726
 20
29.17510321730127
 10
98.00264976025726
 20
29.18014875970126
 10
97.94642139385727
 20
29.18479504290127
 10
97.89799217305725
 20
29.18895653890126
 10
97.85713530425725
 20
29.19258526370127
  0
LWPOLYLINE
  5
47
330
2
100
AcDbEntity
  8
0
100
AcDbPolyline
 90
       51
 70
     0
 43
0.0
 10
94.19795604825726
 20
30.04443833730127
 10
94.39051664185726
 20
29.97106357890126
 10
94.58427195545725
 20
29.90082924930126
 10
94.77926538585725
 20
29.83373253410127
 10
94.97551367065725
 20
29.76977831970127
 10
95.17292690265724
 20
29.70900227170126
 10
95.37138851545725
 20
29.65144774690127
 10
95.57082117465725
 20
29.59714311650127
 10
95.77130447225725
 20
29.54605678050127
 10
95.97295723385725
 20
29.49814214690127
 10
96.17596638745727
 20
29.45334052770127
 10
96.38079127705726
 20
29.41154485410128
 10
96.58795934585725
 20
29.37263596130127
 10
96.74522745305726
 20
29.34527754370127
 10
96.90455513305726
 20
29.31942857090126
 10
97.06638722745726
 20
29.29504170210127
 10
97.23116858105726
 20
29.27206959970126
 10
97.39933297145725
 20
29.25047997890127
 10
97.57126990745726
 20
29.23030077250126
 10
97.74735783385725
 20
29.21157496930126
 10
97.92797519065727
 20
29.19434555810127
 10
98.07597513305726
 20
29.18167148770126
 10
98.22725318265725
 20
29.17002362530126
 10
98.38194641145726
 20
29.15944297890126
 10
98.54019188665725
 20
29.14997055330127
 10
98.70212667865727
 20
29.14164735650127
 10
98.86788641305725
 20
29.13451861250127
 10
99.03760094585727
 20
29.12864643010127
 10
99.21139869145726
 20
29.12409714050127
 10
99.38940806265726
 20
29.12093707010127
 10
99.57175747225726
 20
29.11923255010127
 10
99.75851923865725
 20
29.11904876130127
 10
99.94954128825725
 20
29.12044630530127
 10
100.1446154562572
 20
29.12348463490127
 10
100.3435335714572
 20
29.12822320610127
 10
100.5460874690572
 20
29.13472146850127
 10
100.7520600290572
 20
29.14303371970127
 10
100.9611983250572
 20
29.15319361250126
 10
101.1732404850572
 20
29.16522964130126
 10
101.3879246306572
 20
29.17917030050126
 10
101.6049888882572
 20
29.19504408130127
 10
101.8792161266572
 20
29.21762755330126
 10
102.1559346530572
 20
29.24320798690127
 10
102.4343260114572
 20
29.27171731650126
 10
102.7135717442572
 20
29.30308747650127
 10
103.0860895010572
 20
29.34929455490127
 10
103.4583852786572
 20
29.40059118690126
 10
103.8301732354572
 20
29.45710200930126
 10
104.2012551218572
 20
29.51880104130127
 10
104.5717830258572
 20
29.58505982850127
 10
104.9419966258572
 20
29.65509929090127
  0
LWPOLYLINE
  5
48
330
2
100
AcDbEntity
  8
0
100
AcDbPolyline
 90
       29
 70
     0
 43
0.0
 10
97.56852167385725
 20
29.23208979650127
 10
97.79270314105726
 20
29.20871687170127
 10
98.02311494745726
 20
29.18789451650127
 10
98.26083379065726
 20
29.16967837730126
 10
98.50660224985725
 20
29.15417243810127
 10
98.76043454585726
 20
29.14155259970127
 10
99.02212110745725
 20
29.13200211650126
 10
99.29157800185727
 20
29.12569341890128
 10
99.56872834425727
 20
29.12279392610127
 10
99.85299327065726
 20
29.12345709410127
 10
100.1437196802572
 20
29.12780813890127
 10
100.4408950498572
 20
29.13596598210126
 10
100.7441241298572
 20
29.14803836930127
 10
101.0524710258572
 20
29.16409215650126
 10
101.3652328066572
 20
29.18417566850127
 10
101.6816549970572
 20
29.20831035490127
 10
102.0007686098572
 20
29.23647569730127
 10
102.3212065090572
 20
29.26858508290127
 10
102.6416263426572
 20
29.30451025570127
 10
102.9613457570572
 20
29.34416242690128
 10
103.2797339650572
 20
29.38744544770127
 10
103.5956924738572
 20
29.43417903810127
 10
103.9079590130572
 20
29.48411839330127
 10
104.2188839026572
 20
29.53762524290127
 10
104.5416573650572
 20
29.59714367970127
 10
104.8966624322572
 20
29.66638280610126
 10
105.2922538434572
 20
29.74635980610127
 10
105.7340032338572
 20
29.83662575010127
 10
106.2169346802572
 20
29.93331185730127
  0
LWPOLYLINE
  5
49
330
2
100
AcDbEntity
  8
0
100
AcDbPolyline
 90
       35
 70
     0
 43
0.0
 10
90.37675101625726
 20
32.31086164450127
 10
90.45017722425725
 20
32.25146799330127
 10
90.52563318905725
 20
32.19138131810128
 10
90.60292684825725
 20
32.13075874690128
 10
90.68194298745726
 20
32.06969309090126
 10
90.76287378905727
 20
32.00801990850127
 10
90.84598828665725
 20
31.94551044450126
 10
90.93146230905725
 20
31.88201572290127
 10
91.01909887225726
 20
31.81770587650127
 10
91.10860779225726
 20
31.75283081890127
 10
91.19969887865726
 20
31.68764046050127
 10
91.29208194745727
 20
31.62238471490127
 10
91.38546681145726
 20
31.55731349250128
 10
91.45607261785725
 20
31.50872394530127
 10
91.52746205465726
 20
31.46013883650127
 10
91.59986128985726
 20
31.41142505890127
 10
91.67286776345724
 20
31.36287684290127
 10
91.77032699865725
 20
31.29898758370127
 10
91.86738468185726
 20
31.23640213090126
 10
91.96355482265726
 20
31.17541696770127
 10
92.05850181465725
 20
31.11623317890126
 10
92.15249156345725
 20
31.05867023170127
 10
92.24594035865726
 20
31.00245219650126
 10
92.38575094745725
 20
30.92020370050127
 10
92.52513233465725
 20
30.84039181730126
 10
92.66398608505724
 20
30.76302268130126
 10
92.80241482905726
 20
30.68800135010127
 10
92.94057146585727
 20
30.61520760930128
 10
93.07860889465727
 20
30.54452124610127
 10
93.26275510425725
 20
30.45335536930128
 10
93.44742845945726
 20
30.36551073890128
 10
93.63309620825726
 20
30.28077587330126
 10
93.82012255065726
 20
30.19898829730127
 10
94.00845950745724
 20
30.12018159010127
 10
94.19795604505726
 20
30.04443834530127
  0
LWPOLYLINE
  5
4A
330
2
100
AcDbEntity
  8
0
100
AcDbPolyline
 90
       59
 70
     0
 43
0.0
 10
93.57794739705726
 20
29.08814963490127
 10
93.38713173145725
 20
29.13842424770126
 10
93.19886531705725
 20
29.19117058210128
 10
93.01314562425725
 20
29.24630480930128
 10
92.82999459865726
 20
29.30373373890127
 10
92.64953206425726
 20
29.36332675490126
 10
92.47190231705726
 20
29.42494388290127
 10
92.29723855705726
 20
29.48844541410128
 10
92.12562959705726
 20
29.55369272290127
 10
91.95715315065726
 20
29.62054745090127
 10
91.79188754105727
 20
29.68886948130126
 10
91.62991351705725
 20
29.75851165890126
 10
91.47131244025727
 20
29.82932506850128
 10
91.31621320985727
 20
29.90113206370127
 10
91.16493490905725
 20
29.97364007010126
 10
91.01784415865726
 20
30.04652778690128
 10
90.91049044185727
 20
30.10124658050127
 10
90.80582744665724
 20
30.15584532930127
 10
90.70398416825725
 20
30.21017113570127
 10
90.60508960345726
 20
30.26407109890127
 10
90.50923671545726
 20
30.31741214210127
 10
90.41637432665726
 20
30.37014045570127
 10
90.32641522265725
 20
30.42222204930126
 10
90.23927219385726
 20
30.47362293250127
 10
90.12730992825726
 20
30.54104897250127
 10
90.01998394585726
 20
30.60717881890127
 10
89.91707922585726
 20
30.67198685570128
 10
89.81838804825725
 20
30.73544878530127
 10
89.72373192825726
 20
30.79754557570128
 10
89.63293968345727
 20
30.85825951650127
 10
89.54584451705725
 20
30.91757466850127
 10
89.46229716505726
 20
30.97548219810127
 10
89.38215274745726
 20
31.03197504770126
 10
89.30526008825726
 20
31.08705509090127
 10
89.23144282265726
 20
31.14075994530127
 10
89.16051829305727
 20
31.19313615650126
 10
89.09230113465724
 20
31.24423696290127
 10
89.02659517145727
 20
31.29414236610127
 10
88.96320152665726
 20
31.34293905570128
 10
88.90191897625726
 20
31.39071992130126
 10
88.84253691545726
 20
31.43760264130126
 10
88.78484239225725
 20
31.48371109570126
 10
88.70099488185726
 20
31.55171075010128
 10
88.61972230585726
 20
31.61877156290127
 10
88.54032272825724
 20
31.68539549730127
 10
88.46225802585726
 20
31.75199425250127
 10
88.38503775545726
 20
31.81895975170127
 10
88.30819839705725
 20
31.88669506370127
 10
88.23129028505725
 20
31.95560896450126
 10
88.15389223705725
 20
32.02612189570126
 10
88.10182342265724
 20
32.07422418690127
 10
88.04926940185726
 20
32.12332828770127
 10
87.99614674745726
 20
32.17353716930126
 10
87.94236347865725
 20
32.22496539330127
 10
87.88779341625726
 20
32.27777389570127
 10
87.83230183545725
 20
32.33213520290127
 10
87.77579467705725
 20
32.38818338530127
 10
87.71834056185724
 20
32.44589866690127
 10
87.66004878105725
 20
32.50522281890127
  0
LWPOLYLINE
  5
4B
330
2
100
AcDbEntity
  8
0
100
AcDbPolyline
 90
       49
 70
     0
 43
0.0
 10
87.66004878105725
 20
32.50522281890127
 10
87.67930782585725
 20
32.41874840770127
 10
87.69998698745727
 20
32.33145179170127
 10
87.72213127225725
 20
32.24334687010127
 10
87.74578134105727
 20
32.15446096130126
 10
87.77096045625725
 20
32.06487504770128
 10
87.79768753785726
 20
31.97468352450127
 10
87.82598423065726
 20
31.88396941730127
 10
87.85588310745726
 20
31.79277025730127
 10
87.88741946745725
 20
31.70111220290127
 10
87.92062306585725
 20
31.60903410210127
 10
87.95550145625725
 20
31.51662555170126
 10
87.99205664985725
 20
31.42398884450126
 10
88.03029673145726
 20
31.33120937570128
 10
88.07025409945726
 20
31.23830497730127
 10
88.11196723065725
 20
31.14527659490127
 10
88.15547380985725
 20
31.05212926530127
 10
88.20080833625725
 20
30.95888441250127
 10
88.24800451705725
 20
30.86556755490127
 10
88.29710004185725
 20
30.77219907170126
 10
88.34814854265726
 20
30.67877876610127
 10
88.40120763225725
 20
30.58530130370127
 10
88.45633238745724
 20
30.49176856930127
 10
88.51356773145726
 20
30.39821135650127
 10
88.57295604825726
 20
30.30466767330127
 10
88.63453968665726
 20
30.21117678050127
 10
88.69836084825726
 20
30.11778289730127
 10
88.76446169945726
 20
30.02453148930126
 10
88.83287754745726
 20
29.93147734370127
 10
88.90361625465727
 20
29.83871252770127
 10
88.97667882425725
 20
29.74633843010127
 10
89.05205431225725
 20
29.65446557890127
 10
89.12968398105725
 20
29.56324106850127
 10
89.20949714265725
 20
29.47282112770126
 10
89.29143034105726
 20
29.38334937730127
 10
89.37544904025726
 20
29.29491898850126
 10
89.46152593785726
 20
29.20761052290128
 10
89.54962162425726
 20
29.12151208610127
 10
89.63964827225726
 20
29.03674197410127
 10
89.73150595225726
 20
28.95342603170126
 10
89.82510356345725
 20
28.87167822210126
 10
89.92038533945725
 20
28.79156500290127
 10
90.01730434905725
 20
28.71314095010127
 10
90.11579931865725
 20
28.63646785730127
 10
90.21575163385724
 20
28.56163638530127
 10
90.31702833945727
 20
28.48874441090127
 10
90.41951655545725
 20
28.41787265890127
 10
90.52318369945727
 20
28.34903323490127
 10
90.62801725785726
 20
28.28222108770127
  0
LWPOLYLINE
  5
4C
330
2
100
AcDbEntity
  8
0
100
AcDbPolyline
 90
       92
 70
     0
 43
0.0
 10
87.15545580505725
 20
37.85302527330127
 10
87.19151111065725
 20
37.69567553890126
 10
87.22960620825725
 20
37.53775357570127
 10
87.26976975065724
 20
37.37945986050127
 10
87.31202668025725
 20
37.22099357090127
 10
87.35639990425726
 20
37.06254607330127
 10
87.40288659705726
 20
36.90438083810127
 10
87.45145447065725
 20
36.74682801730126
 10
87.50204739225726
 20
36.59025103490127
 10
87.55463723865725
 20
36.43488807810126
 10
87.60932868505724
 20
36.28057216770126
 10
87.66630720025725
 20
36.12693323810127
 10
87.72563654425725
 20
35.97396895010126
 10
87.78702173945726
 20
35.82255241570126
 10
87.84998548825726
 20
35.67383821570127
 10
87.91429268985726
 20
35.52825563490127
 10
87.97991959545726
 20
35.38571109570126
 10
88.04684793785725
 20
35.24610886370126
 10
88.11505500185726
 20
35.10937182530126
 10
88.18449769625727
 20
34.97546857570127
 10
88.25522097145725
 20
34.84420822850127
 10
88.32702645785726
 20
34.71585133410127
 10
88.39885203865724
 20
34.59207689090126
 10
88.46956049625726
 20
34.47444899170126
 10
88.53895474425724
 20
34.36283358690127
 10
88.60736281625724
 20
34.25630461570126
 10
88.67504979385726
 20
34.15413767490127
 10
88.74220151865726
 20
34.05580346850126
 10
88.80897295705725
 20
33.96087236130127
 10
88.87549321305725
 20
33.86899427010126
 10
88.94186885465726
 20
33.77988395330127
 10
89.00820802585725
 20
33.69328229730126
 10
89.07457565145724
 20
33.60900922530127
 10
89.14113413625726
 20
33.52678367970126
 10
89.20781183065725
 20
33.44662910370127
 10
89.27463582265726
 20
33.36845326210127
 10
89.34407839065725
 20
33.28942193410127
 10
89.42070789465725
 20
33.20469721890127
 10
89.50623649145725
 20
33.11301154210127
 10
89.59799659385726
 20
33.01778601090127
 10
89.69358032825725
 20
32.92179280450126
 10
89.79309449145725
 20
32.82505439970127
 10
89.89721406265726
 20
32.72705546370128
 10
90.00661693465726
 20
32.62732877410127
 10
90.12196986585726
 20
32.52545668930128
 10
90.24486681785726
 20
32.42027445730127
 10
90.37527037465725
 20
32.31207142530127
 10
90.50394582905726
 20
32.20837350050127
 10
90.62030448985726
 20
32.11694122050127
 10
90.72481870425725
 20
32.03650637410127
 10
90.82143517465725
 20
31.96342407650127
 10
90.91221460185726
 20
31.89575748930127
 10
91.00188556025726
 20
31.82977319970127
 10
91.09602084185725
 20
31.76136781890127
 10
91.19653868665725
 20
31.68931639970127
 10
91.30373309945724
 20
31.61362296770127
 10
91.41865847225725
 20
31.53380392290127
 10
91.54266058105724
 20
31.44925369890127
 10
91.67739652985725
 20
31.35926683010128
 10
91.82582054905726
 20
31.26244551650127
 10
91.98973548025724
 20
31.15837751490127
 10
92.16174279225725
 20
31.05245213250127
 10
92.33264072025725
 20
30.95057268450126
 10
92.50276159545725
 20
30.85246313890127
 10
92.67356129465724
 20
30.75721261090127
 10
92.84451257465725
 20
30.66508767490127
 10
93.01543253145727
 20
30.57614340930126
 10
93.18613613945727
 20
30.49043003330126
 10
93.35651627065727
 20
30.40795299810126
 10
93.52667911385726
 20
30.32861661410128
 10
93.69695374265726
 20
30.25222880290127
 10
93.86763268025726
 20
30.17862410850126
 10
94.03879168665724
 20
30.10774746850127
 10
94.21045101465725
 20
30.03957231650128
 10
94.38267624665725
 20
29.97405776770126
 10
94.55556284345727
 20
29.91115709890127
 10
94.72922901145725
 20
29.85082172610127
 10
94.90372961785727
 20
29.79303043970126
 10
95.07899131065725
 20
29.73780788610127
 10
95.25502191865726
 20
29.68515567650126
 10
95.43208452665727
 20
29.63500111650127
 10
95.61049949945726
 20
29.58726822210127
 10
95.79055878425725
 20
29.54190271650126
 10
95.97256166265726
 20
29.49886132930128
 10
96.15680472505726
 20
29.45811426370127
 10
96.34360362425725
 20
29.41964106530127
 10
96.53394778425727
 20
29.38330615810127
 10
96.72931217305725
 20
29.34892408930128
 10
96.93044043865725
 20
29.31648031810127
 10
97.13736647065726
 20
29.28610374210127
 10
97.35006904665725
 20
29.25792911010127
 10
97.56852167385725
 20
29.23208979650127
  0
LWPOLYLINE
  5
4D
330
2
100
AcDbEntity
  8
0
100
AcDbPolyline
 90
       75
 70
     0
 43
0.0
 10
80.25741501145725
 20
33.80580546210127
 10
80.36324957305726
 20
33.61943462210126
 10
80.47201441945725
 20
33.43386772930127
 10
80.58371827545725
 20
33.24913124610127
 10
80.69838738905726
 20
33.06522048130126
 10
80.81614452025725
 20
32.88198437890128
 10
80.93698368825725
 20
32.69948347170127
 10
81.06084141785727
 20
32.51785735970126
 10
81.18765718585725
 20
32.33723575170127
 10
81.31738817305725
 20
32.15771791970126
 10
81.45005822745725
 20
31.97930604450127
 10
81.58570474905726
 20
31.80198678370127
 10
81.72439229785727
 20
31.62571572130127
 10
81.86618954905725
 20
31.45044898370128
 10
82.01110525465725
 20
31.27622153090126
 10
82.15913729465725
 20
31.10308096610127
 10
82.31027876345725
 20
30.93107852930127
 10
82.46458952345724
 20
30.76019043650127
 10
82.62211799385726
 20
30.59040964770128
 10
82.78287859865725
 20
30.42176797570127
 10
82.94686576025725
 20
30.25431771330127
 10
83.11395671865724
 20
30.08822686210126
 10
83.28408178425725
 20
29.92360373890127
 10
83.45723980985725
 20
29.76048615490127
 10
83.63344004985725
 20
29.59890182370127
 10
83.81270227705725
 20
29.43886946210126
 10
83.99504881305725
 20
29.28040667810127
 10
84.18046051385726
 20
29.12356665570126
 10
84.36896535865725
 20
28.96836298370127
 10
84.56050126265726
 20
28.81488281730126
 10
84.75498511705726
 20
28.66322389890127
 10
84.95232827385725
 20
28.51348374370127
 10
85.15109382745725
 20
28.36674821090127
 10
85.35044449465726
 20
28.22360974850127
 10
85.54993627545725
 20
28.08433902050127
 10
85.74950065145726
 20
27.94892111490126
 10
85.94921483225725
 20
27.81724604930127
 10
86.14909309465724
 20
27.68925087010127
 10
86.34901662745726
 20
27.56495655810127
 10
86.54866812025725
 20
27.44449421090127
 10
86.74782948025725
 20
27.32791748610127
 10
86.94641607865724
 20
27.21519869090127
 10
87.14440631705725
 20
27.10627565250126
 10
87.34181472665724
 20
27.00106723170127
 10
87.53865845945725
 20
26.89949384450128
 10
87.73496298745726
 20
26.80147403170127
 10
87.93077877145725
 20
26.70691713090127
 10
88.12613921145725
 20
26.61574396130127
 10
88.32122463705726
 20
26.52781802370127
 10
88.51678354745727
 20
26.44276022050127
 10
88.71330392985726
 20
26.36032991970127
 10
88.91079292505725
 20
26.28050637570128
 10
89.10930785465726
 20
26.20325016130127
 10
89.30896012025725
 20
26.12850526690127
 10
89.50989471545724
 20
26.05620955970127
 10
89.71222610105725
 20
25.98631808130127
 10
89.91602750425725
 20
25.91880461410127
 10
90.12138015225726
 20
25.85364398370127
 10
90.32880154105725
 20
25.79068174530127
 10
90.53898376185726
 20
25.72973046690127
 10
90.75212698745726
 20
25.67076415490127
 10
90.96830844985726
 20
25.61379616450127
 10
91.18769556185725
 20
25.55881892450126
 10
91.41052311865726
 20
25.50581439170128
 10
91.63693329785726
 20
25.45479444770127
 10
91.86700278745727
 20
25.40578930210127
 10
92.10099053465725
 20
25.35879383490128
 10
92.33952185145724
 20
25.31374195010127
 10
92.58323567865724
 20
25.27057826690127
 10
92.83258261625725
 20
25.22929433730126
 10
93.08779684665726
 20
25.18992838530127
 10
93.34926417465727
 20
25.15249937890127
 10
93.61783011385725
 20
25.11698203650126
 10
93.89230330745725
 20
25.08359051010127
 10
94.16787180185727
 20
25.05308006530127
  0
LWPOLYLINE
  5
4E
330
2
100
AcDbEntity
  8
0
100
AcDbPolyline
 90
       33
 70
     0
 43
0.0
 10
90.62801725785726
 20
28.28222108770127
 10
90.73172286745725
 20
28.21824583170126
 10
90.83766705145725
 20
28.15444389410128
 10
90.94592660985725
 20
28.09084512130127
 10
91.05657834105725
 20
28.02747936130127
 10
91.16966085945724
 20
27.96439610850127
 10
91.28506004185727
 20
27.90172342850127
 10
91.40262357785726
 20
27.83960904130127
 10
91.52219915545726
 20
27.77820065890127
 10
91.68451994105726
 20
27.69765328930127
 10
91.84990641145725
 20
27.61883538530126
 10
92.01811805465727
 20
27.54195868930127
 10
92.18890204345726
 20
27.46723051650127
 10
92.36195627545725
 20
27.39484049250127
 10
92.53696633145725
 20
27.32497381250126
 10
92.71363565305724
 20
27.25779958370127
 10
92.89173914105726
 20
27.19342253570127
 10
93.07106955545725
 20
27.13193130690128
 10
93.25141654905726
 20
27.07340896930126
 10
93.43255733945724
 20
27.01791635490127
 10
93.61426603225726
 20
26.96550873730128
 10
93.79634328345725
 20
26.91623012930127
 10
93.97869596025726
 20
26.87007953410128
 10
94.16125748025725
 20
26.82704470050127
 10
94.34396207225725
 20
26.78711298210127
 10
94.52674723065726
 20
26.75027017250127
 10
94.70955126105726
 20
26.71650166690126
 10
94.89230889625725
 20
26.68579229090127
 10
95.07494058105725
 20
26.65812457250128
 10
95.25736318585726
 20
26.63348046370127
 10
95.43950145145727
 20
26.61184025410126
 10
95.62131160345726
 20
26.59317756290127
 10
95.80275773465727
 20
26.57746434690126
  0
LINE
  5
4F
330
2
100
AcDbEntity
  8
0
100
AcDbLine
 10
97.79661612985727
 20
29.19816608130126
 30
0.0
 11
97.76007853785726
 21
29.20166328930126
 31
0.0
  0
LINE
  5
50
330
2
100
AcDbEntity
  8
0
100
AcDbLine
 10
97.85713530425725
 20
29.19258526370127
 30
0.0
 11
97.79661612985727
 21
29.19816608130126
 31
0.0
  0
LWPOLYLINE
  5
51
330
2
100
AcDbEntity
  8
0
100
AcDbPolyline
 90
       31
 70
     0
 43
0.0
 10
88.40684482745727
 20
34.57857727010127
 10
88.47198578105725
 20
34.46989723650126
 10
88.53827665945727
 20
34.36280074530127
 10
88.60570980825725
 20
34.25728571490127
 10
88.67428853465725
 20
34.15333703010126
 10
88.74401669625726
 20
34.05094061250128
 10
88.81488938585725
 20
33.95009953410127
 10
88.88690493145725
 20
33.85081479970127
 10
88.96008340345725
 20
33.75306196930127
 10
89.03446980985725
 20
33.65678931010127
 10
89.11018719705726
 20
33.56186137090126
 10
89.18737190105725
 20
33.46814031330128
 10
89.26613538425725
 20
33.37556247330127
 10
89.34651368025726
 20
33.28413958850127
 10
89.42826598585725
 20
33.19411083650126
 10
89.51115426745726
 20
33.10568384610127
 10
89.59522840025725
 20
33.01871264610127
 10
89.65202760985725
 20
32.96139957090128
 10
89.70962896665724
 20
32.90440806850126
 10
89.76825341145726
 20
32.84751686370127
 10
89.82811568825725
 20
32.79051649890126
 10
89.88940571865725
 20
32.73324479970126
 10
89.95230722425725
 20
32.67555141250127
 10
90.00066048185727
 20
32.63190874690127
 10
90.05015549945724
 20
32.58784821890127
 10
90.10092424025726
 20
32.54327373890127
 10
90.15309866585726
 20
32.49808921890127
 10
90.20678353305726
 20
32.45222251970126
 10
90.26197475545727
 20
32.40569728770127
 10
90.31864104345727
 20
32.35856111810127
 10
90.37675110425727
 20
32.31086160770127
  0
LWPOLYLINE
  5
52
330
2
100
AcDbEntity
  8
0
100
AcDbPolyline
 90
       19
 70
     0
 43
0.0
 10
78.85720818265726
 20
36.96564186850128
 10
78.90468234105725
 20
36.82261083650127
 10
78.95646752185726
 20
36.67154364610127
 10
79.01285419385726
 20
36.51239783490128
 10
79.07425536825726
 20
36.34481702050126
 10
79.14109540185726
 20
36.16850324930126
 10
79.21332097785725
 20
35.98443584450127
 10
79.28822127545726
 20
35.79993704610128
 10
79.36519058745725
 20
35.61646667490127
 10
79.44437477625726
 20
35.43359809730127
 10
79.52574212025727
 20
35.25135032290127
 10
79.60928059705725
 20
35.06969082370128
 10
79.69498871545726
 20
34.88856231650128
 10
79.78289518105725
 20
34.70785396130127
 10
79.87306840825725
 20
34.52739035970127
 10
79.96557280345726
 20
34.34702362850127
 10
80.06044347385724
 20
34.16667741890127
 10
80.15771174745726
 20
33.98629237410126
 10
80.25741501145725
 20
33.80580546210127
  0
LWPOLYLINE
  5
53
330
2
100
AcDbEntity
  8
0
100
AcDbPolyline
 90
       33
 70
     0
 43
0.0
 10
87.18013919545725
 20
37.80790604770126
 10
87.21465087385727
 20
37.65640581890127
 10
87.25075235385725
 20
37.50558869570127
 10
87.28847279705727
 20
37.35547926370127
 10
87.32787606425725
 20
37.20596495170127
 10
87.36903540665725
 20
37.05691154370127
 10
87.41202690585726
 20
36.90823538690127
 10
87.45693132185726
 20
36.75985934530128
 10
87.50384525145724
 20
36.61168178050127
 10
87.53630498265726
 20
36.51291029730127
 10
87.56983865625725
 20
36.41388626050127
 10
87.60458240025725
 20
36.31431680130127
 10
87.64067821785726
 20
36.21391249730126
 10
87.67829160185725
 20
36.11239774050128
 10
87.71759391225726
 20
36.00950036930127
 10
87.74828548345727
 20
35.93125746210127
 10
87.78011612825725
 20
35.85197603170127
 10
87.81317850425725
 20
35.77154836290127
 10
87.84756527065725
 20
35.68986674370127
 10
87.88337251545724
 20
35.60682628130126
 10
87.92071004185727
 20
35.52233336770127
 10
87.95969108025726
 20
35.43629721890127
 10
88.00042886265726
 20
35.34862704610127
 10
88.03436457945725
 20
35.27725203010126
 10
88.06958231225726
 20
35.20471840930127
 10
88.10616728825726
 20
35.13097145730127
 10
88.14420473785725
 20
35.05595644450127
 10
88.18377989305725
 20
34.97961864290127
 10
88.22497110745727
 20
34.90192256610127
 10
88.26782923225726
 20
34.82290968130127
 10
88.31239824345727
 20
34.74264069570127
 10
88.35872211705725
 20
34.66117631650126
 10
88.40684483225727
 20
34.57857724770127
  0
LWPOLYLINE
  5
54
330
2
100
AcDbEntity
  8
0
100
AcDbPolyline
 90
        7
 70
     0
 43
0.0
 10
76.46117858425725
 20
40.25544361410126
 10
76.47178175545725
 20
40.06145972290127
 10
76.53030900025726
 20
39.29674048930127
 10
76.61391481465725
 20
38.54615984770127
 10
76.72138888985725
 20
37.81029941410126
 10
76.85145182425725
 20
37.09004752290127
 10
77.00008350905725
 20
36.39800395970127
  0
LWPOLYLINE
  5
55
330
2
100
AcDbEntity
  8
0
100
AcDbPolyline
 90
        5
 70
     0
 43
0.0
 10
77.32262780505725
 20
35.16992902530127
 10
77.42997566745725
 20
34.81587514690128
 10
77.68814551545725
 20
34.04121813090127
 10
77.97443351705727
 20
33.27905681570126
 10
78.28796243865726
 20
32.53112153410127
  0
LWPOLYLINE
  5
56
330
2
100
AcDbEntity
  8
0
100
AcDbPolyline
 90
        5
 70
     0
 43
0.0
 10
78.41778758425725
 20
32.75599828930127
 10
78.34868155705726
 20
32.69982293410127
 10
78.30395950585725
 20
32.64363729090126
 10
78.28368863065725
 20
32.58737684290128
 10
78.28796243865726
 20
32.53112153410127
  0
LWPOLYLINE
  5
57
330
2
100
AcDbEntity
  8
0
100
AcDbPolyline
 90
        4
 70
     0
 43
0.0
 10
77.00008332505726
 20
36.39800475490128
 10
77.10912249305725
 20
35.94922357730126
 10
77.23459873785725
 20
35.47771559650127
 10
77.32262780505725
 20
35.16992902530127
  0
LWPOLYLINE
  5
58
330
2
100
AcDbEntity
  8
0
100
AcDbPolyline
 90
       24
 70
     0
 43
0.0
 10
86.74177910905726
 20
38.90498880610127
 10
86.76493655865725
 20
38.86239945410128
 10
86.78765144825726
 20
38.82029254690127
 10
86.80971793465726
 20
38.77894731490127
 10
86.83093017945726
 20
38.73864298210127
 10
86.85112281785725
 20
38.69960465570128
 10
86.87029240025726
 20
38.66184095010128
 10
86.88847596025727
 20
38.62530635810127
 10
86.90571052665726
 20
38.58995537090128
 10
86.92204261945725
 20
38.55572226690127
 10
86.93755672665725
 20
38.52246047490126
 10
86.95234682745725
 20
38.49000320930128
 10
86.96650689945725
 20
38.45818368130128
 10
86.98456205625726
 20
38.41645577890126
 10
87.00184304025725
 20
38.37513600610127
 10
87.01852866265724
 20
38.33379523810127
 10
87.04273082265727
 20
38.27100887650127
 10
87.06599256025725
 20
38.20697862210127
 10
87.08828060505727
 20
38.14158603170126
 10
87.10944128345726
 20
38.07516342050126
 10
87.12930214425725
 20
38.00816719810127
 10
87.14773602745726
 20
37.94109935010126
 10
87.16466205945726
 20
37.87436123010127
 10
87.18013919545725
 20
37.80790604770126
  0
LWPOLYLINE
  5
59
330
2
100
AcDbEntity
  8
0
100
AcDbPolyline
 90
       12
 70
     0
 43
0.0
 10
86.30208448025726
 20
40.01318636930126
 10
86.35254531545726
 20
39.79027041730127
 10
86.40746365625725
 20
39.59655980130126
 10
86.46675782905726
 20
39.43063596450127
 10
86.53673575705726
 20
39.27290173890126
 10
86.62557810265726
 20
39.10137080930127
 10
86.73015826905725
 20
38.91186817730127
 10
86.84550977625725
 20
38.69683605410127
 10
86.95208665465726
 20
38.47415515330126
 10
87.03605063385726
 20
38.26560666530127
 10
87.10244098265725
 20
38.06219780130126
 10
87.15545362585727
 20
37.85302974690127
  0
LWPOLYLINE
  5
5A
330
2
100
AcDbEntity
  8
0
100
AcDbPolyline
 90
       23
 70
     0
 43
0.0
 10
86.32270951385725
 20
39.99919383650127
 10
86.33823791865726
 20
39.92652761090127
 10
86.35431286745726
 20
39.85536720290127
 10
86.37114234425727
 20
39.78554490690127
 10
86.38437095225725
 20
39.73399924290127
 10
86.39814607225725
 20
39.68330399330126
 10
86.40762249625726
 20
39.65010433090127
 10
86.41726682265725
 20
39.61760412450127
 10
86.42700178745725
 20
39.58603951330127
 10
86.43677538745725
 20
39.55556286850127
 10
86.44663663385726
 20
39.52599149410128
 10
86.45665979545725
 20
39.49705893090127
 10
86.47215131385726
 20
39.45436260770127
 10
86.48836922585726
 20
39.41213057090127
 10
86.50546785145726
 20
39.37007344770127
 10
86.52343885785725
 20
39.32823839810128
 10
86.54224863865726
 20
39.28668022850127
 10
86.56192514745725
 20
39.24514779650127
 10
86.58952205305727
 20
39.18938173410127
 10
86.61847001785725
 20
39.13312285730127
 10
86.64850220185725
 20
39.07641504290127
 10
86.67932744505725
 20
39.01933743010127
 10
86.74177910905726
 20
38.90498880610127
  0
LINE
  5
5B
330
2
100
AcDbEntity
  8
CENTER
 48
4.0
100
AcDbLine
 10
112.4333796306572
 20
37.43978272956804
 30
0.0
 11
112.4333796306572
 21
30.2845975258345
 31
0.0
  0
LWPOLYLINE
  5
5E
330
2
100
AcDbEntity
  8
0
100
AcDbPolyline
 90
       32
 70
     0
 43
0.0
 10
113.3236732018572
 20
30.56946576450127
 10
113.4211806770572
 20
30.56597845570127
 10
113.4726027010572
 20
30.56404031970127
 10
113.5258080386572
 20
30.56196482850127
 10
113.5808002210572
 20
30.55974607810127
 10
113.6375953570572
 20
30.55737732930127
 10
113.6962126978572
 20
30.55485163970127
 10
113.7566718690572
 20
30.55216190370127
 10
113.8189939954572
 20
30.54930039490126
 10
113.8832005682572
 20
30.54625923170127
 10
113.9493211634572
 20
30.54302987810128
 10
114.0174176562572
 20
30.53960119970126
 10
114.0875600018572
 20
30.53596140930128
 10
114.1598179346572
 20
30.53209830850127
 10
114.2342603218572
 20
30.52799803650127
 10
114.3109558034572
 20
30.52364632450127
 10
114.3699979714572
 20
30.52020868610127
 10
114.4303790834572
 20
30.51661400610127
 10
114.4921321042572
 20
30.51285470850126
 10
114.5552899970572
 20
30.50892321410127
 10
114.6198844946572
 20
30.50481175490126
 10
114.6859423922572
 20
30.50051178690127
 10
114.7534892546572
 20
30.49601457570126
 10
114.8225506466572
 20
30.49131138530127
 10
114.8931547666572
 20
30.48639286530127
 10
114.9653403538572
 20
30.48124721570127
 10
115.0391487842572
 20
30.47586201890126
 10
115.1146214306572
 20
30.47022486050127
 10
115.1917902610572
 20
30.46432351970127
 10
115.2706496162572
 20
30.45814655650127
 10
115.3511844290572
 20
30.45168272290126
 10
115.4333796306572
 20
30.44492077250128
  0
LWPOLYLINE
  5
5F
330
2
100
AcDbEntity
  8
0
100
AcDbPolyline
 90
       24
 70
     0
 43
0.0
 10
116.7317214642572
 20
30.41182879330126
 10
116.6400037682572
 20
30.42250217090126
 10
116.5382157970572
 20
30.43395772930127
 10
116.4251688898572
 20
30.44623072930127
 10
116.2996963858572
 20
30.45933447810126
 10
116.1605733970572
 20
30.47326823810127
 10
116.0047140194572
 20
30.48818385410126
 10
115.8265204722572
 20
30.50440248770127
 10
115.6256688658572
 20
30.52169677090127
 10
115.4111284562572
 20
30.53910458050127
 10
115.1889085970572
 20
30.55606605250128
 10
114.9561289842572
 20
30.57273833410127
 10
114.7014220210572
 20
30.58974622530127
 10
114.4242332674572
 20
30.60680399490127
 10
114.1363732818572
 20
30.62286894530128
 10
113.8750604210572
 20
30.63591961090127
 10
113.6461227122572
 20
30.64609463650127
 10
113.4385639106572
 20
30.65425660450127
 10
113.2444519794572
 20
30.66091944770127
 10
113.0619697010572
 20
30.66625584450128
 10
112.8900070386572
 20
30.67036879170128
 10
112.7264740386572
 20
30.67333397570127
 10
112.5730759778572
 20
30.67511857570127
 10
112.4333796306572
 20
30.67570571010127
  0
LWPOLYLINE
  5
60
330
2
100
AcDbEntity
  8
0
100
AcDbPolyline
 90
       20
 70
     0
 43
0.0
 10
113.6208796306572
 20
25.65388161890126
 10
113.6166315122572
 20
25.66219078690127
 10
113.6035534210572
 20
25.67062640930128
 10
113.5815355634572
 20
25.67905499650128
 10
113.5509637250572
 20
25.68736030050127
 10
113.5118870994572
 20
25.69558187330128
 10
113.4655269138572
 20
25.70352615650127
 10
113.4144397186572
 20
25.71089508290127
 10
113.3599950882572
 20
25.71764915170126
 10
113.3033402050572
 20
25.72377404770127
 10
113.2427250786572
 20
25.72951576450127
 10
113.1757426786572
 20
25.73505506370127
 10
113.1018695026572
 20
25.74033416130127
 10
113.0207696946572
 20
25.74526471330127
 10
112.9322096226572
 20
25.74974046850127
 10
112.8377672098572
 20
25.75357844130127
 10
112.7393082706572
 20
25.75664169730127
 10
112.6385160898572
 20
25.75885331330127
 10
112.5362710130572
 20
25.76018783810127
 10
112.4333796306572
 20
25.76063351650127
  0
LWPOLYLINE
  5
61
330
2
100
AcDbEntity
  8
0
100
AcDbPolyline
 90
       13
 70
     0
 43
0.0
 10
113.3683155298572
 20
25.59211546050127
 10
113.3578288594572
 20
25.59341284130127
 10
113.3006895794572
 20
25.59957763490126
 10
113.2400467458572
 20
25.60530680610126
 10
113.1741563378572
 20
25.61074467330127
 10
113.1015386898572
 20
25.61593332290127
 10
113.0211893618572
 20
25.62082575330127
 10
112.9331278690572
 20
25.62528805890127
 10
112.8387144386572
 20
25.62913744290126
 10
112.7403352466572
 20
25.63220972930126
 10
112.6393784722572
 20
25.63443493410128
 10
112.5367338306572
 20
25.63578129410128
 10
112.4333796306572
 20
25.63623124450127
  0
LWPOLYLINE
  5
62
330
2
100
AcDbEntity
  8
0
100
AcDbPolyline
 90
       21
 70
     0
 43
0.0
 10
112.4333796306572
 20
25.55215561410126
 10
112.5336006146572
 20
25.55253112610127
 10
112.6332792402572
 20
25.55365685570127
 10
112.7318202802572
 20
25.55552979330127
 10
112.8281907714572
 20
25.55813106690127
 10
112.9202689874572
 20
25.56138152450127
 10
113.0068906530572
 20
25.56518996770127
 10
113.0872974914572
 20
25.56945685730127
 10
113.1608431266572
 20
25.57406720130127
 10
113.2278701266572
 20
25.57895825570126
 10
113.2890605634572
 20
25.58410991170127
 10
113.3451154338572
 20
25.58953380130127
 10
113.3964083058572
 20
25.59524156610128
 10
113.4431777234572
 20
25.60125744770127
 10
113.4855896258572
 20
25.60763075170128
 10
113.5234781634572
 20
25.61440379330127
 10
113.5565042738572
 20
25.62163779010127
 10
113.5837433250572
 20
25.62931193250126
 10
113.6040576770572
 20
25.63731541730126
 10
113.6166033746572
 20
25.64552559490127
 10
113.6208796306572
 20
25.65388161890126
  0
LWPOLYLINE
  5
63
330
2
100
AcDbEntity
  8
0
100
AcDbPolyline
 90
       42
 70
     0
 43
0.0
 10
119.2915900434572
 20
28.87102192930127
 10
119.1436687762572
 20
28.90274741890127
 10
118.9988648194572
 20
28.93310387490128
 10
118.8572893442572
 20
28.96211776130127
 10
118.7190535298572
 20
28.98981553730127
 10
118.5842022578572
 20
29.01623477570128
 10
118.4525152514572
 20
29.04145746370128
 10
118.3237059394572
 20
29.06557670370126
 10
118.1974877522572
 20
29.08868558850127
 10
118.0327723154572
 20
29.11807159970127
 10
117.8717154706572
 20
29.14595710050127
 10
117.7138788226572
 20
29.17247225570126
 10
117.5588084754572
 20
29.19774470530127
 10
117.4059885362572
 20
29.22189199170126
 10
117.2548876114572
 20
29.24502912930127
 10
117.0303670690572
 20
29.27806581570127
 10
116.8071459378572
 20
29.30931710050127
 10
116.5838339522572
 20
29.33900023650128
 10
116.3589707250572
 20
29.36728686370127
 10
116.1314948018572
 20
29.39428030690126
 10
115.9020105970572
 20
29.41985619970127
 10
115.7486281730572
 20
29.43601657730127
 10
115.5964211106572
 20
29.45133366690127
 10
115.4470036162572
 20
29.46567477250127
 10
115.3017495250572
 20
29.47893857410127
 10
115.1610711922572
 20
29.49114922850127
 10
115.0251405938572
 20
29.50236226530127
 10
114.8939585794572
 20
29.51264185570127
 10
114.7668414706572
 20
29.52208673570128
 10
114.6429344594572
 20
29.53080428450127
 10
114.4613616562572
 20
29.54272202370127
 10
114.2830353650572
 20
29.55342890210127
 10
114.1058098530572
 20
29.56309612930127
 10
113.9271679698572
 20
29.57184362690126
 10
113.7450494354572
 20
29.57974512930127
 10
113.5595928594572
 20
29.58674090050127
 10
113.3715634466572
 20
29.59274329730126
 10
113.1820338866572
 20
29.59768653410127
 10
112.9922194914572
 20
29.60152000450126
 10
112.8035985522572
 20
29.60423200130127
 10
112.6173734114572
 20
29.60582889730128
 10
112.4333796306572
 20
29.60635049410127
  0
LWPOLYLINE
  5
64
330
2
100
AcDbEntity
  8
0
100
AcDbPolyline
 90
       17
 70
     0
 43
0.0
 10
118.8574067666572
 20
28.63629626530126
 10
118.0586718130572
 20
28.74302166530127
 10
117.2561991506572
 20
28.83587089090127
 10
116.4531967954572
 20
28.91441268770127
 10
115.6497591890572
 20
28.97865808610127
 10
114.8459817298572
 20
29.02861635490127
 10
114.0419581314572
 20
29.06429521730128
 10
113.2377738770572
 20
29.08570084610127
 10
112.4335093346572
 20
29.09283715490127
 10
111.6292447410572
 20
29.08570544770127
 10
110.8250603762572
 20
29.06430441890127
 10
110.0210366626572
 20
29.02863015650128
 10
109.2172591058572
 20
28.97867649090128
 10
108.4138213826572
 20
28.91443570050127
 10
107.6108188466572
 20
28.83589851010127
 10
106.8083459042572
 20
28.74305388770128
 10
106.0093524946572
 20
28.63629626530126
  0
LINE
  5
65
330
2
100
AcDbEntity
  8
0
100
AcDbLine
 10
105.6754459170572
 20
26.36219012770126
 30
0.0
 11
119.1913603458572
 21
26.36219012770126
 31
0.0
  0
LWPOLYLINE
  5
66
330
2
100
AcDbEntity
  8
0
100
AcDbPolyline
 90
       18
 70
     0
 43
0.0
 10
107.1635276226572
 20
27.30983755810127
 10
107.7772044818572
 20
27.42105387650127
 10
108.3951529394572
 20
27.51887280610127
 10
109.0143463842572
 20
27.60273725410127
 10
109.6345919170572
 20
27.67263783810126
 10
110.2556936706572
 20
27.72856647170127
 10
110.8774570370572
 20
27.77051701250127
 10
111.4996900466572
 20
27.79848521890127
 10
112.1222046594572
 20
27.81246851330127
 10
112.7448131170572
 20
27.81246560930127
 10
113.3673276834572
 20
27.79847650690126
 10
113.9895606194572
 20
27.77050248930128
 10
114.6113239010572
 20
27.72854612930128
 10
115.2324255282572
 20
27.67261166690127
 10
115.8526708322572
 20
27.60270525250126
 10
116.4718638770572
 20
27.51883498370126
 10
117.0898117186572
 20
27.42101025410127
 10
117.7032316370572
 20
27.30983755810127
  0
LWPOLYLINE
  5
67
330
2
100
AcDbEntity
  8
0
100
AcDbPolyline
 90
       21
 70
     0
 43
0.0
 10
105.5453700930572
 20
28.55370782050127
 10
105.2973465778572
 20
28.49557853570127
 10
105.0485376898572
 20
28.42682937090127
 10
104.8025407746572
 20
28.34825297570127
 10
104.5597991330572
 20
28.25999006370127
 10
104.3207571106572
 20
28.16220459010127
 10
104.0858489794572
 20
28.05508006370127
 10
103.8554997906572
 20
27.93881932930126
 10
103.6301260130572
 20
27.81364464450126
 10
103.4101350738572
 20
27.67979747330127
 10
103.1959231474572
 20
27.53753716610127
 10
102.9878746402572
 20
27.38714042530126
 10
102.7863619042572
 20
27.22890101570127
 10
102.5917438722572
 20
27.06312868130128
 10
102.4043653410572
 20
26.89014843650127
 10
102.2245565970572
 20
26.71030015970127
 10
102.0526323826572
 20
26.52393765250127
 10
101.8888911890572
 20
26.33142788770126
 10
101.7336144626572
 20
26.13315017890127
 10
101.5870651394572
 20
25.92949429570127
 10
101.4819140322572
 20
25.77173462370128
  0
LWPOLYLINE
  5
68
330
2
100
AcDbEntity
  8
0
100
AcDbPolyline
 90
        4
 70
     0
 43
0.0
 10
104.6157805922572
 20
25.68932795810127
 10
103.7270462882572
 20
25.69949528770127
 10
102.8395143586572
 20
25.71075779970127
 10
101.9533170850572
 20
25.72311449410126
  0
LWPOLYLINE
  5
69
330
2
100
AcDbEntity
  8
0
100
AcDbPolyline
 90
       21
 70
     0
 43
0.0
 10
101.4819119170572
 20
25.77173463330128
 10
101.4810059410572
 20
25.76860398690127
 10
101.4827394178572
 20
25.76502882370127
 10
101.4873679554572
 20
25.76155703170127
 10
101.4947832930572
 20
25.75819112130126
 10
101.5048795666572
 20
25.75493889410127
 10
101.5175644770572
 20
25.75180521890127
 10
101.5327840050572
 20
25.74878983170127
 10
101.5504573970572
 20
25.74590123010127
 10
101.5705653298572
 20
25.74313942530126
 10
101.5930838242572
 20
25.74050895010127
 10
101.6179711090572
 20
25.73801785410127
 10
101.6452879442572
 20
25.73566619650127
 10
101.6749977522572
 20
25.73346547490126
 10
101.7071398146572
 20
25.73142226690127
 10
101.7417790434572
 20
25.72954436610126
 10
101.7788938626572
 20
25.72784607170127
 10
101.8186081634572
 20
25.72633662850127
 10
101.8608792786572
 20
25.72503410530127
 10
101.9057828594572
 20
25.72395365570126
 10
101.9533170850572
 20
25.72311449410126
  0
LINE
  5
6A
330
2
100
AcDbEntity
  8
0
100
AcDbLine
 10
101.2883796306572
 20
26.36219012770126
 30
0.0
 11
101.9149483250572
 21
26.36219012770126
 31
0.0
  0
LWPOLYLINE
  5
6B
330
2
100
AcDbEntity
  8
0
100
AcDbPolyline
 90
        3
 70
     0
 43
0.0
 10
105.3793948098572
 20
25.75886407170127
 10
105.3727716594572
 20
25.75408701730127
 10
105.3664169410572
 20
25.74928273410127
  0
LWPOLYLINE
  5
6C
330
2
100
AcDbEntity
  8
0
100
AcDbPolyline
 90
        3
 70
     0
 43
0.0
 10
105.3793948098572
 20
25.75886407170127
 10
105.3824153826572
 20
25.76196133410127
 10
105.3827421538572
 20
25.76275060130127
  0
LWPOLYLINE
  5
6D
330
2
100
AcDbEntity
  8
0
100
AcDbPolyline
 90
       23
 70
     0
 43
0.0
 10
104.6157805922572
 20
25.68932795810127
 10
104.6585913490572
 20
25.68900996130127
 10
104.7014434770572
 20
25.68897828290127
 10
104.7443143634572
 20
25.68923058850127
 10
104.7872128274572
 20
25.68976824450126
 10
104.8301397842572
 20
25.69059646690126
 10
104.8731189794572
 20
25.69172524290127
 10
104.9159418354572
 20
25.69316120450126
 10
104.9583714882572
 20
25.69490871650127
 10
105.0003275922572
 20
25.69697883330127
 10
105.0416812866572
 20
25.69938374850127
 10
105.0820299698572
 20
25.70211953730127
 10
105.1209762834572
 20
25.70517616770127
 10
105.1583473202572
 20
25.70855808770128
 10
105.1938030130572
 20
25.71225545090126
 10
105.2269154386572
 20
25.71624312610127
 10
105.2573490930572
 20
25.72049834370126
 10
105.2848153938572
 20
25.72499987170127
 10
105.3088788178572
 20
25.72969190690126
 10
105.3292102754572
 20
25.73451370530126
 10
105.3456691394572
 20
25.73942806210126
 10
105.3580949746572
 20
25.74437467650126
 10
105.3664169410572
 20
25.74928273410127
  0
LWPOLYLINE
  5
6E
330
2
100
AcDbEntity
  8
0
100
AcDbPolyline
 90
       22
 70
     0
 43
0.0
 10
105.3827428930572
 20
25.76275059970127
 10
105.4117720722572
 20
25.85189156610127
 10
105.4528179970572
 20
25.95889583970127
 10
105.5000064754572
 20
26.06393603330127
 10
105.5531954578572
 20
26.16670884130127
 10
105.6122280226572
 20
26.26691691650127
 10
105.6769327298572
 20
26.36426943170127
 10
105.7471232354572
 20
26.45848173250127
 10
105.8225981250572
 20
26.54927584290126
 10
105.9031394306572
 20
26.63637981250127
 10
105.9885142498572
 20
26.71953087010126
 10
106.0784758274572
 20
26.79847705890127
 10
106.1727617714572
 20
26.87297631970126
 10
106.2710942530572
 20
26.94279793250128
 10
106.3731830498572
 20
27.00772561570127
 10
106.4787267938572
 20
27.06755850850127
 10
106.5874140994572
 20
27.12211189890126
 10
106.6989242290572
 20
27.17121761410126
 10
106.8129280802572
 20
27.21472461090127
 10
106.9290890258572
 20
27.25249941250128
 10
107.0470637538572
 20
27.28442656450127
 10
107.1635276258572
 20
27.30983754370127
  0
LWPOLYLINE
  5
6F
330
2
100
AcDbEntity
  8
0
100
AcDbPolyline
 90
       20
 70
     0
 43
0.0
 10
111.2458796306572
 20
25.65388161890126
 10
111.2506211522572
 20
25.64508267170127
 10
111.2644953522572
 20
25.63645668290126
 10
111.2868944866572
 20
25.62807157250126
 10
111.3167889346572
 20
25.62007037090127
 10
111.3528455010572
 20
25.61257072130127
 10
111.3941635778572
 20
25.60556510530126
 10
111.4404364290572
 20
25.59898465570127
 10
111.4915544850572
 20
25.59278347330126
 10
111.5478102194572
 20
25.58690812770127
 10
111.6094591458572
 20
25.58134600290127
 10
111.6771829778572
 20
25.57607656290127
 10
111.7517561122572
 20
25.57110859010127
 10
111.8339188066572
 20
25.56648550530127
 10
111.9232210098572
 20
25.56232976130127
 10
112.0187517122572
 20
25.55876524450127
 10
112.1194651666572
 20
25.55589491010127
 10
112.2230036018572
 20
25.55381952770128
 10
112.3278736002572
 20
25.55257184770127
 10
112.4333796306572
 20
25.55215561410126
  0
LWPOLYLINE
  5
70
330
2
100
AcDbEntity
  8
0
100
AcDbPolyline
 90
       20
 70
     0
 43
0.0
 10
112.4333796306572
 20
25.76063351650127
 10
112.3309029394572
 20
25.76019143010127
 10
112.2291084738572
 20
25.75886839810127
 10
112.1289798914572
 20
25.75668208930128
 10
112.0309784866572
 20
25.75364945090127
 10
111.9361118738572
 20
25.74981154370127
 10
111.8462820434572
 20
25.74528099490128
 10
111.7638428418572
 20
25.74026485090127
 10
111.6888776546572
 20
25.73488987010127
 10
111.6212480770572
 20
25.72926802530126
 10
111.5605702578572
 20
25.72348486530127
 10
111.5040910146572
 20
25.71733919330127
 10
111.4499167090572
 20
25.71057349090127
 10
111.3991888050572
 20
25.70320513250127
 10
111.3532540242572
 20
25.69527509410127
 10
111.3146645698572
 20
25.68709094530127
 10
111.2844495122572
 20
25.67880784130128
 10
111.2627378866572
 20
25.67039975810127
 10
111.2499634978572
 20
25.66202887010126
 10
111.2458796306572
 20
25.65388161890126
  0
LWPOLYLINE
  5
71
330
2
100
AcDbEntity
  8
0
100
AcDbPolyline
 90
       13
 70
     0
 43
0.0
 10
112.4333796306572
 20
25.63623125090127
 10
112.3299626082572
 20
25.63578075010127
 10
112.2273408370572
 20
25.63443426210126
 10
112.1264314354572
 20
25.63220994690126
 10
112.0280648898572
 20
25.62913820610127
 10
111.9335897074572
 20
25.62528616770127
 10
111.8454026802572
 20
25.62081648450127
 10
111.7649404658572
 20
25.61591482530127
 10
111.6922709410572
 20
25.61071915650127
 10
111.6264069842572
 20
25.60527969250127
 10
111.5658347298572
 20
25.59955395010126
 10
111.5087790530572
 20
25.59339552290127
 10
111.4982136962572
 20
25.59208798530127
  0
LINE
  5
72
330
2
100
AcDbEntity
  8
0
100
AcDbLine
 10
107.2150917826572
 20
30.13440651970127
 30
0.0
 11
107.1367402482572
 21
30.11798925570127
 31
0.0
  0
LWPOLYLINE
  5
73
330
2
100
AcDbEntity
  8
0
100
AcDbPolyline
 90
       58
 70
     0
 43
0.0
 10
108.1351544386572
 20
30.41194014370127
 10
108.0974301730572
 20
30.40795980290127
 10
108.0596141298572
 20
30.40491693890126
 10
108.0217317730572
 20
30.40281364930128
 10
107.9837969602572
 20
30.40165098690127
 10
107.9458724562572
 20
30.40143001730126
 10
107.9082240626572
 20
30.40214093250126
 10
107.8711230450572
 20
30.40374920130126
 10
107.8346191570572
 20
30.40621341890127
 10
107.7986854642572
 20
30.40949722050128
 10
107.7633067298572
 20
30.41356703330127
 10
107.7284731026572
 20
30.41839142210126
 10
107.6941658946572
 20
30.42394276770127
 10
107.6603625042572
 20
30.43019718210127
 10
107.6270472882572
 20
30.43713242850127
 10
107.5942044706572
 20
30.44472875330127
 10
107.5618184626572
 20
30.45296871330127
 10
107.5298741874572
 20
30.46183700290127
 10
107.4983569506572
 20
30.47132038050127
 10
107.4672527938572
 20
30.48140747170127
 10
107.4365477666572
 20
30.49208891810127
 10
107.4062304226572
 20
30.50335641570127
 10
107.3762843218572
 20
30.51520546370127
 10
107.3467102786572
 20
30.52762638530127
 10
107.3174600226572
 20
30.54063253730127
 10
107.2884509810572
 20
30.55425938690127
 10
107.2596991906572
 20
30.56850159330128
 10
107.2312282578572
 20
30.58334917570127
 10
107.2030304610572
 20
30.59880830370127
 10
107.1751089986572
 20
30.61488067490127
 10
107.1474655490572
 20
30.63156976770128
 10
107.1201039250572
 20
30.64887877570127
 10
107.0930294306572
 20
30.66681081730127
 10
107.0662473234572
 20
30.68536988930127
 10
107.0397693490572
 20
30.70455612130126
 10
107.0136081666572
 20
30.72436912930126
 10
106.9877675986572
 20
30.74481577410127
 10
106.9622557570572
 20
30.76590072450128
 10
106.9370852386572
 20
30.78762564930127
 10
106.9122682114572
 20
30.80999302050126
 10
106.8878181186572
 20
30.83300464930127
 10
106.8637490178572
 20
30.85666219970127
 10
106.8400756034572
 20
30.88096713090127
 10
106.8168135266572
 20
30.90592032610127
 10
106.7939776370572
 20
30.93152398850127
 10
106.7715901986572
 20
30.95777213090127
 10
106.7496729538572
 20
30.98465863810126
 10
106.7282352834572
 20
31.01219294690126
 10
106.7072907570572
 20
31.04038111970126
 10
106.6868586258572
 20
31.06922277250127
 10
106.6669564802572
 20
31.09872059490126
 10
106.6476054914572
 20
31.12887282050127
 10
106.6288218114572
 20
31.15968658370127
 10
106.6106382818572
 20
31.19114190210128
 10
106.5930498930572
 20
31.22328641250126
 10
106.5761308786572
 20
31.25602265090127
 10
106.5598964898572
 20
31.28935489730126
 10
106.5441863890572
 20
31.32369026370126
  0
LWPOLYLINE
  5
74
330
2
100
AcDbEntity
  8
0
100
AcDbPolyline
 90
       31
 70
     0
 43
0.0
 10
107.1278001250572
 20
30.11046624930127
 10
107.1961034818572
 20
30.12496411010127
 10
107.2652901426572
 20
30.13936519810127
 10
107.3353380978572
 20
30.15365044290126
 10
107.4062200226572
 20
30.16780010050126
 10
107.4778873154572
 20
30.18179176450127
 10
107.5502860546572
 20
30.19560235970127
 10
107.6233719618572
 20
30.20921098690127
 10
107.6971393122572
 20
30.22260543010126
 10
107.7715920210572
 20
30.23577565250127
 10
107.8467245538572
 20
30.24871008930126
 10
107.9224935778572
 20
30.26139109570127
 10
107.9988463074572
 20
30.27379950690127
 10
108.0757346994572
 20
30.28591831330126
 10
108.1531296914572
 20
30.29773914850128
 10
108.2310069570572
 20
30.30925580290127
 10
108.3093420066572
 20
30.32046344930127
 10
108.3881096786572
 20
30.33136278370126
 10
108.4672846418572
 20
30.34195588130127
 10
108.5468343266572
 20
30.35224377090127
 10
108.6266971938572
 20
30.36222328610127
 10
108.7068044642572
 20
30.37189021410127
 10
108.7870986274572
 20
30.38124175170127
 10
108.8675672370572
 20
30.39028075170127
 10
108.9482091218572
 20
30.39901147490127
 10
109.0290116610572
 20
30.40743695970127
 10
109.1099164738572
 20
30.41555532770127
 10
109.1908537362572
 20
30.42336347330127
 10
109.2717616834572
 20
30.43085922850127
 10
109.3526108002572
 20
30.43804415970127
 10
109.4333796306572
 20
30.44492077250128
  0
LWPOLYLINE
  5
75
330
2
100
AcDbEntity
  8
0
100
AcDbPolyline
 90
       17
 70
     0
 43
0.0
 10
108.0952338306572
 20
30.37655631010128
 10
107.9715497922572
 20
30.36711332610127
 10
107.8474222258572
 20
30.36765027170128
 10
107.7236446290572
 20
30.37816370850127
 10
107.6010082642572
 20
30.39858643010127
 10
107.4802971026572
 20
30.42878787970127
 10
107.3622828066572
 20
30.46857499170127
 10
107.2477197986572
 20
30.51769342210127
 10
107.1373404386572
 20
30.57582917410127
 10
107.0318503394572
 20
30.64261060770127
 10
106.9319238642572
 20
30.71761081250127
 10
106.8381998034572
 20
30.80035034050126
 10
106.7512773026572
 20
30.89030026690128
 10
106.6717120242572
 20
30.98688557570127
 10
106.6000126018572
 20
31.08948883170127
 10
106.5366373842572
 20
31.19745412450127
 10
106.4819914962572
 20
31.31009129410127
  0
LWPOLYLINE
  5
76
330
2
100
AcDbEntity
  8
0
100
AcDbPolyline
 90
       43
 70
     0
 43
0.0
 10
112.4333796306572
 20
29.60635049410127
 10
112.2492171378572
 20
29.60582792450127
 10
112.0628456850572
 20
29.60422839330126
 10
111.8741019698572
 20
29.60151247010127
 10
111.6841804722572
 20
29.59767391490128
 10
111.4945515330572
 20
29.59272455650126
 10
111.3064311586572
 20
29.58671527970127
 10
111.1208879410572
 20
29.57971183330127
 10
110.9386551410572
 20
29.57180034050127
 10
110.7598341266572
 20
29.56303841730127
 10
110.5823340130572
 20
29.55334927330127
 10
110.4634597122572
 20
29.54631642210127
 10
110.3433884530572
 20
29.53876701570127
 10
110.2215090706572
 20
29.53064566370128
 10
110.0971680034572
 20
29.52188794690127
 10
109.9695420690572
 20
29.51239335650127
 10
109.8377656834572
 20
29.50205235170126
 10
109.7011525378572
 20
29.49076479810127
 10
109.5597334210572
 20
29.47846816770126
 10
109.4137183970572
 20
29.46510933410127
 10
109.2635508898572
 20
29.45066617890127
 10
109.1106077794572
 20
29.43524059490127
 10
108.9564993058572
 20
29.41896548770127
 10
108.7259368690572
 20
29.39320588930127
 10
108.4973875602572
 20
29.36601362690128
 10
108.2714940098572
 20
29.33751855650126
 10
108.0474207442572
 20
29.30765100930127
 10
107.8239312770572
 20
29.27627472290128
 10
107.5996631698572
 20
29.24318661730127
 10
107.4490054098572
 20
29.22005963490127
 10
107.2968205490572
 20
29.19595683490126
 10
107.1425470706572
 20
29.17076088930127
 10
106.9856405010572
 20
29.14435203970127
 10
106.8256245458572
 20
29.11660080450127
 10
106.6620399586572
 20
29.08737527170127
 10
106.5367154626572
 20
29.06440261890127
 10
106.4088243090572
 20
29.04043097090127
 10
106.2780655250572
 20
29.01536482210127
 10
106.1441381378572
 20
28.98910867010127
 10
106.0068106450572
 20
28.96157870050128
 10
105.8661294258572
 20
28.93273784130127
 10
105.7222103330572
 20
28.90256071170126
 10
105.5751692178572
 20
28.87102192930127
  0
LINE
  5
77
330
2
100
AcDbEntity
  8
0
100
AcDbLine
 10
105.5300565026572
 20
29.77290750530127
 30
0.0
 11
105.6583806514572
 21
29.79941369730127
 31
0.0
  0
LWPOLYLINE
  5
78
330
2
100
AcDbEntity
  8
0
100
AcDbPolyline
 90
       13
 70
     0
 43
0.0
 10
102.9454589506572
 20
29.30147238210127
 10
102.8791244866572
 20
29.29443745730127
 10
102.8354996050572
 20
29.28989790690127
 10
102.7851797778572
 20
29.28474232450126
 10
102.7285851474572
 20
29.27904345090126
 10
102.6660282706572
 20
29.27286343330127
 10
102.5978222306572
 20
29.26626472290127
 10
102.5244187970572
 20
29.25932260610128
 10
102.4462157298572
 20
29.25210567170127
 10
102.3634009970572
 20
29.24466220130126
 10
102.2761951074572
 20
29.23704336290127
 10
102.1848776226572
 20
29.22930486530127
 10
102.0897927586572
 20
29.22150646050127
  0
LINE
  5
79
330
2
100
AcDbEntity
  8
0
100
AcDbLine
 10
102.9964789362572
 20
29.30700853410127
 30
0.0
 11
102.9454589506572
 21
29.30147238210127
 31
0.0
  0
LWPOLYLINE
  5
7A
330
2
100
AcDbEntity
  8
0
100
AcDbPolyline
 90
        9
 70
     0
 43
0.0
 10
104.9419966258572
 20
29.65509929090127
 10
105.0078545314572
 20
29.66791004610127
 10
105.0736190834572
 20
29.68081487650127
 10
105.1392821426572
 20
29.69380468770127
 10
105.2048355746572
 20
29.70687039170127
 10
105.2702662674572
 20
29.72000199330127
 10
105.3355412098572
 20
29.73318589250126
 10
105.4006224162572
 20
29.74640758530127
 10
105.5300565026572
 20
29.77290750530127
  0
LWPOLYLINE
  5
7B
330
2
100
AcDbEntity
  8
0
100
AcDbPolyline
 90
        4
 70
     0
 43
0.0
 10
106.0093524930572
 20
28.63629626530126
 10
105.8553046930572
 20
28.61253287970127
 10
105.6985923010572
 20
28.58464187810126
 10
105.5453700930572
 20
28.55370782370127
  0
LINE
  5
7C
330
2
100
AcDbEntity
  8
0
100
AcDbLine
 10
106.9746506162572
 20
30.08454915970126
 30
0.0
 11
106.8911163954572
 21
30.06752999650128
 31
0.0
  0
LINE
  5
7D
330
2
100
AcDbEntity
  8
0
100
AcDbLine
 10
106.9098418962572
 20
30.06387792450126
 30
0.0
 11
107.1278001250572
 21
30.11046624930127
 31
0.0
  0
LINE
  5
7E
330
2
100
AcDbEntity
  8
0
100
AcDbLine
 10
106.7194198194572
 20
30.03288873250127
 30
0.0
 11
106.5867533298572
 21
30.00636877730127
 31
0.0
  0
LINE
  5
7F
330
2
100
AcDbEntity
  8
0
100
AcDbLine
 10
106.8060226770572
 20
30.05031064930126
 30
0.0
 11
106.7194198194572
 21
30.03288873250127
 31
0.0
  0
LINE
  5
80
330
2
100
AcDbEntity
  8
0
100
AcDbLine
 10
106.8911163954572
 20
30.06752999650128
 30
0.0
 11
106.8060226770572
 21
30.05031064930126
 31
0.0
  0
LINE
  5
81
330
2
100
AcDbEntity
  8
0
100
AcDbLine
 10
107.0565555106572
 20
30.10136916450127
 30
0.0
 11
106.9746506162572
 21
30.08454915970126
 31
0.0
  0
LINE
  5
82
330
2
100
AcDbEntity
  8
0
100
AcDbLine
 10
107.1367402482572
 20
30.11798925570127
 30
0.0
 11
107.0565555106572
 21
30.10136916450127
 31
0.0
  0
LINE
  5
83
330
2
100
AcDbEntity
  8
0
100
AcDbLine
 10
106.3115810642572
 20
29.95189555490127
 30
0.0
 11
106.2169335330572
 21
29.93331160610127
 31
0.0
  0
LINE
  5
84
330
2
100
AcDbEntity
  8
0
100
AcDbLine
 10
106.4508098034572
 20
29.97937379490128
 30
0.0
 11
106.3115810642572
 21
29.95189555490127
 31
0.0
  0
LINE
  5
85
330
2
100
AcDbEntity
  8
0
100
AcDbLine
 10
105.6583806514572
 20
29.79941369730127
 30
0.0
 11
105.7855127794572
 21
29.82586402690127
 31
0.0
  0
LINE
  5
86
330
2
100
AcDbEntity
  8
0
100
AcDbLine
 10
105.7855127794572
 20
29.82586402690127
 30
0.0
 11
105.9112514514572
 21
29.85217728930127
 31
0.0
  0
LINE
  5
87
330
2
100
AcDbEntity
  8
0
100
AcDbLine
 10
105.9112514514572
 20
29.85217728930127
 30
0.0
 11
106.0966000034572
 21
29.89118336130127
 31
0.0
  0
LINE
  5
88
330
2
100
AcDbEntity
  8
0
100
AcDbLine
 10
106.0966000034572
 20
29.89118336130127
 30
0.0
 11
106.4552148834572
 21
29.96713149090126
 31
0.0
  0
LWPOLYLINE
  5
89
330
2
100
AcDbEntity
  8
0
100
AcDbPolyline
 90
       20
 70
     0
 43
0.0
 10
106.2169335330572
 20
29.93331160610127
 10
106.2084338450572
 20
29.94491408290127
 10
106.1983341458572
 20
29.96651999010127
 10
106.1866984674572
 20
29.99799370210126
 10
106.1735999122572
 20
30.03913748450127
 10
106.1591207730572
 20
30.08969284610127
 10
106.1433520114572
 20
30.14934217250127
 10
106.1263926914572
 20
30.21771070690127
 10
106.1083493586572
 20
30.29436891970127
 10
106.0893353666572
 20
30.37883519970127
 10
106.0694701746572
 20
30.47057887810128
 10
106.0488785858572
 20
30.56902356770128
 10
106.0276899634572
 20
30.67355078210127
 10
106.0060374258572
 20
30.78350381890126
 10
105.9840570050572
 20
30.89819188770127
 10
105.9618867922572
 20
31.01689445250127
 10
105.9396660706572
 20
31.13886575330127
 10
105.9175344434572
 20
31.26333949250127
 10
105.8956309506572
 20
31.38953365570127
 10
105.8740932066572
 20
31.51665540290128
  0
LINE
  5
8A
330
2
100
AcDbEntity
  8
0
100
AcDbLine
 10
106.5867533298572
 20
30.00636877730127
 30
0.0
 11
106.4508098034572
 21
29.97937379490128
 31
0.0
  0
LINE
  5
8B
330
2
100
AcDbEntity
  8
0
100
AcDbLine
 10
106.4552148834572
 20
29.96713149090126
 30
0.0
 11
106.9098418962572
 21
30.06387792450126
 31
0.0
  0
LWPOLYLINE
  5
8C
330
2
100
AcDbEntity
  8
0
100
AcDbPolyline
 90
       30
 70
     0
 43
0.0
 10
109.4333796306572
 20
30.44492077250128
 10
109.5154217858572
 20
30.45167028610127
 10
109.5958142210572
 20
30.45812313250127
 10
109.6745420930572
 20
30.46429048130127
 10
109.7515905634572
 20
30.47018350210128
 10
109.8269540514572
 20
30.47581355810128
 10
109.9006640178572
 20
30.48119276450127
 10
109.9727611858572
 20
30.48633342530127
 10
110.0432862802572
 20
30.49124784930127
 10
110.1122774194572
 20
30.49594773570127
 10
110.1797623106572
 20
30.50044235490126
 10
110.2457660594572
 20
30.50474037890127
 10
110.3103137698572
 20
30.50885047170128
 10
110.3734317650572
 20
30.51278111170127
 10
110.4351512402572
 20
30.51654000770126
 10
110.4955046114572
 20
30.52013468290127
 10
110.5545242898572
 20
30.52357265410127
 10
110.6311970610572
 20
30.52792524770127
 10
110.7056240946572
 20
30.53202681410127
 10
110.7778730402572
 20
30.53589154210126
 10
110.8480116818572
 20
30.53953320450126
 10
110.9161083682572
 20
30.54296391810128
 10
110.9822315890572
 20
30.54619538370127
 10
111.0464418418572
 20
30.54923866050127
 10
111.1087676706572
 20
30.55210223810127
 10
111.1692296306572
 20
30.55479396290127
 10
111.2278480578572
 20
30.55732153410128
 10
111.2846424162572
 20
30.55969205250127
 10
111.3396319554572
 20
30.56191246850127
 10
111.3928325394572
 20
30.56398952290126
  0
LWPOLYLINE
  5
8D
330
2
100
AcDbEntity
  8
0
100
AcDbPolyline
 90
       21
 70
     0
 43
0.0
 10
112.4333796306572
 20
30.67570571010127
 10
112.2945558034572
 20
30.67513578370128
 10
112.1431494530572
 20
30.67339921090126
 10
111.9812338898572
 20
30.67049965570127
 10
111.8110729410572
 20
30.66647490690127
 10
111.6303831138572
 20
30.66124522530127
 10
111.4381832018572
 20
30.65471192930127
 10
111.2319453586572
 20
30.64667543010127
 10
111.0038489618572
 20
30.63662147970127
 10
110.7416146338572
 20
30.62361628930126
 10
110.4529261602572
 20
30.60759401090126
 10
110.1722474162572
 20
30.59038934210127
 10
109.9163156722572
 20
30.57334514530127
 10
109.6803536690572
 20
30.55647273250127
 10
109.4563547698572
 20
30.53938623330127
 10
109.2271583810572
 20
30.52075128450127
 10
108.9869574290572
 20
30.49985428450126
 10
108.7466095250572
 20
30.47739840130127
 10
108.5235582834572
 20
30.45501752610127
 10
108.3204450850572
 20
30.43319541730127
 10
108.1351544370572
 20
30.41194014210127
  0
LWPOLYLINE
  5
8E
330
2
100
AcDbEntity
  8
0
100
AcDbPolyline
 90
       34
 70
     0
 43
0.0
 10
108.0952338146572
 20
30.37655629890128
 10
108.0890339970572
 20
30.37188397090126
 10
108.0817868914572
 20
30.36710421250127
 10
108.0734912978572
 20
30.36221341250127
 10
108.0641371986572
 20
30.35720514690128
 10
108.0537091954572
 20
30.35207265090127
 10
108.0421890290572
 20
30.34680974370127
 10
108.0295823554572
 20
30.34142152930127
 10
108.0159200818572
 20
30.33592160930126
 10
108.0012170658572
 20
30.33031467170127
 10
107.9854795826572
 20
30.32460143970126
 10
107.9687165042572
 20
30.31878336610127
 10
107.9509368050572
 20
30.31286165250127
 10
107.9321502274572
 20
30.30683751010127
 10
107.9123670994572
 20
30.30071209410127
 10
107.8915984018572
 20
30.29448653250126
 10
107.8698557314572
 20
30.28816192290126
 10
107.8471513266572
 20
30.28173934050127
 10
107.8234980338572
 20
30.27521984130128
 10
107.7989093570572
 20
30.26860448450126
 10
107.7733994594572
 20
30.26189432770127
 10
107.7469830882572
 20
30.25509042850127
 10
107.7196756978572
 20
30.24819387650127
 10
107.6914931506572
 20
30.24120572610127
 10
107.6624512802572
 20
30.23412690530126
 10
107.6325668930572
 20
30.22695847330126
 10
107.6018580722572
 20
30.21970169410127
 10
107.5703429602572
 20
30.21235775330127
 10
107.5380398386572
 20
30.20492780130126
 10
107.5049672354572
 20
30.19741297730127
 10
107.4711450034572
 20
30.18981467650127
 10
107.4365919458572
 20
30.18213402210126
 10
107.4013237858572
 20
30.17437143810127
 10
107.3653604274572
 20
30.16652826530126
  0
LINE
  5
8F
330
2
100
AcDbEntity
  8
0
100
AcDbLine
 10
107.2914402210572
 20
30.15060829890127
 30
0.0
 11
107.2150917826572
 21
30.13440651970127
 31
0.0
  0
LINE
  5
90
330
2
100
AcDbEntity
  8
0
100
AcDbLine
 10
107.3653604274572
 20
30.16652826530126
 30
0.0
 11
107.2914402210572
 21
30.15060829890127
 31
0.0
  0
LWPOLYLINE
  5
91
330
2
100
AcDbEntity
  8
0
100
AcDbPolyline
 90
        4
 70
     0
 43
0.0
 10
108.1351544386572
 20
30.41194014370127
 10
108.1214787314572
 20
30.39918477730127
 10
108.1081744754572
 20
30.38739764610127
 10
108.0952338306572
 20
30.37655631010128
  0
LINE
  5
92
330
2
100
AcDbEntity
  8
0
100
AcDbLine
 10
113.2329991186572
 20
30.57247985890127
 30
0.0
 11
113.3236732018572
 21
30.56946576450127
 31
0.0
  0
LINE
  5
93
330
2
100
AcDbEntity
  8
0
100
AcDbLine
 10
113.0492206354572
 20
30.57786819650127
 30
0.0
 11
113.1484374578572
 21
30.57508333090128
 31
0.0
  0
LINE
  5
94
330
2
100
AcDbEntity
  8
0
100
AcDbLine
 10
113.1484374578572
 20
30.57508333090128
 30
0.0
 11
113.2329991186572
 21
30.57247985890127
 31
0.0
  0
LWPOLYLINE
  5
95
330
2
100
AcDbEntity
  8
0
100
AcDbPolyline
 90
       10
 70
     0
 43
0.0
 10
111.6753390546572
 20
30.57378577090126
 10
111.7573812386572
 20
30.57621508290127
 10
111.8162434434572
 20
30.57783378690126
 10
111.8734495362572
 20
30.57930273890127
 10
111.9295593202572
 20
30.58064007970127
 10
111.9851926594572
 20
30.58185913890127
 10
112.0967795298572
 20
30.58396490530127
 10
112.2091294770572
 20
30.58558205410126
 10
112.3215486338572
 20
30.58662555970127
 10
112.4333796306572
 20
30.58699822370127
  0
LINE
  5
96
330
2
100
AcDbEntity
  8
0
100
AcDbLine
 10
111.5878631474572
 20
30.57098235490127
 30
0.0
 11
111.6753390546572
 21
30.57378577090126
 31
0.0
  0
LINE
  5
97
330
2
100
AcDbEntity
  8
0
100
AcDbLine
 10
111.4938728018572
 20
30.56773683810126
 30
0.0
 11
111.5878631474572
 21
30.57098235490127
 31
0.0
  0
LINE
  5
98
330
2
100
AcDbEntity
  8
0
100
AcDbLine
 10
111.3928325394572
 20
30.56398952290126
 30
0.0
 11
111.4938728018572
 21
30.56773683810126
 31
0.0
  0
LWPOLYLINE
  5
99
330
2
100
AcDbEntity
  8
0
100
AcDbPolyline
 90
        8
 70
     0
 43
0.0
 10
112.4333796306572
 20
30.58699822370127
 10
112.5449648082572
 20
30.58662714850127
 10
112.6571350210572
 20
30.58558796610127
 10
112.7692316290572
 20
30.58397740770127
 10
112.8805623634572
 20
30.58188014850127
 10
112.9360812754572
 20
30.58066565730126
 10
112.9920928818572
 20
30.57933283970126
 10
113.0492206354572
 20
30.57786819650127
  0
LWPOLYLINE
  5
9A
330
2
100
AcDbEntity
  8
0
100
AcDbPolyline
 90
       21
 70
     0
 43
0.0
 10
123.3848452306572
 20
25.77173462530128
 10
123.2798425714572
 20
25.92927886050127
 10
123.1333025650572
 20
26.13294006530127
 10
122.9780349586572
 20
26.33122343810127
 10
122.8143026210572
 20
26.52373927010127
 10
122.6423869506572
 20
26.71010827330127
 10
122.4625863682572
 20
26.88996349890127
 10
122.2752155474572
 20
27.06295116930127
 10
122.0806047602572
 20
27.22873135810127
 10
121.8790989138572
 20
27.38697892610128
 10
121.6710570722572
 20
27.53738401410128
 10
121.4568516978572
 20
27.67965279010127
 10
121.2368671202572
 20
27.81350861570127
 10
121.0114993826572
 20
27.93869221730126
 10
120.7811557666572
 20
28.05496219010128
 10
120.5462525938572
 20
28.16209630530127
 10
120.3072147602572
 20
28.25989172610127
 10
120.0644763746572
 20
28.34816493410127
 10
119.8184815218572
 20
28.42675196610128
 10
119.5696736146572
 20
28.49551196450127
 10
119.3213891666572
 20
28.55370781730127
  0
LWPOLYLINE
  5
9B
330
2
100
AcDbEntity
  8
0
100
AcDbPolyline
 90
       23
 70
     0
 43
0.0
 10
119.5003423186572
 20
25.74928273410127
 10
119.5086642866572
 20
25.74437467650126
 10
119.5210901218572
 20
25.73942806210126
 10
119.5375489858572
 20
25.73451370530126
 10
119.5578804418572
 20
25.72969190690126
 10
119.5819438658572
 20
25.72499987170127
 10
119.6094101666572
 20
25.72049834370126
 10
119.6398438226572
 20
25.71624312610127
 10
119.6729562482572
 20
25.71225545090126
 10
119.7084119394572
 20
25.70855808770128
 10
119.7457829778572
 20
25.70517616770127
 10
119.7847292914572
 20
25.70211953730127
 10
119.8250779746572
 20
25.69938374850127
 10
119.8664316690572
 20
25.69697883330127
 10
119.9083877730572
 20
25.69490871650127
 10
119.9508174258572
 20
25.69316120450126
 10
119.9936402818572
 20
25.69172524290127
 10
120.0366194770572
 20
25.69059646690126
 10
120.0795464338572
 20
25.68976824450126
 10
120.1224448978572
 20
25.68923058850127
 10
120.1653157826572
 20
25.68897828290127
 10
120.2081679122572
 20
25.68900996130127
 10
120.2509786690572
 20
25.68932795810127
  0
LWPOLYLINE
  5
9C
330
2
100
AcDbEntity
  8
0
100
AcDbPolyline
 90
        3
 70
     0
 43
0.0
 10
119.4840170962572
 20
25.76275060290127
 10
119.4843438066572
 20
25.76196146850127
 10
119.4873644514572
 20
25.75886407170127
  0
LWPOLYLINE
  5
9D
330
2
100
AcDbEntity
  8
0
100
AcDbPolyline
 90
        3
 70
     0
 43
0.0
 10
119.5003423186572
 20
25.74928273410127
 10
119.4939876002572
 20
25.75408701730127
 10
119.4873644514572
 20
25.75886407170127
  0
LWPOLYLINE
  5
9E
330
2
100
AcDbEntity
  8
0
100
AcDbPolyline
 90
       22
 70
     0
 43
0.0
 10
117.7032316354572
 20
27.30983754370127
 10
117.8199387778572
 20
27.28436721250126
 10
117.9379098914572
 20
27.25242805250127
 10
118.0540665170572
 20
27.21464148770127
 10
118.1680653538572
 20
27.17112301250127
 10
118.2795697842572
 20
27.12200613890127
 10
118.3882507218572
 20
27.06744195650127
 10
118.4937874466572
 20
27.00759867170127
 10
118.5958685986572
 20
26.94266103330127
 10
118.6941928642572
 20
26.87282991330127
 10
118.7884700818572
 20
26.79832159330127
 10
118.8784224770572
 20
26.71936678210127
 10
118.9637876770572
 20
26.63620755330127
 10
119.0443189154572
 20
26.54909591170127
 10
119.1197832834572
 20
26.45829467810127
 10
119.1899628258572
 20
26.36407585570127
 10
119.2546561650572
 20
26.26671743010126
 10
119.3136770050572
 20
26.16650406050126
 10
119.3668539474572
 20
26.06372657090126
 10
119.4140301090572
 20
25.95868229890126
 10
119.4550634786572
 20
25.85167454210127
 10
119.4840163682572
 20
25.76275060130127
  0
LWPOLYLINE
  5
9F
330
2
100
AcDbEntity
  8
0
100
AcDbPolyline
 90
        4
 70
     0
 43
0.0
 10
122.9134421730572
 20
25.72311449410126
 10
122.0272449042572
 20
25.71075779970127
 10
121.1397129714572
 20
25.69949528770127
 10
120.2509786690572
 20
25.68932795810127
  0
LINE
  5
A0
330
2
100
AcDbEntity
  8
0
100
AcDbLine
 10
122.9514798882572
 20
26.36219012770126
 30
0.0
 11
123.5783796306572
 21
26.36219012770126
 31
0.0
  0
LWPOLYLINE
  5
A1
330
2
100
AcDbEntity
  8
0
100
AcDbPolyline
 90
       21
 70
     0
 43
0.0
 10
122.9134421730572
 20
25.72311449410126
 10
122.9609764018572
 20
25.72395365570126
 10
123.0058799826572
 20
25.72503410530127
 10
123.0481510994572
 20
25.72633662850127
 10
123.0878653986572
 20
25.72784607170127
 10
123.1249802178572
 20
25.72954436610126
 10
123.1596194450572
 20
25.73142226690127
 10
123.1917615090572
 20
25.73346547490126
 10
123.2214713154572
 20
25.73566619650127
 10
123.2487881506572
 20
25.73801785410127
 10
123.2736754354572
 20
25.74050895010127
 10
123.2961939314572
 20
25.74313942530126
 10
123.3163018642572
 20
25.74590123010127
 10
123.3339752562572
 20
25.74878983170127
 10
123.3491947858572
 20
25.75180521890127
 10
123.3618796946572
 20
25.75493889410127
 10
123.3719759698572
 20
25.75819112130126
 10
123.3793913074572
 20
25.76155703170127
 10
123.3840198466572
 20
25.76502882370127
 10
123.3857533218572
 20
25.76860398690127
 10
123.3848473458572
 20
25.77173463490128
  0
LWPOLYLINE
  5
A2
330
2
100
AcDbEntity
  8
0
100
AcDbPolyline
 90
        8
 70
     0
 43
0.0
 10
119.4661368498572
 20
29.74640758370127
 10
119.5312180530572
 20
29.73318589090126
 10
119.5964929938572
 20
29.72000199330127
 10
119.6619236850572
 20
29.70687039170127
 10
119.7274771170572
 20
29.69380468770127
 10
119.7931401762572
 20
29.68081487650127
 10
119.8589047282572
 20
29.66791004610127
 10
119.9247626354572
 20
29.65509929090127
  0
LWPOLYLINE
  5
A3
330
2
100
AcDbEntity
  8
0
100
AcDbPolyline
 90
       22
 70
     0
 43
0.0
 10
125.5751812594572
 20
29.12569341890128
 10
125.2980309170572
 20
29.12279392610127
 10
125.0137659890572
 20
29.12345709410127
 10
124.7230395794572
 20
29.12780813890127
 10
124.4258642114572
 20
29.13596598210126
 10
124.1226351314572
 20
29.14803836930127
 10
123.8142882354572
 20
29.16409215650126
 10
123.5015264546572
 20
29.18417566850127
 10
123.1851042626572
 20
29.20831035490127
 10
122.8659906514572
 20
29.23647569730127
 10
122.5455527522572
 20
29.26858508290127
 10
122.2251329186572
 20
29.30451025570127
 10
121.9054135026572
 20
29.34416242690128
 10
121.5870252962572
 20
29.38744544770127
 10
121.2710667858572
 20
29.43417903810127
 10
120.9588002482572
 20
29.48411839330127
 10
120.6478753586572
 20
29.53762524290127
 10
120.3251018962572
 20
29.59714367970127
 10
119.9700968290572
 20
29.66638280610126
 10
119.5745054178572
 20
29.74635980610127
 10
119.1327560258572
 20
29.83662575010127
 10
118.6498245810572
 20
29.93331185730127
  0
LINE
  5
A4
330
2
100
AcDbEntity
  8
0
100
AcDbLine
 10
119.2083786226572
 20
29.79941369570127
 30
0.0
 11
119.3367027682572
 21
29.77290750370127
 31
0.0
  0
LINE
  5
A5
330
2
100
AcDbEntity
  8
0
100
AcDbLine
 10
119.3367027682572
 20
29.77290750370127
 30
0.0
 11
119.4661368498572
 21
29.74640758370127
 31
0.0
  0
LWPOLYLINE
  5
A6
330
2
100
AcDbEntity
  8
0
100
AcDbPolyline
 90
        4
 70
     0
 43
0.0
 10
119.3213891682572
 20
28.55370782370127
 10
119.1684285042572
 20
28.58459217410127
 10
119.0117171698572
 20
28.61248928930126
 10
118.8574067666572
 20
28.63629626530126
  0
LWPOLYLINE
  5
A7
330
2
100
AcDbEntity
  8
0
100
AcDbPolyline
 90
       31
 70
     0
 43
0.0
 10
115.4333796306572
 20
30.44492077250128
 10
115.5141484642572
 20
30.43804415970127
 10
115.5949975842572
 20
30.43085922690127
 10
115.6759055362572
 20
30.42336347330127
 10
115.7568427986572
 20
30.41555532610127
 10
115.8377476130572
 20
30.40743695810127
 10
115.9185501538572
 20
30.39901147330127
 10
115.9991920386572
 20
30.39028075010127
 10
116.0796606514572
 20
30.38124175010127
 10
116.1599548146572
 20
30.37189021090127
 10
116.2400620866572
 20
30.36222328450127
 10
116.3199249554572
 20
30.35224376770127
 10
116.3994746402572
 20
30.34195587810127
 10
116.4786496002572
 20
30.33136278050126
 10
116.5574172690572
 20
30.32046344770127
 10
116.6357523170572
 20
30.30925580130127
 10
116.7136295826572
 20
30.29773914690128
 10
116.7910245746572
 20
30.28591831170126
 10
116.8679129698572
 20
30.27379950370127
 10
116.9442656978572
 20
30.26139109410127
 10
117.0200347186572
 20
30.24871008770126
 10
117.0951672498572
 20
30.23577565090127
 10
117.1696199570572
 20
30.22260543010126
 10
117.2433873058572
 20
30.20921098530127
 10
117.3164732114572
 20
30.19560235810127
 10
117.3888719506572
 20
30.18179176290127
 10
117.4605392418572
 20
30.16780009890126
 10
117.5314211666572
 20
30.15365044130126
 10
117.6014691218572
 20
30.13936519810127
 10
117.6706557794572
 20
30.12496411010127
 10
117.7389591362572
 20
30.11046624930127
  0
LINE
  5
A8
330
2
100
AcDbEntity
  8
0
100
AcDbLine
 10
117.7389591362572
 20
30.11046624930127
 30
0.0
 11
118.1244907650572
 21
30.02816770210127
 31
0.0
  0
LINE
  5
A9
330
2
100
AcDbEntity
  8
0
100
AcDbLine
 10
118.1244907650572
 20
30.02816770210127
 30
0.0
 11
118.3339924114572
 21
29.98360541090127
 31
0.0
  0
LINE
  5
AA
330
2
100
AcDbEntity
  8
0
100
AcDbLine
 10
118.3339924114572
 20
29.98360541090127
 30
0.0
 11
118.6488682066572
 21
29.91681603170127
 31
0.0
  0
LINE
  5
AB
330
2
100
AcDbEntity
  8
0
100
AcDbLine
 10
117.6906060882572
 20
30.12622352770127
 30
0.0
 11
117.6132215698572
 21
30.14253733250127
 31
0.0
  0
LINE
  5
AC
330
2
100
AcDbEntity
  8
0
100
AcDbLine
 10
118.6488682066572
 20
29.91681603170127
 30
0.0
 11
118.8932624578572
 21
29.86525086850127
 31
0.0
  0
LINE
  5
AD
330
2
100
AcDbEntity
  8
0
100
AcDbLine
 10
118.8932624578572
 20
29.86525086850127
 30
0.0
 11
119.0812464994572
 21
29.82586402370127
 31
0.0
  0
LINE
  5
AE
330
2
100
AcDbEntity
  8
0
100
AcDbLine
 10
117.7698898242572
 20
30.10970432610126
 30
0.0
 11
117.6906060882572
 21
30.12622352770127
 31
0.0
  0
LINE
  5
AF
330
2
100
AcDbEntity
  8
0
100
AcDbLine
 10
119.0812464994572
 20
29.82586402370127
 30
0.0
 11
119.2083786226572
 21
29.79941369570127
 31
0.0
  0
LINE
  5
B0
330
2
100
AcDbEntity
  8
0
100
AcDbLine
 10
117.8509473634572
 20
30.09298405730126
 30
0.0
 11
117.7698898242572
 21
30.10970432610126
 31
0.0
  0
LINE
  5
B1
330
2
100
AcDbEntity
  8
0
100
AcDbLine
 10
117.9336769298572
 20
30.07606450050127
 30
0.0
 11
117.8509473634572
 21
30.09298405730126
 31
0.0
  0
LINE
  5
B2
330
2
100
AcDbEntity
  8
0
100
AcDbLine
 10
118.0179983714572
 20
30.05894546850127
 30
0.0
 11
117.9336769298572
 21
30.07606450050127
 31
0.0
  0
LINE
  5
B3
330
2
100
AcDbEntity
  8
0
100
AcDbLine
 10
118.1038518082572
 20
30.04162520130127
 30
0.0
 11
118.0179983714572
 21
30.05894546850127
 31
0.0
  0
LINE
  5
B4
330
2
100
AcDbEntity
  8
0
100
AcDbLine
 10
118.2354186610572
 20
30.01526097570126
 30
0.0
 11
118.1038518082572
 21
30.04162520130127
 31
0.0
  0
LINE
  5
B5
330
2
100
AcDbEntity
  8
0
100
AcDbLine
 10
118.3702711826572
 20
29.98842556130126
 30
0.0
 11
118.2354186610572
 21
30.01526097570126
 31
0.0
  0
LINE
  5
B6
330
2
100
AcDbEntity
  8
0
100
AcDbLine
 10
118.5084019874572
 20
29.96110874050127
 30
0.0
 11
118.3702711826572
 21
29.98842556130126
 31
0.0
  0
LINE
  5
B7
330
2
100
AcDbEntity
  8
0
100
AcDbLine
 10
118.6498257282572
 20
29.93331160610127
 30
0.0
 11
118.5084019874572
 21
29.96110874050127
 31
0.0
  0
LWPOLYLINE
  5
B8
330
2
100
AcDbEntity
  8
0
100
AcDbPolyline
 90
        4
 70
     0
 43
0.0
 10
116.7317214626572
 20
30.41182879490127
 10
116.7453560914572
 20
30.39911604130127
 10
116.7586215890572
 20
30.38736593410126
 10
116.7715254306572
 20
30.37655631010128
  0
LWPOLYLINE
  5
B9
330
2
100
AcDbEntity
  8
0
100
AcDbPolyline
 90
       36
 70
     0
 43
0.0
 10
117.6132215698572
 20
30.14253733250127
 10
117.5380324978572
 20
30.15860694370127
 10
117.5013988322572
 20
30.16652826530126
 10
117.4654354754572
 20
30.17437143810127
 10
117.4301673154572
 20
30.18213402210126
 10
117.3956142578572
 20
30.18981467650127
 10
117.3617920258572
 20
30.19741297730127
 10
117.3287194226572
 20
30.20492780130126
 10
117.2964163010572
 20
30.21235775330127
 10
117.2649011874572
 20
30.21970169410127
 10
117.2341923666572
 20
30.22695847330126
 10
117.2043079810572
 20
30.23412690530126
 10
117.1752661106572
 20
30.24120572610127
 10
117.1470835618572
 20
30.24819387650127
 10
117.1197761714572
 20
30.25509042850127
 10
117.0933598018572
 20
30.26189432770127
 10
117.0678499026572
 20
30.26860448450126
 10
117.0432612274572
 20
30.27521984130128
 10
117.0196079330572
 20
30.28173934050127
 10
116.9969035282572
 20
30.28816192290126
 10
116.9751608594572
 20
30.29448653250126
 10
116.9543921602572
 20
30.30071209410127
 10
116.9346090338572
 20
30.30683751010127
 10
116.9158224562572
 20
30.31286165250127
 10
116.8980427554572
 20
30.31878336610127
 10
116.8812796786572
 20
30.32460143970126
 10
116.8655421954572
 20
30.33031467170127
 10
116.8508391778572
 20
30.33592160930126
 10
116.8371769058572
 20
30.34142152930127
 10
116.8245702322572
 20
30.34680974370127
 10
116.8130500642572
 20
30.35207265090127
 10
116.8026220626572
 20
30.35720514690128
 10
116.7932679618572
 20
30.36221341250127
 10
116.7849723698572
 20
30.36710421250127
 10
116.7777252626572
 20
30.37188397090126
 10
116.7715254466572
 20
30.37655629890128
  0
LWPOLYLINE
  5
BA
330
2
100
AcDbEntity
  8
0
100
AcDbPolyline
 90
       17
 70
     0
 43
0.0
 10
118.3847677650572
 20
31.31009129410127
 10
118.3301218770572
 20
31.19745412450127
 10
118.2667466594572
 20
31.08948883170127
 10
118.1950472370572
 20
30.98688557570127
 10
118.1154819586572
 20
30.89030026690128
 10
118.0285594578572
 20
30.80035034050126
 10
117.9348353970572
 20
30.71761081250127
 10
117.8349089202572
 20
30.64261060770127
 10
117.7294188226572
 20
30.57582917410127
 10
117.6190394626572
 20
30.51769342210127
 10
117.5044764530572
 20
30.46857499170127
 10
117.3864621570572
 20
30.42878787970127
 10
117.2657509954572
 20
30.39858643010127
 10
117.1431146322572
 20
30.37816370850127
 10
117.0193370338572
 20
30.36765027170128
 10
116.8952094690572
 20
30.36711332610127
 10
116.7715254306572
 20
30.37655631010128
  0
LWPOLYLINE
  5
BB
330
2
100
AcDbEntity
  8
0
100
AcDbPolyline
 90
       58
 70
     0
 43
0.0
 10
118.3225730290572
 20
31.32369061890126
 10
118.3069592178572
 20
31.28954795970126
 10
118.2906554514572
 20
31.25605352450127
 10
118.2736879154572
 20
31.22321308770127
 10
118.2560810402572
 20
31.19102962530126
 10
118.2378584882572
 20
31.15950542210127
 10
118.2190428018572
 20
31.12864153890127
 10
118.1996557586572
 20
31.09843856130128
 10
118.1797180370572
 20
31.06889614850127
 10
118.1592496386572
 20
31.04001374690126
 10
118.1382688178572
 20
31.01178917730126
 10
118.1167951698572
 20
30.98422282210127
 10
118.0948418402572
 20
30.95730768450127
 10
118.0724189458572
 20
30.93103488290127
 10
118.0495492418572
 20
30.90541126530126
 10
118.0262545058572
 20
30.88044184130128
 10
118.0025499890572
 20
30.85612446210127
 10
117.9784514802572
 20
30.83245802050127
 10
117.9539739186572
 20
30.80944093890127
 10
117.9291315186572
 20
30.78707136290127
 10
117.9039379362572
 20
30.76534733890127
 10
117.8784053810572
 20
30.74426611810128
 10
117.8525468194572
 20
30.72382602530128
 10
117.8263700898572
 20
30.70402189570127
 10
117.7998793634572
 20
30.68484685730126
 10
117.7730875218572
 20
30.66630118210127
 10
117.7460059954572
 20
30.64838425730127
 10
117.7186403650572
 20
30.63109206850127
 10
117.6909957986572
 20
30.61442117410126
 10
117.6630762450572
 20
30.59836824610127
 10
117.6348831298572
 20
30.58292945570127
 10
117.6064201890572
 20
30.56810319490127
 10
117.5776782690572
 20
30.55388238370127
 10
117.5486852626572
 20
30.54027885250127
 10
117.5194518642572
 20
30.52729520130127
 10
117.4898929586572
 20
30.51489495490126
 10
117.4599662562572
 20
30.50306722850126
 10
117.4296706770572
 20
30.49182074530127
 10
117.3989905554572
 20
30.48116013090127
 10
117.3679142642572
 20
30.47109344130127
 10
117.3364279922572
 20
30.46162989890127
 10
117.3045178018572
 20
30.45278069570128
 10
117.2721690642572
 20
30.44455889090127
 10
117.2393667618572
 20
30.43697960290127
 10
117.2060954066572
 20
30.43006008290127
 10
117.1723392866572
 20
30.42381987170127
 10
117.1380828610572
 20
30.41828098370126
 10
117.1033034194572
 20
30.41346704130127
 10
117.0679826098572
 20
30.40940544450127
 10
117.0321111474572
 20
30.40612738050127
 10
116.9956721874572
 20
30.40366599010127
 10
116.9586451762572
 20
30.40205758850127
 10
116.9210438978572
 20
30.40134261410126
 10
116.8831175634572
 20
30.40155798530126
 10
116.8451722034572
 20
30.40271545250126
 10
116.8072811778572
 20
30.40481389570127
 10
116.7694555378572
 20
30.40785237730126
 10
116.7317214626572
 20
30.41182879490127
  0
LWPOLYLINE
  5
BC
330
2
100
AcDbEntity
  8
0
100
AcDbPolyline
 90
       20
 70
     0
 43
0.0
 10
118.9926660530572
 20
31.51665540290128
 10
118.9711283090572
 20
31.38953365570127
 10
118.9492248178572
 20
31.26333949250127
 10
118.9270931890572
 20
31.13886575330127
 10
118.9048724690572
 20
31.01689445250127
 10
118.8827022546572
 20
30.89819188770127
 10
118.8607218338572
 20
30.78350381890126
 10
118.8390692978572
 20
30.67355078210127
 10
118.8178806754572
 20
30.56902356770128
 10
118.7972890850572
 20
30.47057887810128
 10
118.7774238930572
 20
30.37883519970127
 10
118.7584099026572
 20
30.29436891970127
 10
118.7403665682572
 20
30.21771070690127
 10
118.7234072498572
 20
30.14934217250127
 10
118.7076384882572
 20
30.08969284610127
 10
118.6931593490572
 20
30.03913748450127
 10
118.6800607938572
 20
29.99799370210126
 10
118.6684251138572
 20
29.96651999010127
 10
118.6583254146572
 20
29.94491408290127
 10
118.6498257282572
 20
29.93331160610127
  0
LWPOLYLINE
  5
BD
330
2
100
AcDbEntity
  8
0
100
AcDbPolyline
 90
       29
 70
     0
 43
0.0
 10
125.3475671298572
 20
29.11817955490127
 10
125.1866903330572
 20
29.11781162530127
 10
125.0282185378572
 20
29.11846391170127
 10
124.8723632754572
 20
29.12005665410127
 10
124.7192954898572
 20
29.12251128130127
 10
124.5691494306572
 20
29.12575151170127
 10
124.4220220514572
 20
29.12970431170127
 10
124.2779508658572
 20
29.13430170050126
 10
124.1369537730572
 20
29.13948090690126
 10
123.9990304818572
 20
29.14518380450127
 10
123.8641621890572
 20
29.15135686210126
 10
123.7323140082572
 20
29.15795111970126
 10
123.6034365714572
 20
29.16492211490127
 10
123.4774732578572
 20
29.17222943650127
 10
123.3545094770572
 20
29.17982708770127
 10
123.2346617522572
 20
29.18766813570127
 10
123.1180275650572
 20
29.19570767970127
 10
123.0046880050572
 20
29.20390342050128
 10
122.8947091410572
 20
29.21221572770127
 10
122.7881422194572
 20
29.22060723010128
 10
122.6850625154572
 20
29.22903971170127
 10
122.5859645570572
 20
29.23743961730128
 10
122.4914946866572
 20
29.24571602370127
 10
122.4022017538572
 20
29.25378187170128
 10
122.3185357762572
 20
29.26155598370127
 10
122.2409538882572
 20
29.26895459330127
 10
122.1701447058572
 20
29.27586961250126
 10
122.1066218354572
 20
29.28220783010127
 10
122.0506611634572
 20
29.28790004450127
  0
LINE
  5
BE
330
2
100
AcDbEntity
  8
0
100
AcDbLine
 10
121.9035597122572
 20
29.30338321250127
 30
0.0
 11
121.8716553794572
 21
29.30685728450127
 31
0.0
  0
LINE
  5
BF
330
2
100
AcDbEntity
  8
0
100
AcDbLine
 10
121.9617271026572
 20
29.29716535810126
 30
0.0
 11
121.9035597122572
 21
29.30338321250127
 31
0.0
  0
LINE
  5
C0
330
2
100
AcDbEntity
  8
0
100
AcDbLine
 10
122.0506611634572
 20
29.28790004450127
 30
0.0
 11
121.9617271026572
 21
29.29716535810126
 31
0.0
  0
LINE
  5
C1
330
2
100
AcDbEntity
  8
CENTER
 48
4.0
100
AcDbLine
 10
116.010972232524
 20
33.86219012770126
 30
0.0
 11
108.8557870287904
 21
33.86219012770126
 31
0.0
  0
CIRCLE
  5
C2
330
2
100
AcDbEntity
  8
0
100
AcDbCircle
 10
112.4333796306572
 20
33.86219012770126
 30
0.0
 40
1.2714466096
  0
LWPOLYLINE
  5
C3
330
2
100
AcDbEntity
  8
0
100
AcDbPolyline
 90
       45
 70
     0
 43
0.0
 10
112.4333796306572
 20
35.66258909730128
 10
112.5701247938572
 20
35.65735155810127
 10
112.7074241330572
 20
35.64149642050127
 10
112.8440109250572
 20
35.61495855650127
 10
112.9786169746572
 20
35.57787157410126
 10
113.1102068882572
 20
35.53048499170127
 10
113.2380089058572
 20
35.47306070850128
 10
113.3612384066572
 20
35.40592557410127
 10
113.4790478786572
 20
35.32952243170127
 10
113.5905791474572
 20
35.24441687170127
 10
113.6950687410572
 20
35.15123231330127
 10
113.7918600242572
 20
35.05061227810127
 10
113.8802883746572
 20
34.94332936930126
 10
113.9597831682572
 20
34.83019813730126
 10
114.0298593858572
 20
34.71207281090127
 10
114.0901613730572
 20
34.58974117090127
 10
114.1403351090572
 20
34.46417075650127
 10
114.1801413618572
 20
34.33634428290126
 10
114.2094578706572
 20
34.20720576130126
 10
114.2282505954572
 20
34.07770058690127
 10
114.2365746322572
 20
33.94892926370127
 10
114.2345566066572
 20
33.82082880290127
 10
114.2221254242572
 20
33.69147783970127
 10
114.1989415346572
 20
33.55991926370127
 10
114.1647097170572
 20
33.42675448450127
 10
114.1202526530572
 20
33.29548472930127
 10
114.0682027602572
 20
33.17149850210127
 10
114.0107492610572
 20
33.05651054530128
 10
113.9489058498572
 20
32.94973644450127
 10
113.8834242754572
 20
32.85057051490127
 10
113.8147778434572
 20
32.75839591330127
 10
113.7430865938572
 20
32.67245826050127
 10
113.6683398322572
 20
32.59216942530128
 10
113.5903166546572
 20
32.51698827650126
 10
113.5087502530572
 20
32.44658027170128
 10
113.4231966850572
 20
32.38068159170127
 10
113.3332594786572
 20
32.31928158850127
 10
113.2384789458572
 20
32.26251489090127
 10
113.1384272370572
 20
32.21072125090127
 10
113.0326966802572
 20
32.16442671010126
 10
112.9213101026572
 20
32.12447517410128
 10
112.8047068226572
 20
32.09187385730126
 10
112.6835731698572
 20
32.06762111970127
 10
112.5591142450572
 20
32.05263897410127
 10
112.4333796306572
 20
32.04758635650127
  0
LWPOLYLINE
  5
C4
330
2
100
AcDbEntity
  8
0
100
AcDbPolyline
 90
       44
 70
     0
 43
0.0
 10
112.4333796306572
 20
35.66258882210127
 10
112.2934428338572
 20
35.65710405410126
 10
112.1529581490572
 20
35.64049894050127
 10
112.0132811266572
 20
35.61271133570127
 10
111.8757597346572
 20
35.57389355810127
 10
111.7414818082572
 20
35.52431772450127
 10
111.6112636034572
 20
35.46426795010127
 10
111.4859531026572
 20
35.39410761890127
 10
111.3664635442572
 20
35.31433097730126
 10
111.2537050418572
 20
35.22556113890127
 10
111.1484729954572
 20
35.12847327970126
 10
111.0514585058572
 20
35.02377123810127
 10
110.9633669010572
 20
34.91231250690127
 10
110.8847772434572
 20
34.79497296130126
 10
110.8161802930572
 20
34.67267174850127
 10
110.7579289954572
 20
34.54625173570127
 10
110.7103933474572
 20
34.41682222690127
 10
110.6737702290572
 20
34.28539469570127
 10
110.6481554706572
 20
34.15298646530127
 10
110.6335453202572
 20
34.02061047650127
 10
110.6298386994572
 20
33.88930382370126
 10
110.6369458530572
 20
33.75801901570127
 10
110.6551307170572
 20
33.62441698530126
 10
110.6847116562572
 20
33.48894615170127
 10
110.7257850194572
 20
33.35276325890127
 10
110.7760607906572
 20
33.22220616610127
 10
110.8327195090572
 20
33.10095475170126
 10
110.8943762402572
 20
32.98855757410128
 10
110.9601181474572
 20
32.88433152290128
 10
111.0292830626572
 20
32.78770339170127
 10
111.1016751970572
 20
32.69782420610127
 10
111.1772271874572
 20
32.61405697250127
 10
111.2561512610572
 20
32.53576181730128
 10
111.3386855378572
 20
32.46255860450126
 10
111.4252965346572
 20
32.39411195650127
 10
111.5164015746572
 20
32.33036903170126
 10
111.6124921506572
 20
32.27143440930127
 10
111.7140242450572
 20
32.21763953410127
 10
111.8214682290572
 20
32.16950418530128
 10
111.9348570162572
 20
32.12789783330127
 10
112.0537583218572
 20
32.09388928770127
 10
112.1774666946572
 20
32.06855006050126
 10
112.3047279698572
 20
32.05287618210127
 10
112.4333796306572
 20
32.04758683010126
  0
LWPOLYLINE
  5
C5
330
2
100
AcDbEntity
  8
0
100
AcDbPolyline
 90
       26
 70
     0
 43
0.0
 10
129.3355674562572
 20
20.38365669250126
 10
130.1910461394572
 20
20.44332885730126
 10
131.0412377506572
 20
20.54106555650126
 10
131.8854188514572
 20
20.67668926050126
 10
132.7231857922572
 20
20.85020479010127
 10
133.5553047682572
 20
21.06188754690127
 10
134.3810386194572
 20
21.31176301410127
 10
135.1979120434572
 20
21.59939432770126
 10
136.0035809138572
 20
21.92420827170127
 10
136.7962611922572
 20
22.28565943330126
 10
137.5746270146572
 20
22.68339747010127
 10
138.3373973570572
 20
23.11703507810126
 10
139.0830731410572
 20
23.58597127970126
 10
139.8100493346572
 20
24.09172388610127
 10
140.5171055954572
 20
24.62940807010127
 10
141.2028792210572
 20
25.20051470210127
 10
141.8658868914572
 20
25.80422959010127
 10
142.5048607490572
 20
26.43987052450127
 10
143.1183158546572
 20
27.10637518370127
 10
143.7046747778572
 20
27.80252495330127
 10
144.2625899826572
 20
28.52726830370127
 10
144.7906956514572
 20
29.27928324770127
 10
145.2876215298572
 20
30.05716201730126
 10
145.7520927138572
 20
30.85953403650127
 10
146.1828867026572
 20
31.68477092450128
 10
146.5787968226572
 20
32.53112153410127
  0
LWPOLYLINE
  5
C6
330
2
100
AcDbEntity
  8
0
100
AcDbPolyline
 90
        4
 70
     0
 43
0.0
 10
128.4360947650572
 20
20.36229212290126
 10
128.7360979746572
 20
20.36472322210126
 10
129.0359333122572
 20
20.37184537890126
 10
129.3355674562572
 20
20.38365669250126
  0
LWPOLYLINE
  5
C9
330
2
100
AcDbEntity
  8
0
100
AcDbPolyline
 90
       35
 70
     0
 43
0.0
 10
130.6688032162572
 20
30.04443834530127
 10
130.8582539026572
 20
30.12016277250127
 10
131.0465622162572
 20
30.19895632290126
 10
131.2335786994572
 20
30.28073818050127
 10
131.4192556834572
 20
30.36547590210126
 10
131.6039526418572
 20
30.45333050690127
 10
131.7881308354572
 20
30.54451138690128
 10
131.9261942514572
 20
30.61521099330127
 10
132.0643763010572
 20
30.68801846370126
 10
132.2028279634572
 20
30.76305285250127
 10
132.3417002210572
 20
30.84043321410126
 10
132.4810944770572
 20
30.92025369730127
 10
132.6209138386572
 20
31.00250881250127
 10
132.7143673842572
 20
31.05873072930127
 10
132.8083621618572
 20
31.11629784930127
 10
132.9033155650572
 20
31.17548682530127
 10
132.9994942386572
 20
31.23647867170127
 10
133.0965618386572
 20
31.29907186210127
 10
133.1940312722572
 20
31.36296923170127
 10
133.2670448578572
 20
31.41152331810127
 10
133.3394499442572
 20
31.46024220610127
 10
133.4108433682572
 20
31.50883121410128
 10
133.4814514626572
 20
31.55742351170127
 10
133.5748372034572
 20
31.62249687330127
 10
133.6672187218572
 20
31.68775299650127
 10
133.7583057874572
 20
31.75294189410127
 10
133.8478081698572
 20
31.81781357570126
 10
133.9354356386572
 20
31.88211805090126
 10
134.0208979650572
 20
31.94560533250127
 10
134.1039981106572
 20
32.00810518850127
 10
134.1849118210572
 20
32.06976642690126
 10
134.2639080322572
 20
32.13081761570127
 10
134.3411789106572
 20
32.19142306370128
 10
134.4166095426572
 20
32.25149006210127
 10
134.4900082434572
 20
32.31086164290127
  0
LWPOLYLINE
  5
CA
330
2
100
AcDbEntity
  8
0
100
AcDbPolyline
 90
       49
 70
     0
 43
0.0
 10
134.2387420034572
 20
28.28222108770127
 10
134.3435755618572
 20
28.34903323490127
 10
134.4472427058572
 20
28.41787266050127
 10
134.5497309234572
 20
28.48874441250127
 10
134.6510076290572
 20
28.56163638530127
 10
134.7509599426572
 20
28.63646785730127
 10
134.8494549122572
 20
28.71314095010127
 10
134.9463739218572
 20
28.79156500290127
 10
135.0416556978572
 20
28.87167822210126
 10
135.1352533090572
 20
28.95342603010126
 10
135.2271109874572
 20
29.03674197410127
 10
135.3171376354572
 20
29.12151208450127
 10
135.4052333218572
 20
29.20761052130128
 10
135.4913102194572
 20
29.29491898850126
 10
135.5753289186572
 20
29.38334937570127
 10
135.6572621170572
 20
29.47282112610126
 10
135.7370752786572
 20
29.56324106690127
 10
135.8147049474572
 20
29.65446557730126
 10
135.8900804354572
 20
29.74633842850127
 10
135.9631430050572
 20
29.83871252610127
 10
136.0338817122572
 20
29.93147734370127
 10
136.1022975602572
 20
30.02453148930126
 10
136.1683984114572
 20
30.11778289570127
 10
136.2322195746572
 20
30.21117677890127
 10
136.2938032130572
 20
30.30466767330127
 10
136.3531915298572
 20
30.39821135490127
 10
136.4104268738572
 20
30.49176856930127
 10
136.4655516290572
 20
30.58530130210127
 10
136.5186107186572
 20
30.67877876610127
 10
136.5696592178572
 20
30.77219907010126
 10
136.6187547442572
 20
30.86556755490127
 10
136.6659509250572
 20
30.95888441090127
 10
136.7112854514572
 20
31.05212926530127
 10
136.7547920290572
 20
31.14527659490127
 10
136.7965051618572
 20
31.23830497730127
 10
136.8364625298572
 20
31.33120937410128
 10
136.8747026114572
 20
31.42398884450126
 10
136.9112578034572
 20
31.51662555170126
 10
136.9461361954572
 20
31.60903410050127
 10
136.9793397922572
 20
31.70111220290127
 10
137.0108761538572
 20
31.79277025730127
 10
137.0407750306572
 20
31.88396941730127
 10
137.0690717234572
 20
31.97468352450127
 10
137.0957988050572
 20
32.06487504770128
 10
137.1209779202572
 20
32.15446096130126
 10
137.1446279890572
 20
32.24334687010127
 10
137.1667722738572
 20
32.33145179170127
 10
137.1874514354572
 20
32.41874840770127
 10
137.2067104802572
 20
32.50522281890127
  0
LWPOLYLINE
  5
CB
330
2
100
AcDbEntity
  8
0
100
AcDbPolyline
 90
       59
 70
     0
 43
0.0
 10
137.2067104802572
 20
32.50522281890127
 10
137.1484186930572
 20
32.44589866210127
 10
137.0909645746572
 20
32.38818337410127
 10
137.0344574130572
 20
32.33213519010126
 10
136.9789658306572
 20
32.27777388290127
 10
136.9243957698572
 20
32.22496538210127
 10
136.8706125026572
 20
32.17353715970126
 10
136.8174898498572
 20
32.12332828130127
 10
136.7649358338572
 20
32.07422418210127
 10
136.7128670242572
 20
32.02612189570126
 10
136.6354689842572
 20
31.95560897250127
 10
136.5585608786572
 20
31.88669507650127
 10
136.4817215234572
 20
31.81895976610127
 10
136.4045012562572
 20
31.75199427010127
 10
136.3264365618572
 20
31.68539552130127
 10
136.2470369954572
 20
31.61877159650127
 10
136.1657644290572
 20
31.55171079330127
 10
136.0819169298572
 20
31.48371114530127
 10
136.0242224130572
 20
31.43760269570127
 10
135.9648403586572
 20
31.39071998050127
 10
135.9035578130572
 20
31.34293911810127
 10
135.8401641698572
 20
31.29414242690127
 10
135.7744582050572
 20
31.24423702210127
 10
135.7062410418572
 20
31.19313621090127
 10
135.6353165042572
 20
31.14075999490127
 10
135.5614992306572
 20
31.08705513250127
 10
135.4846065538572
 20
31.03197507650127
 10
135.4044621138572
 20
30.97548221090127
 10
135.3209147330572
 20
30.91757466050127
 10
135.2338195314572
 20
30.85825948610127
 10
135.1430272514572
 20
30.79754552130127
 10
135.0483710914572
 20
30.73544870690126
 10
134.9496798722572
 20
30.67198675170127
 10
134.8467751058572
 20
30.60717868930128
 10
134.7394490786572
 20
30.54104881730127
 10
134.6274867682572
 20
30.47362275490127
 10
134.5403437106572
 20
30.42222185890127
 10
134.4503845858572
 20
30.37014025570127
 10
134.3575221826572
 20
30.31741193890127
 10
134.2616692898572
 20
30.26407089730126
 10
134.1627747314572
 20
30.21017094050127
 10
134.0609314706572
 20
30.15584514850127
 10
133.9562685010572
 20
30.10124641730127
 10
133.8489148178572
 20
30.04652764290126
 10
133.7018241154572
 20
29.97363995490127
 10
133.5505458642572
 20
29.90113197570127
 10
133.3954466818572
 20
29.82932500610127
 10
133.2368456450572
 20
29.75851161570126
 10
133.0748716530572
 20
29.68886945410126
 10
132.9096060706572
 20
29.62054743490126
 10
132.7411296466572
 20
29.55369271650127
 10
132.5695207058572
 20
29.48844541570128
 10
132.3948569602572
 20
29.42494388930127
 10
132.2172272226572
 20
29.36332676450126
 10
132.0367646930572
 20
29.30373374850127
 10
131.8536136658572
 20
29.24630481730128
 10
131.6678939698572
 20
29.19117059010128
 10
131.4796275442572
 20
29.13842425250127
 10
131.2888118626572
 20
29.08814963490127
  0
LWPOLYLINE
  5
CC
330
2
100
AcDbEntity
  8
0
100
AcDbPolyline
 90
       92
 70
     0
 43
0.0
 10
137.7113034562572
 20
37.85302527330127
 10
137.6752481506572
 20
37.69567553890126
 10
137.6371530530572
 20
37.53775357570127
 10
137.5969895106572
 20
37.37945986050127
 10
137.5547325810572
 20
37.22099357090127
 10
137.5103593554572
 20
37.06254607330127
 10
137.4638726642572
 20
36.90438083810127
 10
137.4153047890572
 20
36.74682801730126
 10
137.3647118690572
 20
36.59025103490127
 10
137.3121220226572
 20
36.43488807810126
 10
137.2574305746572
 20
36.28057216770126
 10
137.2004520594572
 20
36.12693323810127
 10
137.1411227170572
 20
35.97396895010126
 10
137.0797375218572
 20
35.82255241570126
 10
137.0167737714572
 20
35.67383821570127
 10
136.9524665714572
 20
35.52825563490127
 10
136.8868396658572
 20
35.38571109570126
 10
136.8199113234572
 20
35.24610886370126
 10
136.7517042578572
 20
35.10937182530126
 10
136.6822615634572
 20
34.97546857570127
 10
136.6115382898572
 20
34.84420822850127
 10
136.5397328018572
 20
34.71585133410127
 10
136.4679072226572
 20
34.59207689090126
 10
136.3971987634572
 20
34.47444899170126
 10
136.3278045154572
 20
34.36283358690127
 10
136.2593964450572
 20
34.25630461570126
 10
136.1917094674572
 20
34.15413767490127
 10
136.1245577410572
 20
34.05580346850126
 10
136.0577863026572
 20
33.96087236130127
 10
135.9912660482572
 20
33.86899427010126
 10
135.9248904066572
 20
33.77988395330127
 10
135.8585512354572
 20
33.69328229730126
 10
135.7921836082572
 20
33.60900922530127
 10
135.7256251250572
 20
33.52678367970126
 10
135.6589474306572
 20
33.44662910370127
 10
135.5921234386572
 20
33.36845326210127
 10
135.5226808706572
 20
33.28942193410127
 10
135.4460513666572
 20
33.20469721890127
 10
135.3605227698572
 20
33.11301154210127
 10
135.2687626658572
 20
33.01778601090127
 10
135.1731789330572
 20
32.92179280450126
 10
135.0736647698572
 20
32.82505439970127
 10
134.9695451986572
 20
32.72705546370128
 10
134.8601423266572
 20
32.62732877410127
 10
134.7447893954572
 20
32.52545668930128
 10
134.6218924434572
 20
32.42027445730127
 10
134.4914888866572
 20
32.31207142530127
 10
134.3628134306572
 20
32.20837350050127
 10
134.2464547714572
 20
32.11694122050127
 10
134.1419405570572
 20
32.03650637410127
 10
134.0453240866572
 20
31.96342407650127
 10
133.9545446594572
 20
31.89575748930127
 10
133.8648736994572
 20
31.82977319970127
 10
133.7707384178572
 20
31.76136781890127
 10
133.6702205746572
 20
31.68931639970127
 10
133.5630261618572
 20
31.61362296770127
 10
133.4481007890572
 20
31.53380392290127
 10
133.3240986786572
 20
31.44925369890127
 10
133.1893627298572
 20
31.35926683010128
 10
133.0409387106572
 20
31.26244551650127
 10
132.8770237810572
 20
31.15837751490127
 10
132.7050164690572
 20
31.05245213250127
 10
132.5341185394572
 20
30.95057268450126
 10
132.3639976658572
 20
30.85246313890127
 10
132.1931979666572
 20
30.75721261090127
 10
132.0222466866572
 20
30.66508767490127
 10
131.8513267282572
 20
30.57614340930126
 10
131.6806231218572
 20
30.49043003330126
 10
131.5102429906572
 20
30.40795299810126
 10
131.3400801458572
 20
30.32861661410128
 10
131.1698055186572
 20
30.25222880290127
 10
130.9991265794572
 20
30.17862410850126
 10
130.8279675746572
 20
30.10774746850127
 10
130.6563082466572
 20
30.03957231650128
 10
130.4840830130572
 20
29.97405776770126
 10
130.3111964162572
 20
29.91115709890127
 10
130.1375302498572
 20
29.85082172610127
 10
129.9630296434572
 20
29.79303043970126
 10
129.7877679506572
 20
29.73780788610127
 10
129.6117373426572
 20
29.68515567650126
 10
129.4346747346572
 20
29.63500111650127
 10
129.2562597618572
 20
29.58726822210127
 10
129.0762004754572
 20
29.54190271650126
 10
128.8941975970572
 20
29.49886132930128
 10
128.7099545346572
 20
29.45811426370127
 10
128.5231556370572
 20
29.41964106530127
 10
128.3328114754572
 20
29.38330615810127
 10
128.1374470882572
 20
29.34892408930128
 10
127.9363188226572
 20
29.31648031810127
 10
127.7293927890572
 20
29.28610374210127
 10
127.5166902130572
 20
29.25792911010127
 10
127.2982375858572
 20
29.23208979650127
  0
LWPOLYLINE
  5
CD
330
2
100
AcDbEntity
  8
0
100
AcDbPolyline
 90
       75
 70
     0
 43
0.0
 10
130.6988874578572
 20
25.05308006530127
 10
130.9744559538572
 20
25.08359051010127
 10
131.2489291474572
 20
25.11698203650126
 10
131.5174950866572
 20
25.15249937890127
 10
131.7789624146572
 20
25.18992838530127
 10
132.0341766434572
 20
25.22929433730126
 10
132.2835235826572
 20
25.27057826690127
 10
132.5272374098572
 20
25.31374195010127
 10
132.7657687250572
 20
25.35879383490128
 10
132.9997564738572
 20
25.40578930210127
 10
133.2298259634572
 20
25.45479444770127
 10
133.4562361426572
 20
25.50581439170128
 10
133.6790636994572
 20
25.55881892450126
 10
133.8984508098572
 20
25.61379616450127
 10
134.1146322722572
 20
25.67076415490127
 10
134.3277754994572
 20
25.72973046690127
 10
134.5379577202572
 20
25.79068174530127
 10
134.7453791090572
 20
25.85364398370127
 10
134.9507317554572
 20
25.91880461410127
 10
135.1545331586572
 20
25.98631808130127
 10
135.3568645458572
 20
26.05620955970127
 10
135.5577991410572
 20
26.12850526690127
 10
135.7574514066572
 20
26.20325016130127
 10
135.9559663362572
 20
26.28050637570128
 10
136.1534553314572
 20
26.36032991970127
 10
136.3499757122572
 20
26.44276022050127
 10
136.5455346226572
 20
26.52781802370127
 10
136.7406200498572
 20
26.61574396130127
 10
136.9359804882572
 20
26.70691713090127
 10
137.1317962722572
 20
26.80147403170127
 10
137.3281008018572
 20
26.89949384450128
 10
137.5249445346572
 20
27.00106723170127
 10
137.7223529442572
 20
27.10627565250126
 10
137.9203431826572
 20
27.21519869090127
 10
138.1189297794572
 20
27.32791748610127
 10
138.3180911394572
 20
27.44449421090127
 10
138.5177426338572
 20
27.56495655810127
 10
138.7176661650572
 20
27.68925087010127
 10
138.9175444274572
 20
27.81724604930127
 10
139.1172586098572
 20
27.94892111490126
 10
139.3168229858572
 20
28.08433902050127
 10
139.5163147666572
 20
28.22360974850127
 10
139.7156654338572
 20
28.36674821090127
 10
139.9144309874572
 20
28.51348374370127
 10
140.1117741426572
 20
28.66322389890127
 10
140.3062579986572
 20
28.81488281730126
 10
140.4977939026572
 20
28.96836298370127
 10
140.6862987474572
 20
29.12356665570126
 10
140.8717104466572
 20
29.28040667810127
 10
141.0540569842572
 20
29.43886946210126
 10
141.2333192098572
 20
29.59890182370127
 10
141.4095194514572
 20
29.76048615490127
 10
141.5826774754572
 20
29.92360373890127
 10
141.7528025426572
 20
30.08822686210126
 10
141.9198934994572
 20
30.25431771330127
 10
142.0838806610572
 20
30.42176797570127
 10
142.2446412674572
 20
30.59040964770128
 10
142.4021697378572
 20
30.76019043650127
 10
142.5564804962572
 20
30.93107852930127
 10
142.7076219666572
 20
31.10308096610127
 10
142.8556540050572
 20
31.27622153090126
 10
143.0005697122572
 20
31.45044898370128
 10
143.1423669618572
 20
31.62571572130127
 10
143.2810545122572
 20
31.80198678370127
 10
143.4167010322572
 20
31.97930604450127
 10
143.5493710882572
 20
32.15771791970126
 10
143.6791020738572
 20
32.33723575170127
 10
143.8059178434572
 20
32.51785735970126
 10
143.9297755730572
 20
32.69948347170127
 10
144.0506147410572
 20
32.88198437890128
 10
144.1683718722572
 20
33.06522048130126
 10
144.2830409858572
 20
33.24913124610127
 10
144.3947448418572
 20
33.43386772930127
 10
144.5035096882572
 20
33.61943462210126
 10
144.6093442482572
 20
33.80580546210127
  0
LWPOLYLINE
  5
CE
330
2
100
AcDbEntity
  8
0
100
AcDbPolyline
 90
       33
 70
     0
 43
0.0
 10
129.0640015250572
 20
26.57746434690126
 10
129.2454476562572
 20
26.59317756290127
 10
129.4272578082572
 20
26.61184025410126
 10
129.6093960754572
 20
26.63348046370127
 10
129.7918186802572
 20
26.65812457250128
 10
129.9744503650572
 20
26.68579229090127
 10
130.1572080002572
 20
26.71650166690126
 10
130.3400120306572
 20
26.75027017250127
 10
130.5227971874572
 20
26.78711298210127
 10
130.7055017810572
 20
26.82704470050127
 10
130.8880632994572
 20
26.87007953410128
 10
131.0704159762572
 20
26.91623012930127
 10
131.2524932290572
 20
26.96550873730128
 10
131.4342019202572
 20
27.01791635490127
 10
131.6153427106572
 20
27.07340896930126
 10
131.7956897058572
 20
27.13193130690128
 10
131.9750201202572
 20
27.19342253570127
 10
132.1531236066572
 20
27.25779958370127
 10
132.3297929298572
 20
27.32497381250126
 10
132.5048029842572
 20
27.39484049090127
 10
132.6778572162572
 20
27.46723051650127
 10
132.8486412050572
 20
27.54195868930127
 10
133.0168528482572
 20
27.61883538530126
 10
133.1822393170572
 20
27.69765328770127
 10
133.3445601026572
 20
27.77820065730127
 10
133.4641356818572
 20
27.83960903970127
 10
133.5816992178572
 20
27.90172342850127
 10
133.6970983986572
 20
27.96439610690127
 10
133.8101809186572
 20
28.02747936130127
 10
133.9208326498572
 20
28.09084512130127
 10
134.0290922082572
 20
28.15444389250128
 10
134.1350363922572
 20
28.21824583170126
 10
134.2387420034572
 20
28.28222108770127
  0
LWPOLYLINE
  5
CF
330
2
100
AcDbEntity
  8
0
100
AcDbPolyline
 90
       25
 70
     0
 43
0.0
 10
137.6866199074572
 20
37.80790534530128
 10
137.7021399474572
 20
37.87453553730127
 10
137.7190860674572
 20
37.94133719970126
 10
137.7375082914572
 20
38.00834872130127
 10
137.7573409218572
 20
38.07523804130127
 10
137.7784787586572
 20
38.14158659650127
 10
137.8007743282572
 20
38.20700028450128
 10
137.8240992418572
 20
38.27119880290126
 10
137.8484437122572
 20
38.33433257730126
 10
137.8652773922572
 20
38.37601300610127
 10
137.8827457426572
 20
38.41774327650126
 10
137.9010214754572
 20
38.45993174050127
 10
137.9153653154572
 20
38.49211792770127
 10
137.9303531394572
 20
38.52495484450126
 10
137.9460776290572
 20
38.55860579330126
 10
137.9626314690572
 20
38.59323407330127
 10
137.9800962402572
 20
38.62898043970126
 10
137.9985091106572
 20
38.66589545890127
 10
138.0178961410572
 20
38.70400714850127
 10
138.0382834002572
 20
38.74334353090127
 10
138.0596566354572
 20
38.78387972290127
 10
138.0818403442572
 20
38.82537924930128
 10
138.1046187090572
 20
38.86755273730127
 10
138.1277759138572
 20
38.91011081090127
 10
138.1898867394572
 20
39.02386178370127
  0
LWPOLYLINE
  5
D0
330
2
100
AcDbEntity
  8
0
100
AcDbPolyline
 90
       12
 70
     0
 43
0.0
 10
138.5646747810572
 20
40.01318636930126
 10
138.5142139458572
 20
39.79027041730127
 10
138.4592956034572
 20
39.59655980130126
 10
138.4000014306572
 20
39.43063596450127
 10
138.3300235042572
 20
39.27290173890126
 10
138.2411811586572
 20
39.10137080930127
 10
138.1366009906572
 20
38.91186817730127
 10
138.0212494850572
 20
38.69683605410127
 10
137.9146726050572
 20
38.47415515330126
 10
137.8307086274572
 20
38.26560666530127
 10
137.7643182786572
 20
38.06219780130126
 10
137.7113056338572
 20
37.85302974690127
  0
LWPOLYLINE
  5
D1
330
2
100
AcDbEntity
  8
0
100
AcDbPolyline
 90
       33
 70
     0
 43
0.0
 10
136.4599144290572
 20
34.57857724770127
 10
136.5080429490572
 20
34.66118640290128
 10
136.5543720578572
 20
34.74266034210127
 10
136.5989457522572
 20
34.82293833570127
 10
136.6418080354572
 20
34.90195965090127
 10
136.6830029074572
 20
34.97966355810127
 10
136.7225812434572
 20
35.05600857250127
 10
136.7606214290572
 20
35.13103018690127
 10
136.7972087234572
 20
35.20478314050127
 10
136.8324283874572
 20
35.27732217250127
 10
136.8663656834572
 20
35.34870202370127
 10
136.9071049842572
 20
35.43637744450127
 10
136.9460870770572
 20
35.52241798530127
 10
136.9834252338572
 20
35.60691445890127
 10
137.0192327266572
 20
35.68995767650128
 10
137.0536194018572
 20
35.77164127330127
 10
137.0866813826572
 20
35.85207018690127
 10
137.1185113650572
 20
35.93135217570127
 10
137.1492020450572
 20
36.00959500130127
 10
137.1885028658572
 20
36.11249134370128
 10
137.2261144642572
 20
36.21400407970126
 10
137.2622082498572
 20
36.31440543330127
 10
137.2969497698572
 20
36.41397110050127
 10
137.3304810946572
 20
36.51299067330127
 10
137.3629384338572
 20
36.61175721730127
 10
137.4098488210572
 20
36.75992682370127
 10
137.4547498194572
 20
36.90829442850128
 10
137.4977381026572
 20
37.05696191650128
 10
137.5388945634572
 20
37.20600708930126
 10
137.5782952930572
 20
37.35551369570127
 10
137.6160129618572
 20
37.50561338210127
 10
137.6521110786572
 20
37.65641712770127
 10
137.6866199074572
 20
37.80790534530128
  0
LWPOLYLINE
  5
D2
330
2
100
AcDbEntity
  8
0
100
AcDbPolyline
 90
       31
 70
     0
 43
0.0
 10
134.4900081554572
 20
32.31086160770127
 10
134.5486922690572
 20
32.35903534050128
 10
134.6059430322572
 20
32.40666723010127
 10
134.6617324066572
 20
32.45371347810127
 10
134.7160323538572
 20
32.50013028130126
 10
134.7688396178572
 20
32.54589556770127
 10
134.8202500898572
 20
32.59107418850126
 10
134.8703844466572
 20
32.63575271970127
 10
134.9193633682572
 20
32.68001773890127
 10
134.9830604370572
 20
32.73853247330127
 10
135.0450876434572
 20
32.79660102690127
 10
135.1056146962572
 20
32.85435843810127
 10
135.1648162978572
 20
32.91194970210126
 10
135.2228871458572
 20
32.96955967010127
 10
135.2800269314572
 20
33.02738315970127
 10
135.3643424386572
 20
33.11487632610127
 10
135.4471748050572
 20
33.20353430530127
 10
135.5286432322572
 20
33.29355083170126
 10
135.6086939410572
 20
33.38491037570126
 10
135.6872495106572
 20
33.47754990210127
 10
135.7643109666572
 20
33.57142562850127
 10
135.8398901058572
 20
33.66648976130127
 10
135.9139634018572
 20
33.76265919490127
 10
135.9865225218572
 20
33.85987530690127
 10
136.0576552466572
 20
33.95821273410126
 10
136.1274691602572
 20
34.05778011010127
 10
136.1960549394572
 20
34.15868881090126
 10
136.2635037458572
 20
34.26106554370127
 10
136.3299255410572
 20
34.36509565570126
 10
136.3954059506572
 20
34.47093680130127
 10
136.4599144338572
 20
34.57857727010127
  0
LWPOLYLINE
  5
D3
330
2
100
AcDbEntity
  8
0
100
AcDbPolyline
 90
       19
 70
     0
 43
0.0
 10
144.6093442482572
 20
33.80580546210127
 10
144.7090475122572
 20
33.98629237410126
 10
144.8063157874572
 20
34.16667741890127
 10
144.9011864562572
 20
34.34702362850127
 10
144.9936908514572
 20
34.52739035970127
 10
145.0838640786572
 20
34.70785396130127
 10
145.1717705458572
 20
34.88856231650128
 10
145.2574786642572
 20
35.06969082370128
 10
145.3410171410572
 20
35.25135032290127
 10
145.4223844850572
 20
35.43359809730127
 10
145.5015686722572
 20
35.61646667490127
 10
145.5785379842572
 20
35.79993704610128
 10
145.6534382818572
 20
35.98443584450127
 10
145.7256638578572
 20
36.16850324930126
 10
145.7925038930572
 20
36.34481702050126
 10
145.8539050674572
 20
36.51239783490128
 10
145.9102917378572
 20
36.67154364610127
 10
145.9620769202572
 20
36.82261083650127
 10
146.0095510786572
 20
36.96564186850128
  0
LWPOLYLINE
  5
D4
330
2
100
AcDbEntity
  8
0
100
AcDbPolyline
 90
        7
 70
     0
 43
0.0
 10
147.8666757522572
 20
36.39800395970127
 10
148.0153074370572
 20
37.09004752290127
 10
148.1453703714572
 20
37.81029941410126
 10
148.2528444450572
 20
38.54615984770127
 10
148.3364502610572
 20
39.29674048930127
 10
148.3949775058572
 20
40.06145972290127
 10
148.4055806754572
 20
40.25544361410126
  0
LWPOLYLINE
  5
D5
330
2
100
AcDbEntity
  8
0
100
AcDbPolyline
 90
        5
 70
     0
 43
0.0
 10
146.5787968226572
 20
32.53112153410127
 10
146.8923257426572
 20
33.27905681570126
 10
147.1786137442572
 20
34.04121813090127
 10
147.4367835922572
 20
34.81587514690128
 10
147.5441314546572
 20
35.16992902530127
  0
LINE
  5
D6
330
2
100
AcDbEntity
  8
0
100
AcDbLine
 10
147.8659963538572
 20
36.39541837250126
 30
0.0
 11
147.8666757522572
 21
36.39800395970127
 31
0.0
  0
LWPOLYLINE
  5
D7
330
2
100
AcDbEntity
  8
0
100
AcDbPolyline
 90
        3
 70
     0
 43
0.0
 10
147.5441314546572
 20
35.16992902530127
 10
147.6321605218572
 20
35.47771559650127
 10
147.7576367682572
 20
35.94922357730126
  0
LINE
  5
D8
330
2
100
AcDbEntity
  8
0
100
AcDbLine
 10
147.7576367682572
 20
35.94922357730126
 30
0.0
 11
147.8666759362572
 21
36.39800475490128
 31
0.0
  0
LWPOLYLINE
  5
D9
330
2
100
AcDbEntity
  8
0
100
AcDbPolyline
 90
       22
 70
     0
 43
0.0
 10
138.1898867394572
 20
39.02386178370127
 10
138.2203744274572
 20
39.08036995010127
 10
138.2499835362572
 20
39.13635645090127
 10
138.2784857938572
 20
39.19184545250127
 10
138.3056874722572
 20
39.24691564930127
 10
138.3251363586572
 20
39.28803414370126
 10
138.3437690018572
 20
39.32925460450127
 10
138.3616017442572
 20
39.37081233730127
 10
138.3786190466572
 20
39.41271076130126
 10
138.3948270466572
 20
39.45495271490127
 10
138.4103504450572
 20
39.49777058690127
 10
138.4203991986572
 20
39.52680594850127
 10
138.4302816322572
 20
39.55647428290127
 10
138.4400671026572
 20
39.58702381090127
 10
138.4498012370572
 20
39.61862384290127
 10
138.4594347730572
 20
39.65112804130127
 10
138.4688947186572
 20
39.68431116450126
 10
138.4826408754572
 20
39.73495786690127
 10
138.4958342178572
 20
39.78641571330126
 10
138.5126032994572
 20
39.85603774370128
 10
138.5286046018572
 20
39.92690493570127
 10
138.5440495922572
 20
39.99919309570127
  0
LWPOLYLINE
  5
DA
330
2
100
AcDbEntity
  8
0
100
AcDbPolyline
 90
       73
 70
     0
 43
0.0
 10
130.6669044002572
 20
52.68068301730128
 10
130.4761256050572
 20
52.75335951010126
 10
130.2841934434572
 20
52.82294715810127
 10
130.0910944738572
 20
52.88944095330126
 10
129.8968222546572
 20
52.95283419970127
 10
129.7013983522572
 20
53.01311345570127
 10
129.5048513346572
 20
53.07026358370126
 10
129.3071785970572
 20
53.12427715490128
 10
129.1082528530572
 20
53.17517756130127
 10
128.9079156482572
 20
53.22299589890127
 10
128.7060372802572
 20
53.26776611810126
 10
128.5026030706572
 20
53.30953358370127
 10
128.2976270930572
 20
53.34834651970126
 10
128.1427270466572
 20
53.37556300450126
 10
127.9859851362572
 20
53.40126515810126
 10
127.8264188274572
 20
53.42557344290128
 10
127.6630455826572
 20
53.44860832450127
 10
127.4952524098572
 20
53.47043106850128
 10
127.3239044930572
 20
53.49086611970128
 10
127.1498726450572
 20
53.50971943330129
 10
126.9725720354572
 20
53.52695978530127
 10
126.7915154594572
 20
53.54258078850128
 10
126.6080618610572
 20
53.55651257250127
 10
126.4240317218572
 20
53.56866939170126
 10
126.2412455218572
 20
53.57896550370128
 10
126.0611606514572
 20
53.58735941890128
 10
125.8837821154572
 20
53.59398666210125
 10
125.7089641010572
 20
53.59901063010127
 10
125.5374098962572
 20
53.60252918690128
 10
125.3699191970572
 20
53.60463181410128
 10
125.2068282498572
 20
53.60543998050127
 10
125.0483574290572
 20
53.60508315330128
 10
124.8947271122572
 20
53.60369079970126
 10
124.7460823570572
 20
53.60138574530129
 10
124.6022669314572
 20
53.59826425890128
 10
124.4630492802572
 20
53.59441596130128
 10
124.3281978514572
 20
53.58993048290128
 10
124.1974740770572
 20
53.58489014530127
 10
124.0706113234572
 20
53.57934807650128
 10
123.9473359442572
 20
53.57335009730127
 10
123.8273742946572
 20
53.56694203490127
 10
123.6721611826572
 20
53.55783278370129
 10
123.5220282450572
 20
53.54814581090128
 10
123.3766510626572
 20
53.53795096770127
 10
123.2357399602572
 20
53.52731636610127
 10
123.0991442114572
 20
53.51630313730126
 10
122.9667478258572
 20
53.50497067010127
 10
122.8384242994572
 20
53.49337456450126
 10
122.7140050722572
 20
53.48155525090127
 10
122.5933110690572
 20
53.46954937250126
 10
122.4761769618572
 20
53.45739274210126
 10
122.3624924178572
 20
53.44511786210128
 10
122.2521608514572
 20
53.43275640930127
 10
122.1450974626572
 20
53.42034025730126
 10
122.0412645842572
 20
53.40790208610127
 10
121.9406363314572
 20
53.39547477090127
 10
121.8431886722572
 20
53.38309073410127
 10
121.7489050018572
 20
53.37078055170128
 10
121.6577705634572
 20
53.35857434530126
 10
121.5697517074572
 20
53.34649878210126
 10
121.4847391954572
 20
53.33456671650129
 10
121.4026048898572
 20
53.32278754850128
 10
121.3231875042572
 20
53.31116408610128
 10
121.2461931314572
 20
53.29967275170128
 10
121.1712947138572
 20
53.28828336930127
 10
121.0621879058572
 20
53.27132236130125
 10
120.9561153634572
 20
53.25440848130128
 10
120.8521074882572
 20
53.23741746210126
 10
120.7490993298572
 20
53.22018548290128
 10
120.5431151618572
 20
53.18452490050126
 10
120.3366052210572
 20
53.14722942210128
 10
120.1302535938572
 20
53.10867204290127
 10
119.9247626354572
 20
53.06928096610127
  0
LWPOLYLINE
  5
DB
330
2
100
AcDbEntity
  8
0
100
AcDbPolyline
 90
       72
 70
     0
 43
0.0
 10
131.2888118626572
 20
53.63623062050127
 10
131.1856007266572
 20
53.66233886210128
 10
131.0792175618572
 20
53.68878239970126
 10
130.9698811218572
 20
53.71547061250126
 10
130.8577051186572
 20
53.74233625090127
 10
130.7423831010572
 20
53.76940553250128
 10
130.6235035842572
 20
53.79672804290127
 10
130.5007892738572
 20
53.82432161730128
 10
130.3744996642572
 20
53.85207708450128
 10
130.2450284450572
 20
53.87985352290127
 10
130.1461599154572
 20
53.90060004930126
 10
130.0464051906572
 20
53.92113090690128
 10
129.8452980146572
 20
53.96128914370127
 10
129.6398810770572
 20
54.00061395010126
 10
129.4308774290572
 20
54.03888621890127
 10
129.2201297762572
 20
54.07569207330126
 10
129.0097433538572
 20
54.11067968290126
 10
128.8012767986572
 20
54.14361258850127
 10
128.5938398450572
 20
54.17465375810127
 10
128.3864508914572
 20
54.20398955490128
 10
128.1802119090572
 20
54.23150051650129
 10
127.9762353938572
 20
54.25706260770127
 10
127.7735923746572
 20
54.28083933250127
 10
127.5706309314572
 20
54.30306051010126
 10
127.3648488322572
 20
54.32393363810127
 10
127.1544885458572
 20
54.34357015650127
 10
126.9416216802572
 20
54.36171959170128
 10
126.7288987826572
 20
54.37809702690126
 10
126.5174570130572
 20
54.39264171810126
 10
126.3079858834572
 20
54.40535520930126
 10
126.1008977170572
 20
54.41626405730128
 10
125.8967036370572
 20
54.42540328290127
 10
125.6965871586572
 20
54.43281674530126
 10
125.5016038162572
 20
54.43856319330127
 10
125.3116248130572
 20
54.44275209250128
 10
125.1876223250572
 20
54.44473904770126
 10
125.0660080946572
 20
54.44612026690126
 10
124.9471350658572
 20
54.44692797250127
 10
124.8312483410572
 20
54.44719476610126
 10
124.7181616754572
 20
54.44695476610127
 10
124.6075809794572
 20
54.44624247490128
 10
124.4459646418572
 20
54.44436146050128
 10
124.2895284402572
 20
54.44159687970127
 10
124.1383502754572
 20
54.43804245730127
 10
123.9920060882572
 20
54.43376095170126
 10
123.8499463250572
 20
54.42880737250127
 10
123.7116214370572
 20
54.42323673890126
 10
123.5320889986572
 20
54.41492622050128
 10
123.3571614258572
 20
54.40563755330126
 10
123.1857807874572
 20
54.39539178050129
 10
123.0169614114572
 20
54.38420233570127
 10
122.8500066546572
 20
54.37205223330128
 10
122.6842921266572
 20
54.35891688450126
 10
122.5194496018572
 20
54.34479499650127
 10
122.3561354802572
 20
54.32977843490127
 10
122.1952623234572
 20
54.31398236290127
 10
122.0376506802572
 20
54.29752207330128
 10
121.8837530530572
 20
54.28051338690128
 10
121.7339299330572
 20
54.26307225570127
 10
121.5883559474572
 20
54.24528867330128
 10
121.4464622546572
 20
54.22714881410127
 10
121.3074941490572
 20
54.20861290050126
 10
121.1029117138572
 20
54.17995315330128
 10
120.9008776114572
 20
54.15002102050127
 10
120.6994096338572
 20
54.11856544450128
 10
120.4979413282572
 20
54.08549813890127
 10
120.2963292082572
 20
54.05078421250127
 10
120.0947058722572
 20
54.01443958530126
 10
119.8932692066572
 20
53.97649424130128
 10
119.6922021330572
 20
53.93698363490128
 10
119.4916459058572
 20
53.89593764130125
 10
119.2915900434572
 20
53.85335832770127
  0
LWPOLYLINE
  5
DC
330
2
100
AcDbEntity
  8
0
100
AcDbPolyline
 90
       33
 70
     0
 43
0.0
 10
123.3669160930572
 20
53.54534038050127
 10
123.5689167250572
 20
53.55750385570127
 10
123.7635663554572
 20
53.56804167810128
 10
123.9508434514572
 20
53.57705799970128
 10
124.1308616146572
 20
53.58466063970126
 10
124.3038653330572
 20
53.59095775810127
 10
124.4701601554572
 20
53.59605270370128
 10
124.6301074802572
 20
53.60004215970127
 10
124.7840694306572
 20
53.60301370210127
 10
124.9322486322572
 20
53.60504531010128
 10
125.0748282450572
 20
53.60621080450127
 10
125.2120194850572
 20
53.60658041250127
 10
125.3440568370572
 20
53.60622004930127
 10
125.4711326386572
 20
53.60519141410128
 10
125.5933381874572
 20
53.60355405410127
 10
125.7107784642572
 20
53.60136555330126
 10
125.8235782082572
 20
53.59868169410126
 10
125.9318762898572
 20
53.59555581410126
 10
126.0357703426572
 20
53.59203950850127
 10
126.1351825522572
 20
53.58818918530127
 10
126.2300343266572
 20
53.58406222050127
 10
126.3202811026572
 20
53.57971503170128
 10
126.4059086434572
 20
53.57520232290127
 10
126.4869294738572
 20
53.57057643970128
 10
126.5633442994572
 20
53.56588909090127
 10
126.6350968626572
 20
53.56119448450127
 10
126.7021584482572
 20
53.55654423170128
 10
126.7645343842572
 20
53.55198606370127
 10
126.8222668114572
 20
53.54756277730126
 10
126.8753162338572
 20
53.54332110850126
 10
126.9234001218572
 20
53.53932649570126
 10
126.9662975362572
 20
53.53563956450128
 10
127.0038701842572
 20
53.53231265890127
  0
LWPOLYLINE
  5
DD
330
2
100
AcDbEntity
  8
0
100
AcDbPolyline
 90
       15
 70
     0
 43
0.0
 10
123.1846837858572
 20
53.51603579970128
 10
123.5011466658572
 20
53.54017839810126
 10
123.8139226914572
 20
53.56026733410127
 10
124.1222833906572
 20
53.57632621250127
 10
124.4255335602572
 20
53.58840363010128
 10
124.7227217058572
 20
53.59656584450127
 10
125.0134477954572
 20
53.60092087330127
 10
125.2977262114572
 20
53.60158803010128
 10
125.5748920978572
 20
53.59869218850128
 10
125.8443604498572
 20
53.59238690210128
 10
126.1060615186572
 20
53.58283943650127
 10
126.3599069282572
 20
53.57022234530126
 10
126.6056885538572
 20
53.55471883970128
 10
126.8434172418572
 20
53.53650510050127
 10
127.0738430834572
 20
53.51568450690127
  0
LWPOLYLINE
  5
DE
330
2
100
AcDbEntity
  8
0
100
AcDbPolyline
 90
       31
 70
     0
 43
0.0
 10
123.5783796306572
 20
56.36219012770126
 10
123.7435032866572
 20
56.36199485570128
 10
123.9045959474572
 20
56.36142842690128
 10
124.0615857650572
 20
56.36051991810126
 10
124.2144008898572
 20
56.35929840930126
 10
124.3629694706572
 20
56.35779298210128
 10
124.5072690354572
 20
56.35603098050125
 10
124.6474746130572
 20
56.35403281730126
 10
124.7838106146572
 20
56.35181717410128
 10
124.9165014434572
 20
56.34940272770126
 10
125.0457715090572
 20
56.34680815970128
 10
125.1718320066572
 20
56.34405079170128
 10
125.2948412802572
 20
56.34114250690126
 10
125.4149444674572
 20
56.33809383170128
 10
125.5322866994572
 20
56.33491529410128
 10
125.6470131138572
 20
56.33161742050126
 10
125.7869704594572
 20
56.32734116130126
 10
125.9233911522572
 20
56.32290264610128
 10
126.0565989890572
 20
56.31830963170128
 10
126.1869177618572
 20
56.31356987810128
 10
126.3146676834572
 20
56.30868952930126
 10
126.4401546322572
 20
56.30366827970127
 10
126.5636809106572
 20
56.29850421250129
 10
126.6855488146572
 20
56.29319540930126
 10
126.8459989618572
 20
56.28588396930126
 10
127.0048557266572
 20
56.27827981890127
 10
127.1629365282572
 20
56.27035096770126
 10
127.6373577202572
 20
56.24441030530127
 10
128.1134348530572
 20
56.21513046850129
 10
128.5895236242572
 20
56.18259141570127
 10
129.0640015250572
 20
56.14691591010128
  0
LWPOLYLINE
  5
DF
330
2
100
AcDbEntity
  8
0
100
AcDbPolyline
 90
        4
 70
     0
 43
0.0
 10
128.4360947650572
 20
62.36214030050127
 10
123.2382893170572
 20
62.36250492450125
 10
117.9030827762572
 20
62.36229446370126
 10
112.4333796306572
 20
62.36219012770127
  0
LWPOLYLINE
  5
E0
330
2
100
AcDbEntity
  8
0
100
AcDbPolyline
 90
       25
 70
     0
 43
0.0
 10
112.4333796306572
 20
57.80830319330127
 10
114.1912406354572
 20
57.80637573570126
 10
116.0289352354572
 20
57.80146501090126
 10
117.6782054050572
 20
57.79599290850126
 10
119.1485577842572
 20
57.79156480930126
 10
120.4620670386572
 20
57.78890936130128
 10
121.6345398178572
 20
57.78821387490125
 10
122.6809900226572
 20
57.78938246370126
 10
123.6144791922572
 20
57.79222437890126
 10
124.4479583314572
 20
57.79654977090126
 10
125.1927918834572
 20
57.80221269730128
 10
125.8591667282572
 20
57.80899303010127
 10
126.4601548578572
 20
57.81547335170128
 10
127.0012131266572
 20
57.81997000450127
 10
127.4832914946572
 20
57.82140927490127
 10
127.9086717714572
 20
57.81935754210127
 10
128.2830172834572
 20
57.81402176610126
 10
128.6237365026572
 20
57.80576586370128
 10
128.9500767698572
 20
57.79452785250126
 10
129.2650123634572
 20
57.78043088930127
 10
129.5697308546572
 20
57.76359865570126
 10
129.8647863570572
 20
57.74416698370126
 10
130.1509635234572
 20
57.72224048290127
 10
130.4288949730572
 20
57.69791443490126
 10
130.6988874578572
 20
57.67130019010128
  0
LWPOLYLINE
  5
E1
330
2
100
AcDbEntity
  8
0
100
AcDbPolyline
 90
       26
 70
     0
 43
0.0
 10
95.53119180345726
 20
62.34077573090127
 10
94.67571312185725
 20
62.28110356610125
 10
93.82552150905725
 20
62.18336686690125
 10
92.98134040985726
 20
62.04774316290126
 10
92.14357346745726
 20
61.87422763330125
 10
91.31145449305725
 20
61.66254487650127
 10
90.48572064185725
 20
61.41266940930126
 10
89.66884721785726
 20
61.12503809570125
 10
88.86317834745725
 20
60.80022415170126
 10
88.07049806745727
 20
60.43652491970127
 10
87.29213224665725
 20
60.03878688450126
 10
86.52936190425725
 20
59.60514927650127
 10
85.78368612025725
 20
59.13621307490126
 10
85.05670992505725
 20
58.63265637090126
 10
84.34965366585727
 20
58.09497218690125
 10
83.66388004025726
 20
57.52386555490128
 10
83.00087236825726
 20
56.92015066690126
 10
82.36189851225725
 20
56.28450973250128
 10
81.74844340665726
 20
55.61800507330127
 10
81.16208448185725
 20
54.92185530370128
 10
80.60416927865725
 20
54.19711195170126
 10
80.07606360825725
 20
53.44509700930126
 10
79.57913773145725
 20
52.66721823810127
 10
79.11466654745726
 20
51.86484622050127
 10
78.68387255865726
 20
51.03960933250127
 10
78.28796243865726
 20
50.19325872290128
  0
LWPOLYLINE
  5
E2
330
2
100
AcDbEntity
  8
0
100
AcDbPolyline
 90
       23
 70
     0
 43
0.0
 10
100.2422433762572
 20
53.59991805250126
 10
100.4190726882572
 20
53.59541998370128
 10
100.5906781362572
 20
53.59001424130127
 10
100.7568413010572
 20
53.58383065250126
 10
100.9173941106572
 20
53.57699121090127
 10
101.0722221202572
 20
53.56960945090128
 10
101.2212278114572
 20
53.56179164610129
 10
101.3643479314572
 20
53.55363593890126
 10
101.5015565634572
 20
53.54523193890128
 10
101.6327937650572
 20
53.53666532130128
 10
101.7578143458572
 20
53.52802969570126
 10
101.8763746002572
 20
53.51941578690127
 10
101.9884329490572
 20
53.51089605090127
 10
102.0943908194572
 20
53.50250276290125
 10
102.1947442962572
 20
53.49425103490128
 10
102.2899605106572
 20
53.48614915170128
 10
102.3800240770572
 20
53.47824028450128
 10
102.4646758674572
 20
53.47058753570127
 10
102.5437405186572
 20
53.46324618050127
 10
102.6170875970572
 20
53.45626624290128
 10
102.6844572402572
 20
53.44970904930128
 10
102.7456380690572
 20
53.44363055170126
 10
102.8005173074572
 20
53.43807546850126
  0
LWPOLYLINE
  5
E3
330
2
100
AcDbEntity
  8
0
100
AcDbPolyline
 90
       18
 70
     0
 43
0.0
 10
106.2169348338572
 20
52.79106836130129
 10
105.7340308418572
 20
52.88774896770127
 10
105.2914561250572
 20
52.97818355170128
 10
104.8960948370572
 20
53.05811085730127
 10
104.5418180946572
 20
53.12720637090126
 10
104.2195650626572
 20
53.18663401250126
 10
103.9087011826572
 20
53.24013908450126
 10
103.5962762034572
 20
53.29011180770127
 10
103.2802473330572
 20
53.33686240130126
 10
102.9618223282572
 20
53.38015635170126
 10
102.6421022738572
 20
53.41981428450129
 10
102.3216747282572
 20
53.45574594850126
 10
102.0012324754572
 20
53.48786133410126
 10
101.6820754738572
 20
53.51603579970128
 10
101.3656125954572
 20
53.54017839810126
 10
101.0528365698572
 20
53.56026733410127
 10
100.7444758706572
 20
53.57632621250127
 10
100.4412257010572
 20
53.58840363010128
  0
LWPOLYLINE
  5
E4
330
2
100
AcDbEntity
  8
0
100
AcDbPolyline
 90
       25
 70
     0
 43
0.0
 10
112.4333796306572
 20
57.80830319330127
 10
110.6755186258572
 20
57.80637573570126
 10
108.8378240258572
 20
57.80146501090126
 10
107.1885538562572
 20
57.79599290850126
 10
105.7182014770572
 20
57.79156480930126
 10
104.4046922226572
 20
57.78890936130128
 10
103.2322194434572
 20
57.78821387490125
 10
102.1857692386572
 20
57.78938246370126
 10
101.2522800690572
 20
57.79222437890126
 10
100.4188009298572
 20
57.79654977090126
 10
99.67396737785726
 20
57.80221269730128
 10
99.00759253305727
 20
57.80899303010127
 10
98.40660440345725
 20
57.81547335170128
 10
97.86554613465725
 20
57.81997000450127
 10
97.38346776665727
 20
57.82140927490127
 10
96.95808748985726
 20
57.81935754210127
 10
96.58374197785725
 20
57.81402176610126
 10
96.24302275865726
 20
57.80576586370128
 10
95.91668249145724
 20
57.79452785250126
 10
95.60174689785725
 20
57.78043088930127
 10
95.29702840665725
 20
57.76359865570126
 10
95.00197290425726
 20
57.74416698370126
 10
94.71579573785726
 20
57.72224048290127
 10
94.43786428825726
 20
57.69791443490126
 10
94.16787180345727
 20
57.67130019010128
  0
LWPOLYLINE
  5
E5
330
2
100
AcDbEntity
  8
0
100
AcDbPolyline
 90
       31
 70
     0
 43
0.0
 10
95.80275773465727
 20
56.14691591010128
 10
96.27824651705726
 20
56.18266396130128
 10
96.75542580985727
 20
56.21526686530126
 10
97.23260783545725
 20
56.24459646370127
 10
97.70807363865726
 20
56.27056880290126
 10
97.86641960505725
 20
56.27850102530127
 10
98.02548180505725
 20
56.28610446530126
 10
98.18607443065726
 20
56.29341135650128
 10
98.30800633145726
 20
56.29871439490128
 10
98.43156037465726
 20
56.30387087810126
 10
98.55703985625726
 20
56.30888293090126
 10
98.68474807385727
 20
56.31375267490128
 10
98.81499179865725
 20
56.31848061730128
 10
98.94809172345725
 20
56.32306080930127
 10
99.08437202105725
 20
56.32748568610129
 10
99.22415686105725
 20
56.33174768290126
 10
99.33872240985726
 20
56.33503383490128
 10
99.45588368985726
 20
56.33820049890127
 10
99.57578605145727
 20
56.34123727170126
 10
99.69857485145727
 20
56.34413374850126
 10
99.82439544185726
 20
56.34687952770128
 10
99.95340640985725
 20
56.34946284930126
 10
100.0858192802572
 20
56.35186654210127
 10
100.2218588130572
 20
56.35407207650127
 10
100.3617497666572
 20
56.35606092290126
 10
100.5057169010572
 20
56.35781455650127
 10
100.6539355170572
 20
56.35931271970128
 10
100.8063830866572
 20
56.36052824930127
 10
100.9629876194572
 20
56.36143225410126
 10
101.1236771298572
 20
56.36199584450128
 10
101.2883796306572
 20
56.36219012770126
  0
LWPOLYLINE
  5
E6
330
2
100
AcDbEntity
  8
0
100
AcDbPolyline
 90
       71
 70
     0
 43
0.0
 10
105.5751692178572
 20
53.85335832770127
 10
105.3730713234572
 20
53.89636437250127
 10
105.1699453762572
 20
53.93790824290127
 10
104.9657377186572
 20
53.97798385090126
 10
104.7608774018572
 20
54.01649694050127
 10
104.5559073346572
 20
54.05333872770126
 10
104.3513431122572
 20
54.08843047490126
 10
104.1475837490572
 20
54.12172249730128
 10
103.9445892450572
 20
54.15325128290127
 10
103.7418022194572
 20
54.18312198530128
 10
103.5370347618572
 20
54.21162826850127
 10
103.3981405394572
 20
54.23003305730128
 10
103.2564399314572
 20
54.24802579490128
 10
103.1111603202572
 20
54.26564937570126
 10
102.9617136146572
 20
54.28292104930128
 10
102.8082498514572
 20
54.29975545570127
 10
102.6511035970572
 20
54.31604159170126
 10
102.4906769410572
 20
54.33166974690127
 10
102.3276420610572
 20
54.34653538690128
 10
102.1627386562572
 20
54.36053527490128
 10
101.9964647314572
 20
54.37358625090126
 10
101.8283515074572
 20
54.38568546210126
 10
101.6576885106572
 20
54.39685012930127
 10
101.5275676610572
 20
54.40461653730128
 10
101.3951756722572
 20
54.41184924930126
 10
101.2600752946572
 20
54.41853056450128
 10
101.1218292770572
 20
54.42464277890127
 10
100.9799940530572
 20
54.43016066370129
 10
100.8341007698572
 20
54.43502887970126
 10
100.6836742578572
 20
54.43918456290126
 10
100.5282393506572
 20
54.44256484930128
 10
100.3999941058572
 20
54.44466415810126
 10
100.2681643346572
 20
54.44616846690127
 10
100.1326749954572
 20
54.44701926210126
 10
99.99345104185726
 20
54.44715803170126
 10
99.85041743385727
 20
54.44652626210126
 10
99.70354088665727
 20
54.44506490050128
 10
99.55295514745726
 20
54.44271274210127
 10
99.39883572505726
 20
54.43940803970128
 10
99.24135812665724
 20
54.43508905090126
 10
99.08069786265727
 20
54.42969402690128
 10
98.87575917465724
 20
54.42135939970126
 10
98.66703394425726
 20
54.41122472930127
 10
98.45543431385726
 20
54.39926775010127
 10
98.24187242905725
 20
54.38546620130129
 10
98.02717711225724
 20
54.36980334210128
 10
97.81184390745726
 20
54.35228453410127
 10
97.59660655385726
 20
54.33296991970127
 10
97.38348483385728
 20
54.31211668130126
 10
97.17415062425727
 20
54.28995092130128
 10
96.96759811225726
 20
54.26637736450127
 10
96.76215206105727
 20
54.24122039170126
 10
96.55613723865727
 20
54.21430438530126
 10
96.34849272985725
 20
54.18552289890127
 10
96.14061489465726
 20
54.15504616930127
 10
95.93414890745725
 20
54.12307449410127
 10
95.72927791865726
 20
54.08965173410127
 10
95.52599015225727
 20
54.05481834370127
 10
95.32495616505725
 20
54.01875757570127
 10
95.12701709465725
 20
53.98168838050128
 10
94.93301407865727
 20
53.94382971330128
 10
94.78117068825724
 20
53.91312023490127
 10
94.63257428345725
 20
53.88215016450127
 10
94.48741444505726
 20
53.85102404290126
 10
94.34588075385725
 20
53.81984641090127
 10
94.20816279225725
 20
53.78872180930128
 10
94.07440616665725
 20
53.75774419810127
 10
93.94458058265726
 20
53.72696521730128
 10
93.81861177305726
 20
53.69642592130128
 10
93.69642546745726
 20
53.66616737090126
 10
93.57794739705726
 20
53.63623062050127
  0
LWPOLYLINE
  5
E7
330
2
100
AcDbEntity
  8
0
100
AcDbPolyline
 90
       73
 70
     0
 43
0.0
 10
104.9419966258572
 20
53.06928096610127
 10
104.7362352706572
 20
53.10872328610128
 10
104.5296175330572
 20
53.14732811010128
 10
104.3228393650572
 20
53.18466734210128
 10
104.1165783522572
 20
53.22036847970128
 10
104.0134329106572
 20
53.23761893890128
 10
103.9092926962572
 20
53.25462657410128
 10
103.8030959426572
 20
53.27155467330126
 10
103.6938752114572
 20
53.28852717890126
 10
103.6189075602572
 20
53.29992257890125
 10
103.5418503090572
 20
53.31141849890127
 10
103.4623773426572
 20
53.32304501090127
 10
103.3801946418572
 20
53.33482572930129
 10
103.2951365890572
 20
53.34675844450126
 10
103.2070696690572
 20
53.35883448610127
 10
103.1158801650572
 20
53.37104159330127
 10
103.0215335794572
 20
53.38335311970126
 10
102.9240152130572
 20
53.39573882690126
 10
102.8233083458572
 20
53.40816802690127
 10
102.7193881714572
 20
53.42060826370127
 10
102.6122278562572
 20
53.43302662850127
 10
102.5017890770572
 20
53.44539038050126
 10
102.3879875298572
 20
53.45766742530128
 10
102.2707274130572
 20
53.46982582850128
 10
102.1498987442572
 20
53.48183286050127
 10
102.0253348146572
 20
53.49365260610127
 10
101.8968547314572
 20
53.50524835170128
 10
101.7642882754572
 20
53.51657955650129
 10
101.6275079026572
 20
53.52759035810127
 10
101.4863967458572
 20
53.53822106370128
 10
101.3408011154572
 20
53.54841031650128
 10
101.1904200530572
 20
53.55809007330126
 10
101.0349157842572
 20
53.56719062690126
 10
100.9147005602572
 20
53.57359109250126
 10
100.7911406850572
 20
53.57957965570128
 10
100.6639633074572
 20
53.58510942690128
 10
100.5328955746572
 20
53.59013351490128
 10
100.3976779042572
 20
53.59459784450127
 10
100.2581037746572
 20
53.59841960770125
 10
100.1139799298572
 20
53.60150880770127
 10
99.96511311385726
 20
53.60377544930128
 10
99.81137552345726
 20
53.60512328450127
 10
99.65290116825727
 20
53.60543105250127
 10
99.48988950585727
 20
53.60457124290127
 10
99.32254000025725
 20
53.60241634210126
 10
99.15117358905726
 20
53.59884678370128
 10
98.97659714425726
 20
53.59377478850126
 10
98.79952262745726
 20
53.58710401730127
 10
98.61979645145726
 20
53.57867213250128
 10
98.43741519065725
 20
53.56834494210128
 10
98.25384157465727
 20
53.55616683650126
 10
98.07090488185727
 20
53.54222685730127
 10
97.89043438265725
 20
53.52661403970128
 10
97.71378612505726
 20
53.50940036450126
 10
97.54042323225725
 20
53.49058958530128
 10
97.36969019865725
 20
53.47020584770127
 10
97.20234990585726
 20
53.44842309890125
 10
97.03918473945726
 20
53.42539928130128
 10
96.87963670585725
 20
53.40107849890128
 10
96.72281271545726
 20
53.37535140290126
 10
96.56781968025725
 20
53.34810864290128
 10
96.36281408025727
 20
53.30927277410125
 10
96.15944226905725
 20
53.26749584450126
 10
95.95767071385726
 20
53.22272570850128
 10
95.75744579545725
 20
53.17491375810127
 10
95.55863352185726
 20
53.12402552450127
 10
95.36107981145725
 20
53.07003007650127
 10
95.16466052505725
 20
53.01290413570126
 10
94.96937129305726
 20
52.95265502690128
 10
94.77523769145724
 20
52.88929772770126
 10
94.58227893945725
 20
52.82284560770128
 10
94.39048884345726
 20
52.75330559650126
 10
94.19985485945725
 20
52.68068301730128
  0
LWPOLYLINE
  5
E8
330
2
100
AcDbEntity
  8
0
100
AcDbPolyline
 90
       31
 70
     0
 43
0.0
 10
90.37528676025726
 20
50.41232437250127
 10
90.31678891225727
 20
50.36428863810127
 10
90.25970817945724
 20
50.31678489250126
 10
90.20407232025725
 20
50.26985627010128
 10
90.14990909625726
 20
50.22354590530127
 10
90.09722180505725
 20
50.17787548290127
 10
90.04591587865725
 20
50.13278087010127
 10
89.99587228505726
 20
50.08817647970127
 10
89.94697199225726
 20
50.04397672770128
 10
89.88336347705725
 20
49.98553679970126
 10
89.82140856345726
 20
49.92753059810127
 10
89.76093992825726
 20
49.86982464450128
 10
89.70178532025725
 20
49.81227563490128
 10
89.64375277625725
 20
49.75470097730127
 10
89.58664540505726
 20
49.69690825410125
 10
89.50237294265726
 20
49.60945762690127
 10
89.41958218585725
 20
49.52084348290128
 10
89.33815791705725
 20
49.43087655330126
 10
89.25815179065725
 20
49.33957020770129
 10
89.17963827865724
 20
49.24698437250126
 10
89.10261626905725
 20
49.15316255170129
 10
89.02707451545726
 20
49.05815293250128
 10
88.95303681625724
 20
48.96203886690128
 10
88.88051151865726
 20
48.86487891810128
 10
88.80941012505726
 20
48.76659732450128
 10
88.73962423065725
 20
48.66708411330129
 10
88.67106260665726
 20
48.56622681890127
 10
88.60363359065726
 20
48.46389758850128
 10
88.53722656505727
 20
48.35990955330126
 10
88.47175543385725
 20
48.25410375010128
 10
88.40725115065726
 20
48.14649187330127
  0
LWPOLYLINE
  5
E9
330
2
100
AcDbEntity
  8
0
100
AcDbPolyline
 90
        5
 70
     0
 43
0.0
 10
78.28796243865726
 20
50.19325872290128
 10
77.97443351705727
 20
49.44532344130127
 10
77.68814551545725
 20
48.68316212610128
 10
77.42997566745725
 20
47.90850510850126
 10
77.32262780505725
 20
47.55445123170128
  0
LWPOLYLINE
  5
EA
330
2
100
AcDbEntity
  8
0
100
AcDbPolyline
 90
       93
 70
     0
 43
0.0
 10
97.79291617785725
 20
53.51568450690127
 10
97.56872067705726
 20
53.49231298690128
 10
97.35025882905725
 20
53.46647531650126
 10
97.13754695865725
 20
53.43830208770126
 10
96.93061197145727
 20
53.40792673250127
 10
96.72947715545726
 20
53.37548435810126
 10
96.53410284345724
 20
53.34110290210128
 10
96.34374046265726
 20
53.30476670370126
 10
96.15692934745727
 20
53.26629297570128
 10
95.97268063705726
 20
53.22554653250128
 10
95.79067264025725
 20
53.18250574530129
 10
95.61060858905724
 20
53.13714079170129
 10
95.43218912825725
 20
53.08940839650128
 10
95.25512205785725
 20
53.03925421890127
 10
95.07908787545725
 20
52.98660254210128
 10
94.90382084185725
 20
52.93137985250126
 10
94.72931466585725
 20
52.87358819970126
 10
94.55564485305727
 20
52.81325298050126
 10
94.38275427865725
 20
52.75035224290127
 10
94.21052511705726
 20
52.68483753090126
 10
94.03886181625725
 20
52.61666208610129
 10
93.86769902265726
 20
52.54578511650127
 10
93.69701606425726
 20
52.47217987810128
 10
93.52673995545726
 20
52.39579256450127
 10
93.35657581625724
 20
52.31645672770127
 10
93.18619155065725
 20
52.23397880930128
 10
93.01548387385725
 20
52.14826445570128
 10
92.84456032985726
 20
52.05931933410127
 10
92.67360555545726
 20
51.96719347650128
 10
92.50280250905726
 20
51.87194199010128
 10
92.33267898425726
 20
51.77383177890127
 10
92.16177514105726
 20
51.67194959170126
 10
91.98970465465725
 20
51.56598540610128
 10
91.82568110745725
 20
51.46184696770126
 10
91.67724229145724
 20
51.36501368610126
 10
91.54252757145725
 20
51.27503897730128
 10
91.41853467385727
 20
51.19049339970127
 10
91.30361526905725
 20
51.11067709890128
 10
91.19642088025726
 20
51.03498243650128
 10
91.09590763225725
 20
50.96293319650126
 10
91.00178268345727
 20
50.89453437890128
 10
90.91209457305726
 20
50.82853651970125
 10
90.82131111065725
 20
50.76086574690126
 10
90.72470857145725
 20
50.68779261570128
 10
90.62014338265726
 20
50.60731658850127
 10
90.50379149465726
 20
50.51588682850127
 10
90.37534469305725
 20
50.41237240930127
 10
90.24510892505725
 20
50.30431272610127
 10
90.12219697305726
 20
50.19912393250127
 10
90.00681442105726
 20
50.09723159490127
 10
89.89739932185726
 20
49.99749938530126
 10
89.79326856505725
 20
49.89949545730127
 10
89.69374747865726
 20
49.80275577090129
 10
89.59815670265726
 20
49.70676088450128
 10
89.50634558745724
 20
49.61148699490127
 10
89.42076601305727
 20
49.51974955810126
 10
89.34414039065726
 20
49.43503119970128
 10
89.27470116665725
 20
49.35600580770127
 10
89.20787799065726
 20
49.27783315330126
 10
89.14120264185726
 20
49.19768376130128
 10
89.07463664025724
 20
49.11545127330126
 10
89.00826363865725
 20
49.03117353730127
 10
88.94191685625726
 20
48.94456390850127
 10
88.87553683225725
 20
48.85544947810126
 10
88.80901461145725
 20
48.76357038210128
 10
88.74224266265725
 20
48.66864029250127
 10
88.67508963065725
 20
48.57030597730127
 10
88.60739970105726
 20
48.46813637890128
 10
88.53898858425726
 20
48.36160440930126
 10
88.46959252825726
 20
48.24998781890127
 10
88.39888119385724
 20
48.13235687330126
 10
88.32705383705727
 20
48.00858113250126
 10
88.25525123705725
 20
47.88023134850127
 10
88.18452849945726
 20
47.74897418210128
 10
88.11508265785725
 20
47.61506707810127
 10
88.04687377305725
 20
47.47832856930128
 10
87.97994332665727
 20
47.33872413250128
 10
87.91431473465726
 20
47.19617809730126
 10
87.85000613305726
 20
47.05059447010126
 10
87.78703976025726
 20
46.90187609250128
 10
87.72564996825726
 20
46.75044996930128
 10
87.66631723545726
 20
46.59747833090128
 10
87.60933682425726
 20
46.44383541250127
 10
87.55464473945727
 20
46.28951873250128
 10
87.50205535545726
 20
46.13415824930126
 10
87.45146064185727
 20
45.97757679810126
 10
87.40288973465727
 20
45.82001489250126
 10
87.35640169145725
 20
45.66184546850126
 10
87.31202821305727
 20
45.50339738050126
 10
87.26977022265726
 20
45.34492732770127
 10
87.22960515385725
 20
45.18662755970126
 10
87.19150937305725
 20
45.02870247330128
 10
87.15545367865727
 20
44.87135061730126
  0
LWPOLYLINE
  5
EB
330
2
100
AcDbEntity
  8
0
100
AcDbPolyline
 90
       75
 70
     0
 43
0.0
 10
94.16787180185727
 20
57.67130019010128
 10
93.89384341145726
 20
57.64096694370127
 10
93.61957333465724
 20
57.60761997410128
 10
93.35043460185726
 20
57.57204187010126
 10
93.08872095545726
 20
57.53458928450126
 10
92.83349290905725
 20
57.49523144130129
 10
92.58409374585726
 20
57.45394898050128
 10
92.34034079865725
 20
57.41078812930126
 10
92.10179001625725
 20
57.36574219170126
 10
91.86777928825724
 20
57.31875160610127
 10
91.63770819865726
 20
57.26975562210128
 10
91.41131402585726
 20
57.21874901890126
 10
91.18848688505726
 20
57.16575456610127
 10
90.96907751225726
 20
57.11078175170126
 10
90.75288574585725
 20
57.05382099810126
 10
90.53975289465725
 20
56.99486767330128
 10
90.32959223385725
 20
56.93393313410126
 10
90.12212008345725
 20
56.87096593730126
 10
89.91674961305724
 20
56.80580978210127
 10
89.71297741305725
 20
56.73831634370128
 10
89.51061662745727
 20
56.66842521570126
 10
89.30962211865725
 20
56.59611796930128
 10
89.10994084505725
 20
56.52137172450128
 10
88.91140495705725
 20
56.44411663330126
 10
88.71384516505726
 20
56.36427320290128
 10
88.51722796345725
 20
56.28180986210129
 10
88.32159965945725
 20
56.19672829890126
 10
88.12647458425727
 20
56.10879008930126
 10
87.93108926425725
 20
56.01761053890126
 10
87.73524142425726
 20
55.92304295490126
 10
87.53892057625725
 20
55.82501947330126
 10
87.34207252665726
 20
55.72344822530126
 10
87.14465145305727
 20
55.61823734690128
 10
86.94664349625725
 20
55.50930865570126
 10
86.74803251065725
 20
55.39657979970127
 10
86.54883585145725
 20
55.27998573730127
 10
86.34915579545724
 20
55.15950893730127
 10
86.14923527705725
 20
55.03521910690128
 10
85.94936965785725
 20
54.90723481890126
 10
85.74966743065726
 20
54.77557070530128
 10
85.55012321465724
 20
54.64016991010126
 10
85.35068093785724
 20
54.50093791970127
 10
85.15133045785725
 20
54.35780431330127
 10
84.95250371225726
 20
54.21102786530127
 10
84.75515519545727
 20
54.06128717890126
 10
84.56056297945726
 20
53.90954623810128
 10
84.36903494425726
 20
53.75607380450128
 10
84.18051969625725
 20
53.60086300290126
 10
83.99509578905727
 20
53.44401386530129
 10
83.81274100505725
 20
53.28554491330127
 10
83.63346740185725
 20
53.12550318850128
 10
83.45725292345724
 20
52.96390629890126
 10
83.28408523545725
 20
52.80077982050127
 10
83.11395488185725
 20
52.63615159970126
 10
82.94684888825726
 20
52.47004555330128
 10
82.78286154265726
 20
52.30259462850128
 10
82.62209233145725
 20
52.13394332770127
 10
82.46456362425726
 20
51.96416153410126
 10
82.31025000665725
 20
51.79326946210128
 10
82.15910673145726
 20
51.62126405410126
 10
82.01108373945727
 20
51.44813323330126
 10
81.86617358105726
 20
51.27391182050127
 10
81.72437045305725
 20
51.09863715650127
 10
81.58566513785727
 20
50.92234241410128
 10
81.45001631865724
 20
50.74501864610127
 10
81.31733714585726
 20
50.56659273250128
 10
81.18759765785725
 20
50.38706093570127
 10
81.06077497305724
 20
50.20642687330127
 10
80.93690336665725
 20
50.02477725410128
 10
80.81606360345725
 20
49.84227183650128
 10
80.69830053145725
 20
49.65902256770127
 10
80.58360736665724
 20
49.47506839330128
 10
80.47194506585725
 20
49.29039603970128
 10
80.36323759225727
 20
49.10492486210128
 10
80.25741501305725
 20
48.91857479490127
  0
LWPOLYLINE
  5
EC
330
2
100
AcDbEntity
  8
0
100
AcDbPolyline
 90
        7
 70
     0
 43
0.0
 10
77.00008350905725
 20
46.32637629570126
 10
76.85145182425725
 20
45.63433273410126
 10
76.72138888985725
 20
44.91408084290128
 10
76.61391481465725
 20
44.17822040930127
 10
76.53030900025726
 20
43.42763976770126
 10
76.47178175545725
 20
42.66292053250127
 10
76.46117858425725
 20
42.46893664290126
  0
LWPOLYLINE
  5
ED
330
2
100
AcDbEntity
  8
0
100
AcDbPolyline
 90
       24
 70
     0
 43
0.0
 10
78.85720822425724
 20
45.75873837730128
 10
78.79870373945727
 20
45.57545705410126
 10
78.74180488505726
 20
45.38856163970126
 10
78.68694473305726
 20
45.19917027330126
 10
78.63459907545726
 20
45.00871780290125
 10
78.58526222105727
 20
44.81905511810126
 10
78.53867869465725
 20
44.62933781250126
 10
78.49479322265725
 20
44.43938970050126
 10
78.45362797465725
 20
44.24935218370126
 10
78.41515476185725
 20
44.05914628130128
 10
78.37935407865725
 20
43.86871229090127
 10
78.34622081305726
 20
43.67805290530128
 10
78.31574926105725
 20
43.48716447810128
 10
78.28792807705726
 20
43.29599784610127
 10
78.26275131545725
 20
43.10452323650127
 10
78.24021586265726
 20
42.91271825570126
 10
78.22032059385725
 20
42.72056469250126
 10
78.20306560665724
 20
42.52804550210128
 10
78.18844809785725
 20
42.33508799010126
 10
78.17646569305725
 20
42.14155429250126
 10
78.16713624985727
 20
41.94761643010127
 10
78.16046818105725
 20
41.75344917890128
 10
78.15644838265725
 20
41.55838359970127
 10
78.15509973945726
 20
41.36219012770126
  0
LWPOLYLINE
  5
EE
330
2
100
AcDbEntity
  8
0
100
AcDbPolyline
 90
       33
 70
     0
 43
0.0
 10
88.40725115545726
 20
48.14649189570127
 10
88.35913804665725
 20
48.06392654210128
 10
88.31282159065725
 20
47.98249291170129
 10
88.26825789945726
 20
47.90225159330126
 10
88.22540308345725
 20
47.82326317090126
 10
88.18421326105726
 20
47.74558823490127
 10
88.14463767705726
 20
47.66926817410126
 10
88.10659812345724
 20
47.59426759490128
 10
88.07000952825726
 20
47.52053190530128
 10
88.03478681945724
 20
47.44800651650126
 10
88.00084492185726
 20
47.37663683490126
 10
87.96009794105726
 20
47.28896945410127
 10
87.92110624665726
 20
47.20293196770126
 10
87.88375677945726
 20
47.11843377570128
 10
87.84793648345726
 20
47.03538427810127
 10
87.81353572505725
 20
46.95369006530126
 10
87.78045857465725
 20
46.87324649890126
 10
87.74861252665726
 20
46.79394613250127
 10
87.71790507545725
 20
46.71568151490126
 10
87.67858109785725
 20
46.61275132450126
 10
87.64094570585726
 20
46.51119980450127
 10
87.60482776505725
 20
46.41075530530128
 10
87.57006202105726
 20
46.31114279170128
 10
87.53650675385726
 20
46.21207367330126
 10
87.50402612985727
 20
46.11325597410126
 10
87.45708266425726
 20
45.96500857250126
 10
87.41215104185725
 20
45.81656313730127
 10
87.36913464665725
 20
45.66781854050126
 10
87.32795227705725
 20
45.51869623810128
 10
87.28852746265726
 20
45.36911146850127
 10
87.25078725945726
 20
45.21893204290129
 10
87.21466797785726
 20
45.06804655330128
 10
87.18013942105725
 20
44.91647418690127
  0
LWPOLYLINE
  5
EF
330
2
100
AcDbEntity
  8
0
100
AcDbPolyline
 90
        3
 70
     0
 43
0.0
 10
76.46117858425725
 20
42.46893664290126
 10
76.44922855385726
 20
42.19785769410127
 10
76.43338581785726
 20
41.36219012770126
  0
LWPOLYLINE
  5
F0
330
2
100
AcDbEntity
  8
0
100
AcDbPolyline
 90
       22
 70
     0
 43
0.0
 10
86.67687234425725
 20
43.70051814530126
 10
86.64638466905726
 20
43.64401000130126
 10
86.61677557625726
 20
43.58802352290126
 10
86.58827333465726
 20
43.53253454370127
 10
86.56107167225725
 20
43.47746436610125
 10
86.54162279865726
 20
43.43634588610126
 10
86.52299016505725
 20
43.39512543970127
 10
86.50515743385724
 20
43.35356772130126
 10
86.48814014105726
 20
43.31166931010128
 10
86.47193214905726
 20
43.26942736930127
 10
86.45640875865726
 20
43.22660951010127
 10
86.44636001145725
 20
43.19757415650127
 10
86.43647758105727
 20
43.16790583010126
 10
86.42669211545726
 20
43.13735631010127
 10
86.41695798425727
 20
43.10575628770126
 10
86.40732445305726
 20
43.07325209730126
 10
86.39786451225726
 20
43.04006898530127
 10
86.38411836025724
 20
42.98942229890127
 10
86.37092502425725
 20
42.93796446850126
 10
86.35415594905726
 20
42.86834246050128
 10
86.33815465305726
 20
42.79747529410127
 10
86.32270966905725
 20
42.72518716130128
  0
LWPOLYLINE
  5
F1
330
2
100
AcDbEntity
  8
0
100
AcDbPolyline
 90
       12
 70
     0
 43
0.0
 10
86.30208448025726
 20
42.71119388770126
 10
86.35254531545726
 20
42.93410983970128
 10
86.40746365625725
 20
43.12782045570128
 10
86.46675782905726
 20
43.29374429250125
 10
86.53673575705726
 20
43.45147851650128
 10
86.62557810265726
 20
43.62300944610126
 10
86.73015826905725
 20
43.81251207970126
 10
86.84550977625725
 20
44.02754420290128
 10
86.95208665465726
 20
44.25022510210126
 10
87.03605063385726
 20
44.45877359170125
 10
87.10244098265725
 20
44.66218245570127
 10
87.15545362585727
 20
44.87135051010127
  0
LWPOLYLINE
  5
F2
330
2
100
AcDbEntity
  8
0
100
AcDbPolyline
 90
       53
 70
     0
 43
0.0
 10
83.91600169945725
 20
41.36219012770126
 10
83.91786332025725
 20
41.46587856610127
 10
83.92327854745726
 20
41.56545117250127
 10
83.93191666745726
 20
41.65943397410127
 10
83.94359303065725
 20
41.74821431810127
 10
83.95859716985725
 20
41.83460677570127
 10
83.97720710905725
 20
41.91987996610127
 10
83.99919989625727
 20
42.00237742690127
 10
84.02462245145725
 20
42.08171112930126
 10
84.05404719225726
 20
42.15885942050127
 10
84.08787587385726
 20
42.23379876450127
 10
84.12603403865725
 20
42.30527796290127
 10
84.16520807385726
 20
42.36721015490127
 10
84.20127058585725
 20
42.41504013570128
 10
84.23521780505726
 20
42.45111189250127
 10
84.27082788345726
 20
42.47939314690127
 10
84.31116269945725
 20
42.50175342370127
 10
84.35687509465726
 20
42.51880337250127
 10
84.40728876665726
 20
42.53302562690127
 10
84.46239398265726
 20
42.54556477410126
 10
84.52236647865726
 20
42.55770129250127
 10
84.58767090585727
 20
42.57031056610126
 10
84.65888597465726
 20
42.58394715970126
 10
84.73668229945726
 20
42.59959497250128
 10
84.82179812665725
 20
42.61862820130128
 10
84.91511579385726
 20
42.64253763810127
 10
85.01778523705725
 20
42.67308372610126
 10
85.13140281785727
 20
42.71203051170127
 10
85.25743017305726
 20
42.76152932130128
 10
85.39603858425726
 20
42.82402197090127
 10
85.53722642905725
 20
42.89672465250126
 10
85.67037921465725
 20
42.97450443330126
 10
85.79416601145727
 20
43.05545529890127
 10
85.91326100025725
 20
43.14219167650128
 10
86.03658457465725
 20
43.24291007330126
 10
86.16910883385726
 20
43.36564178210127
 10
86.29725133465726
 20
43.50099835330127
 10
86.40993679705726
 20
43.63529535810127
 10
86.50443327705726
 20
43.76003362210127
 10
86.58561081785725
 20
43.87648127330126
 10
86.65723370105727
 20
43.98605571010128
 10
86.72120340345726
 20
44.08886743330126
 10
86.77882531545725
 20
44.18491376130126
 10
86.83077176185724
 20
44.27378813890126
 10
86.87738095545725
 20
44.35503595170127
 10
86.91893211705727
 20
44.42858863490127
 10
86.95629164665726
 20
44.49560073090125
 10
86.99078628185725
 20
44.55819506530128
 10
87.02376768025727
 20
44.61870918210126
 10
87.05651403865726
 20
44.67963275490126
 10
87.08942112505726
 20
44.74195629410127
 10
87.12241927385724
 20
44.80581714210126
 10
87.15545362585727
 20
44.87135051010127
  0
LWPOLYLINE
  5
F3
330
2
100
AcDbEntity
  8
0
100
AcDbPolyline
 90
       22
 70
     0
 43
0.0
 10
86.32270966905725
 20
42.72518716130128
 10
86.30992524665726
 20
42.66258834210127
 10
86.29765166105725
 20
42.59984423490126
 10
86.28589629625725
 20
42.53697452770127
 10
86.27466554425726
 20
42.47398767010126
 10
86.26396183705725
 20
42.41084717570127
 10
86.25378661465726
 20
42.34750532290127
 10
86.24414289625725
 20
42.28391814530127
 10
86.23504000505725
 20
42.22005671330127
 10
86.22648884025725
 20
42.15589585090127
 10
86.21850161305726
 20
42.09141582690127
 10
86.21109577785725
 20
42.02661868770127
 10
86.20429010265725
 20
41.96151192130126
 10
86.19810367385724
 20
41.89610112770127
 10
86.19255688025726
 20
41.83038436770127
 10
86.18767043545725
 20
41.76435780930127
 10
86.18346577785727
 20
41.69802145250126
 10
86.17996723385726
 20
41.63139060450127
 10
86.17719986265726
 20
41.56448440450127
 10
86.17518913305726
 20
41.49731773090127
 10
86.17396218265724
 20
41.42988843970127
 10
86.17354656505725
 20
41.36219012930126
  0
LWPOLYLINE
  5
F4
330
2
100
AcDbEntity
  8
0
100
AcDbPolyline
 90
       25
 70
     0
 43
0.0
 10
87.18013942105725
 20
44.91647418690127
 10
87.16461928505726
 20
44.84984403650128
 10
87.14767302745725
 20
44.78304242690126
 10
87.12925076825726
 20
44.71603093570126
 10
87.10941816185727
 20
44.64914163650127
 10
87.08828032985726
 20
44.58279311010127
 10
87.06598475065726
 20
44.51737945570127
 10
87.04265983385726
 20
44.45318096770129
 10
87.01831536665725
 20
44.39004722050126
 10
87.00148168665725
 20
44.34836680770127
 10
86.98401333465724
 20
44.30663654850127
 10
86.96573759865726
 20
44.26444809410128
 10
86.95139375545725
 20
44.23226191170127
 10
86.93640592985726
 20
44.19942499650128
 10
86.92068143545725
 20
44.16577405090126
 10
86.90412759225726
 20
44.13114577250127
 10
86.88666281785726
 20
44.09539940610128
 10
86.86824994425725
 20
44.05848438850128
 10
86.84886291065726
 20
44.02037270050127
 10
86.82847564985726
 20
43.98103632450127
 10
86.80710241465726
 20
43.94050013730129
 10
86.78491870745725
 20
43.89900061890128
 10
86.76214034585726
 20
43.85682714050128
 10
86.73898314585725
 20
43.81426907810126
 10
86.67687234425725
 20
43.70051814530126
  0
LWPOLYLINE
  5
F5
330
2
100
AcDbEntity
  8
0
100
AcDbPolyline
 90
       18
 70
     0
 43
0.0
 10
80.25741501305725
 20
48.91857479490127
 10
80.15625648025725
 20
48.73542118690128
 10
80.05762339385725
 20
48.55240632770128
 10
79.96145835065727
 20
48.36943156130127
 10
79.86772772505725
 20
48.18643288290127
 10
79.77639451385726
 20
48.00332936930127
 10
79.68738779545725
 20
47.81995798530127
 10
79.60064156985726
 20
47.63614516770127
 10
79.51612912025726
 20
47.45178092770126
 10
79.43383989465726
 20
47.26677726370127
 10
79.35379622585725
 20
47.08112155010127
 10
79.27606234105725
 20
46.89490788130126
 10
79.20058093945725
 20
46.70793347970127
 10
79.12718378585726
 20
46.51967398530127
 10
79.05612284185726
 20
46.33065987490127
 10
78.98742598265726
 20
46.14086840930127
 10
78.92108663065726
 20
45.95016330210126
 10
78.85720822425724
 20
45.75873837730128
  0
LWPOLYLINE
  5
F6
330
2
100
AcDbEntity
  8
0
100
AcDbPolyline
 90
        4
 70
     0
 43
0.0
 10
77.32262780505725
 20
47.55445123170128
 10
77.23459873785725
 20
47.24666465890126
 10
77.10912249305725
 20
46.77515667810126
 10
77.00008332505726
 20
46.32637550050128
  0
LWPOLYLINE
  5
F7
330
2
100
AcDbEntity
  8
0
100
AcDbPolyline
 90
       59
 70
     0
 43
0.0
 10
93.57794739705726
 20
53.63623062050127
 10
93.38713351705726
 20
53.58595649570128
 10
93.19886826905726
 20
53.53321052930127
 10
93.01314905305725
 20
53.47807649410126
 10
92.82999779705725
 20
53.42064754050127
 10
92.64953451705725
 20
53.36105432450128
 10
92.47190375865725
 20
53.29943688610126
 10
92.29723894745726
 20
53.23593499010127
 10
92.12562904985725
 20
53.17068732290127
 10
91.95715191385726
 20
53.10383230370127
 10
91.79188600025725
 20
53.03551011810128
 10
91.62991219705725
 20
52.96586800930126
 10
91.47131200345725
 20
52.89505499010127
 10
91.31621436505724
 20
52.82324875170127
 10
91.16493801465725
 20
52.75074171330127
 10
91.01784913785726
 20
52.67785497890128
 10
90.91049654265725
 20
52.62313681730126
 10
90.80583437625724
 20
52.56853857890127
 10
90.70399163705726
 20
52.51421314690128
 10
90.60509732025726
 20
52.46031340770128
 10
90.50924440345726
 20
52.40697243490126
 10
90.41638176665726
 20
52.35424406370126
 10
90.32642226745725
 20
52.30216232130127
 10
90.23927876185727
 20
52.25076123330126
 10
90.12731582745727
 20
52.18333488130127
 10
90.01998914585726
 20
52.11720467970128
 10
89.91708367225726
 20
52.05239623170126
 10
89.81839168505727
 20
51.98893383330127
 10
89.72373472985726
 20
51.92683653570128
 10
89.63294167225726
 20
51.86612208290128
 10
89.54584575865727
 20
51.80680644130126
 10
89.46229777465726
 20
51.74889848450127
 10
89.38215288505725
 20
51.69240530690126
 10
89.30525994585726
 20
51.63732506370127
 10
89.23144257145725
 20
51.58362012770126
 10
89.16051806585725
 20
51.53124393250127
 10
89.09230102425727
 20
51.48014321250127
 10
89.02659521625725
 20
51.43023792610128
 10
88.96320170425726
 20
51.38144133890128
 10
88.90191921945726
 20
51.33366052450128
 10
88.84253716505725
 20
51.28677781090127
 10
88.78484261145727
 20
51.24066933730128
 10
88.70099502425725
 20
51.17266962370127
 10
88.61972234105726
 20
51.10560872450128
 10
88.54032263545725
 20
51.03898468130129
 10
88.46225783065724
 20
50.97238583650128
 10
88.38503752025726
 20
50.90542030050127
 10
88.30819815705726
 20
50.83768497890128
 10
88.23129003225725
 20
50.76877106530128
 10
88.15389197785725
 20
50.69825812290128
 10
88.10182316665725
 20
50.65015583330128
 10
88.04926916025726
 20
50.60105174210128
 10
87.99614652505725
 20
50.55084287650126
 10
87.94236327865725
 20
50.49941467170126
 10
87.88779324505725
 20
50.44660619330127
 10
87.83230169625724
 20
50.39224491650128
 10
87.77579457785725
 20
50.33619677410126
 10
87.71834050905725
 20
50.27848153730127
 10
87.66004878105725
 20
50.21915743810126
  0
LWPOLYLINE
  5
F8
330
2
100
AcDbEntity
  8
0
100
AcDbPolyline
 90
       49
 70
     0
 43
0.0
 10
87.66004878105725
 20
50.21915743810126
 10
87.67930782585725
 20
50.30563184930127
 10
87.69998698745727
 20
50.39292846530128
 10
87.72213127225725
 20
50.48103338850125
 10
87.74578134105727
 20
50.56991929730128
 10
87.77096045625725
 20
50.65950521250127
 10
87.79768753785726
 20
50.74969673570127
 10
87.82598423065726
 20
50.84041084290126
 10
87.85588310745726
 20
50.93161000130127
 10
87.88741946905725
 20
51.02326805570126
 10
87.92062306585725
 20
51.11534615810126
 10
87.95550145785725
 20
51.20775470850128
 10
87.99205665145725
 20
51.30039141730128
 10
88.03029673305726
 20
51.39317088770127
 10
88.07025410105726
 20
51.48607528450128
 10
88.11196723385725
 20
51.57910366690126
 10
88.15547381145725
 20
51.67225099490128
 10
88.20080833625725
 20
51.76549584450126
 10
88.24800451545725
 20
51.85881269890126
 10
88.29710003865725
 20
51.95218117890127
 10
88.34814853785726
 20
52.04560148130127
 10
88.40120762585724
 20
52.13907894370127
 10
88.45633238105724
 20
52.23261167650128
 10
88.51356772505726
 20
52.32616889090127
 10
88.57295604185726
 20
52.41971257410128
 10
88.63453968025726
 20
52.51320347010127
 10
88.69836084345726
 20
52.60659735330128
 10
88.76446169625726
 20
52.69984876290127
 10
88.83287754425726
 20
52.79290290850127
 10
88.90361625305727
 20
52.88566772610128
 10
88.97667882265725
 20
52.97804182530126
 10
89.05205431065725
 20
53.06991467650127
 10
89.12968397945725
 20
53.16113918850127
 10
89.20949714105725
 20
53.25155912930128
 10
89.29143033945726
 20
53.34103087810126
 10
89.37544904025726
 20
53.42946126690129
 10
89.46152593785726
 20
53.51676973250127
 10
89.54962162425726
 20
53.60286816930127
 10
89.63964827225726
 20
53.68763828130127
 10
89.73150595065726
 20
53.77095422530127
 10
89.82510356185725
 20
53.85270203330128
 10
89.92038533785725
 20
53.93281525250128
 10
90.01730434745725
 20
54.01123930530127
 10
90.11579931705725
 20
54.08791239810128
 10
90.21575163225724
 20
54.16274387010128
 10
90.31702833785727
 20
54.23563584450127
 10
90.41951655545725
 20
54.30650759650126
 10
90.52318369945727
 20
54.37534702210126
 10
90.62801725785726
 20
54.44215916930128
  0
LWPOLYLINE
  5
F9
330
2
100
AcDbEntity
  8
0
100
AcDbPolyline
 90
       35
 70
     0
 43
0.0
 10
94.19985485625725
 20
52.68068300930128
 10
94.01023452025725
 20
52.60492457410126
 10
93.82176012825727
 20
52.52609249570127
 10
93.63458148665726
 20
52.44426788130127
 10
93.44874635865727
 20
52.35948333730127
 10
93.26389432825726
 20
52.27157748130128
 10
93.07956293465725
 20
52.18034043010127
 10
92.94138524025726
 20
52.10959521890126
 10
92.80308947065725
 20
52.03673919010128
 10
92.66452482905725
 20
51.96165338690128
 10
92.52554051545727
 20
51.88421884610128
 10
92.38603493625726
 20
51.80434128450127
 10
92.24610330265724
 20
51.72202511010127
 10
92.15257328825726
 20
51.66575955970128
 10
92.05849962585725
 20
51.60814566530127
 10
91.96346383865725
 20
51.54890599010127
 10
91.86719853145726
 20
51.48785894210127
 10
91.77004063385727
 20
51.42520632450126
 10
91.67247815385726
 20
51.36124578690126
 10
91.59939359065726
 20
51.31264222530126
 10
91.52691723865727
 20
51.26387260290127
 10
91.45545249625726
 20
51.21523179970129
 10
91.38477120505726
 20
51.16658537730126
 10
91.29128240025726
 20
51.10143445410128
 10
91.19879373945726
 20
51.03609614210128
 10
91.10759887225725
 20
50.97082284770127
 10
91.01799144505724
 20
50.90586698050126
 10
90.93026510585726
 20
50.84148095010127
 10
90.84471350105726
 20
50.77791716130128
 10
90.76153626585726
 20
50.71534769890127
 10
90.68055697145727
 20
50.65362335170127
 10
90.60150517785727
 20
50.59251458210127
 10
90.52418734425726
 20
50.53185622210128
 10
90.44871752345725
 20
50.47174058050126
 10
90.37528667065727
 20
50.41232433570127
  0
LWPOLYLINE
  5
FA
330
2
100
AcDbEntity
  8
0
100
AcDbPolyline
 90
       23
 70
     0
 43
0.0
 10
97.80048671865726
 20
53.52657872930127
 10
97.86576371065727
 20
53.53257046690126
 10
97.90977765465726
 20
53.53645025890128
 10
97.96104387065724
 20
53.54081246530128
 10
98.01955772025726
 20
53.54559044770127
 10
98.08519890745726
 20
53.55070222050128
 10
98.15773308185725
 20
53.55605345410126
 10
98.23714964025725
 20
53.56156367970126
 10
98.32349236505727
 20
53.56715156770127
 10
98.41672083545725
 20
53.57272616610126
 10
98.51674512345725
 20
53.57819132450126
 10
98.62353840345726
 20
53.58345284130127
 10
98.73703753625726
 20
53.58841320770128
 10
98.85710930745725
 20
53.59297190690128
 10
98.98354435385726
 20
53.59702772930126
 10
99.11626720505726
 20
53.60048636610128
 10
99.25553061785727
 20
53.60325998210126
 10
99.40159467545726
 20
53.60525495970128
 10
99.55468473465726
 20
53.60637286050127
 10
99.71501271065726
 20
53.60651019170126
 10
99.88288016345727
 20
53.60555793890128
 10
100.0585537570572
 20
53.60340064130127
 10
100.2422433762572
 20
53.59991805250126
  0
LWPOLYLINE
  5
FB
330
2
100
AcDbEntity
  8
0
100
AcDbPolyline
 90
       11
 70
     0
 43
0.0
 10
100.4412257010572
 20
53.58840363010128
 10
100.1440375554572
 20
53.59656584450127
 10
99.85331146585727
 20
53.60092087330127
 10
99.56903304985726
 20
53.60158803010128
 10
99.29186716185725
 20
53.59869218850128
 10
99.02239881145726
 20
53.59238690210128
 10
98.76069774265726
 20
53.58283943650127
 10
98.50685233145725
 20
53.57022234530126
 10
98.26107070585727
 20
53.55471883970128
 10
98.02334201785726
 20
53.53650510050127
 10
97.79291617785725
 20
53.51568450690127
  0
LINE
  5
FC
330
2
100
AcDbEntity
  8
0
100
AcDbLine
 10
97.75849777145726
 20
53.52256302370128
 30
0.0
 11
97.80048671865726
 21
53.52657872930127
 31
0.0
  0
LWPOLYLINE
  5
FD
330
2
100
AcDbEntity
  8
0
100
AcDbPolyline
 90
       33
 70
     0
 43
0.0
 10
90.62801725785726
 20
54.44215916930128
 10
90.73172296985726
 20
54.50613448610127
 10
90.83766723865725
 20
54.56993647330128
 10
90.94592686105725
 20
54.63353528130127
 10
91.05657863705726
 20
54.69690106210126
 10
91.16966117785725
 20
54.75998432450126
 10
91.28506036345726
 20
54.82265700130128
 10
91.40262388985727
 20
54.88477137890126
 10
91.52219944985725
 20
54.94617974690126
 10
91.68452020505725
 20
55.02672709570126
 10
91.84990663705725
 20
55.10554497570126
 10
92.01811823385725
 20
55.18242164770126
 10
92.18890216985725
 20
55.25714979490127
 10
92.36195635065726
 20
55.32953979650128
 10
92.53696636345726
 20
55.39940645730126
 10
92.71363566105724
 20
55.46658067490128
 10
92.89173913625726
 20
55.53095771810126
 10
93.07106954905725
 20
55.59244894850127
 10
93.25141654905726
 20
55.65097128770128
 10
93.43255734585724
 20
55.70646390370126
 10
93.61426604505727
 20
55.75887152450127
 10
93.79634330105725
 20
55.80815013250128
 10
93.97869597945726
 20
55.85430072770129
 10
94.16125749785726
 20
55.89733556130127
 10
94.34396208665726
 20
55.93726727650127
 10
94.52674724185726
 20
55.97411008610126
 10
94.70955126585726
 20
56.00787859010129
 10
94.89230889785725
 20
56.03858796610126
 10
95.07494057785725
 20
56.06625568450127
 10
95.25736318105726
 20
56.09089979170128
 10
95.43950144665727
 20
56.11254000130128
 10
95.62131160025726
 20
56.13120269250126
 10
95.80275773465727
 20
56.14691591010128
  0
LWPOLYLINE
  5
FE
330
2
100
AcDbEntity
  8
0
100
AcDbPolyline
 90
       35
 70
     0
 43
0.0
 10
118.3668289170572
 20
51.40973291650126
 10
118.4465791154572
 20
51.22452295650126
 10
118.5363605266572
 20
51.00866225890126
 10
118.6256491186572
 20
50.78574877730128
 10
118.7140779570572
 20
50.55629459330126
 10
118.8014254082572
 20
50.32052261570126
 10
118.8874982018572
 20
50.07861321890127
 10
118.9721603090572
 20
49.83060899170126
 10
119.0552555202572
 20
49.57662261410127
 10
119.1366440786572
 20
49.31673162050128
 10
119.2161844354572
 20
49.05103043170126
 10
119.2937094050572
 20
48.77971818690127
 10
119.3690800802572
 20
48.50292040770128
 10
119.4421315218572
 20
48.22088238850128
 10
119.5127274386572
 20
47.93377098050126
 10
119.5807131858572
 20
47.64185677570128
 10
119.6459734882572
 20
47.34527291170127
 10
119.7085318242572
 20
47.04350801730126
 10
119.7683406882572
 20
46.73634257090128
 10
119.8252528258572
 20
46.42404720610127
 10
119.8791178610572
 20
46.10696547810127
 10
119.9298131266572
 20
45.78533555330127
 10
119.9771941986572
 20
45.45959399650127
 10
120.0211414674572
 20
45.13009979970127
 10
120.0615345474572
 20
44.79731069410127
 10
120.0982823042572
 20
44.46154531650129
 10
120.1312859810572
 20
44.12329014050127
 10
120.1604611266572
 20
43.78304385730126
 10
120.1857439506572
 20
43.44123044930126
 10
120.2071163954572
 20
43.09772648930127
 10
120.2245654898572
 20
42.75228961090127
 10
120.2380395586572
 20
42.40539151650127
 10
120.2475024690572
 20
42.05742692130127
 10
120.2529078402572
 20
41.71036794050126
 10
120.2542821762572
 20
41.36219012770126
  0
LWPOLYLINE
  5
FF
330
2
100
AcDbEntity
  8
0
100
AcDbPolyline
 90
       34
 70
     0
 43
0.0
 10
120.7484122610572
 20
41.36219012770126
 10
120.7465005666572
 20
41.70851485250127
 10
120.7407270946572
 20
42.05437202530127
 10
120.7311092466572
 20
42.39944298210128
 10
120.7176710722572
 20
42.74341481250127
 10
120.7004480418572
 20
43.08589134530126
 10
120.6794963906572
 20
43.42632527650127
 10
120.6548340258572
 20
43.76491407490127
 10
120.6264828082572
 20
44.10177011330128
 10
120.5944869282572
 20
44.43671062210126
 10
120.5589238162572
 20
44.76927071810126
 10
120.5198867762572
 20
45.09897570690128
 10
120.4774675778572
 20
45.42547592770128
 10
120.4317739906572
 20
45.74838169890128
 10
120.3829009954572
 20
46.06746137890127
 10
120.3309572338572
 20
46.38243494530127
 10
120.2760713826572
 20
46.69295715330128
 10
120.2183736002572
 20
46.99873507490127
 10
120.1579813490572
 20
47.29958552610128
 10
120.0949849762572
 20
47.59546972290126
 10
120.0294252962572
 20
47.88658986050125
 10
119.9613285682572
 20
48.17319791010127
 10
119.8907918210572
 20
48.45521601730126
 10
119.8179722290572
 20
48.73234352610126
 10
119.7429997794572
 20
49.00442028770126
 10
119.6659837842572
 20
49.27137533570126
 10
119.5870897506572
 20
49.53296016930128
 10
119.5064279778572
 20
49.78913316290126
 10
119.4240762210572
 20
50.03995228130128
 10
119.3402176962572
 20
50.28516099010127
 10
119.2550032994572
 20
50.52462897890126
 10
119.1685986498572
 20
50.75820560770129
 10
119.0811517202572
 20
50.98580836770128
 10
118.9926660322572
 20
51.20772490050126
  0
LWPOLYLINE
  5
100
330
2
100
AcDbEntity
  8
0
100
AcDbPolyline
 90
       35
 70
     0
 43
0.0
 10
120.2672976594572
 20
41.36219012770126
 10
120.2653149522572
 20
41.71163572450128
 10
120.2593307058572
 20
42.06059299010127
 10
120.2493643938572
 20
42.40871523170127
 10
120.2354432306572
 20
42.75565840930127
 10
120.2176076418572
 20
43.10098566050126
 10
120.1959183650572
 20
43.44414474210128
 10
120.1703928738572
 20
43.78539015170128
 10
120.1410603298572
 20
44.12478519810128
 10
120.1079758450572
 20
44.46207156130128
 10
120.0712297010572
 20
44.79672746690127
 10
120.0309237074572
 20
45.12827642370126
 10
119.9871583522572
 20
45.45636338050127
 10
119.9400553346572
 20
45.78056101250126
 10
119.8897126738572
 20
46.10067399170128
 10
119.8362618098572
 20
46.41633665730128
 10
119.7798441362572
 20
46.72719575970126
 10
119.7205990050572
 20
47.03296983810128
 10
119.6586441186572
 20
47.33352372610127
 10
119.5940624530572
 20
47.62889478370126
 10
119.5268716690572
 20
47.91942684770126
 10
119.4571343090572
 20
48.20522899810126
 10
119.3850042786572
 20
48.48602814050128
 10
119.3106489746572
 20
48.76154109890126
 10
119.2341703874572
 20
49.03175142530128
 10
119.1557451730572
 20
49.29639064930126
 10
119.0755232226572
 20
49.55531361890127
 10
118.9935727090572
 20
49.80864147490127
 10
118.9100792706572
 20
50.05613107970126
 10
118.8252077026572
 20
50.29763299170127
 10
118.7391299090572
 20
50.53300072130127
 10
118.6520252946572
 20
50.76209107330126
 10
118.5639259746572
 20
50.98515008770127
 10
118.4748358722572
 20
51.20246577250128
 10
118.3847677010572
 20
51.41428910690127
  0
LWPOLYLINE
  5
101
330
2
100
AcDbEntity
  8
0
100
AcDbPolyline
 90
       36
 70
     0
 43
0.0
 10
104.6124963778572
 20
41.35186536290127
 10
104.6130093746572
 20
41.60518368610127
 10
104.6159844018572
 20
41.87963645730127
 10
104.6224495554572
 20
42.19251183970126
 10
104.6331695554572
 20
42.53201860290127
 10
104.6479319122572
 20
42.87503854530126
 10
104.6665289682572
 20
43.21569684930127
 10
104.6889495906572
 20
43.55451893410128
 10
104.7151885794572
 20
43.89181533730126
 10
104.7452060210572
 20
44.22741418530129
 10
104.7789367602572
 20
44.56091811010128
 10
104.8162959282572
 20
44.89185635330128
 10
104.8571861698572
 20
45.21977549250126
 10
104.9015145698572
 20
45.54435449090127
 10
104.9491649986572
 20
45.86517747170126
 10
105.0000216002572
 20
46.18191173410127
 10
105.0539396002572
 20
46.49411936290127
 10
105.1108003714572
 20
46.80158242210126
 10
105.1704551634572
 20
47.10396337730128
 10
105.2327857426572
 20
47.40112300770127
 10
105.2977560226572
 20
47.69330868130126
 10
105.3653774706572
 20
47.98095710210128
 10
105.4355065266572
 20
48.26380779330128
 10
105.5080274914572
 20
48.54174034530126
 10
105.5827844162572
 20
48.81450101730127
 10
105.6596286354572
 20
49.08189625730128
 10
105.7384125762572
 20
49.34376187490127
 10
105.8189876754572
 20
49.59995206370127
 10
105.9012338514572
 20
49.85042517090128
 10
105.9849847346572
 20
50.09501037730126
 10
106.0701064018572
 20
50.33365081890128
 10
106.1564520450572
 20
50.56626364130128
 10
106.2438407042572
 20
50.79269343010128
 10
106.3324368418572
 20
51.01365183490128
 10
106.4205082818572
 20
51.22529921570128
 10
106.4999301826572
 20
51.40973254530127
  0
LWPOLYLINE
  5
102
330
2
100
AcDbEntity
  8
0
100
AcDbPolyline
 90
       35
 70
     0
 43
0.0
 10
106.4819915586572
 20
51.41428910690127
 10
106.3919233890572
 20
51.20246577250128
 10
106.3028332866572
 20
50.98515008770127
 10
106.2147339666572
 20
50.76209107330126
 10
106.1276293506572
 20
50.53300072130127
 10
106.0415515570572
 20
50.29763299170127
 10
105.9566799906572
 20
50.05613107970126
 10
105.8731865522572
 20
49.80864147490127
 10
105.7912360370572
 20
49.55531361890127
 10
105.7110140866572
 20
49.29639064930126
 10
105.6325888738572
 20
49.03175142530128
 10
105.5561102850572
 20
48.76154109890126
 10
105.4817549810572
 20
48.48602814050128
 10
105.4096249522572
 20
48.20522899810126
 10
105.3398875922572
 20
47.91942684770126
 10
105.2726968082572
 20
47.62889478370126
 10
105.2081151426572
 20
47.33352372610127
 10
105.1461602562572
 20
47.03296983810128
 10
105.0869151250572
 20
46.72719575970126
 10
105.0304974514572
 20
46.41633665730128
 10
104.9770465874572
 20
46.10067399170128
 10
104.9267039250572
 20
45.78056101250126
 10
104.8796009074572
 20
45.45636338050127
 10
104.8358355522572
 20
45.12827642370126
 10
104.7955295602572
 20
44.79672746690127
 10
104.7587834162572
 20
44.46207156130128
 10
104.7256989314572
 20
44.12478519810128
 10
104.6963663858572
 20
43.78539015170128
 10
104.6708408962572
 20
43.44414474210128
 10
104.6491516194572
 20
43.10098566050126
 10
104.6313160306572
 20
42.75565840930127
 10
104.6173948674572
 20
42.40871523170127
 10
104.6074285538572
 20
42.06059299010127
 10
104.6014443090572
 20
41.71163572450128
 10
104.5994616018572
 20
41.36219012770126
  0
LWPOLYLINE
  5
103
330
2
100
AcDbEntity
  8
0
100
AcDbPolyline
 90
       34
 70
     0
 43
0.0
 10
105.8740932274572
 20
51.20772490050126
 10
105.7856075410572
 20
50.98580836770128
 10
105.6981606114572
 20
50.75820560770129
 10
105.6117559618572
 20
50.52462897890126
 10
105.5265415650572
 20
50.28516099010127
 10
105.4426830386572
 20
50.03995228130128
 10
105.3603312834572
 20
49.78913316290126
 10
105.2796695090572
 20
49.53296016930128
 10
105.2007754770572
 20
49.27137533570126
 10
105.1237594818572
 20
49.00442028770126
 10
105.0487870322572
 20
48.73234352610126
 10
104.9759674402572
 20
48.45521601730126
 10
104.9054306930572
 20
48.17319791010127
 10
104.8373339650572
 20
47.88658986050125
 10
104.7717742850572
 20
47.59546972290126
 10
104.7087779122572
 20
47.29958552610128
 10
104.6483856594572
 20
46.99873507490127
 10
104.5906878770572
 20
46.69295715330128
 10
104.5358020258572
 20
46.38243494530127
 10
104.4838582658572
 20
46.06746137890127
 10
104.4349852690572
 20
45.74838169890128
 10
104.3892916818572
 20
45.42547592770128
 10
104.3468724850572
 20
45.09897570690128
 10
104.3078354434572
 20
44.76927071810126
 10
104.2722723330572
 20
44.43671062210126
 10
104.2402764514572
 20
44.10177011330128
 10
104.2119252354572
 20
43.76491407490127
 10
104.1872628690572
 20
43.42632527650127
 10
104.1663112178572
 20
43.08589134530126
 10
104.1490881874572
 20
42.74341481250127
 10
104.1356500130572
 20
42.39944298210128
 10
104.1260321666572
 20
42.05437202530127
 10
104.1202586946572
 20
41.70851485250127
 10
104.1183470002572
 20
41.36219012770126
  0
LINE
  5
104
330
2
100
AcDbEntity
  8
0
100
AcDbLine
 10
104.6124770834572
 20
41.36219012770126
 30
0.0
 11
104.5994616018572
 21
41.36219012770126
 31
0.0
  0
LINE
  5
105
330
2
100
AcDbEntity
  8
0
100
AcDbLine
 10
120.2542821090572
 20
41.36219012770126
 30
0.0
 11
120.2542628818572
 21
41.35186536290127
 31
0.0
  0
LINE
  5
106
330
2
100
AcDbEntity
  8
0
100
AcDbLine
 10
120.2542821762572
 20
41.36219012770126
 30
0.0
 11
120.2672976594572
 21
41.36219012770126
 31
0.0
  0
LINE
  5
107
330
2
100
AcDbEntity
  8
0
100
AcDbLine
 10
113.3729136306572
 20
52.15664439010126
 30
0.0
 11
113.2789233426572
 21
52.15339880770128
 31
0.0
  0
LWPOLYLINE
  5
108
330
2
100
AcDbEntity
  8
0
100
AcDbPolyline
 90
       21
 70
     0
 43
0.0
 10
112.4333796306572
 20
52.08254288610127
 10
112.5937122018572
 20
52.08327036290126
 10
112.7727347714572
 20
52.08552673570128
 10
112.9673029778572
 20
52.08934002690128
 10
113.1752657490572
 20
52.09470383330128
 10
113.3935087554572
 20
52.10155429890128
 10
113.6183951458572
 20
52.10977157730127
 10
113.8521406962572
 20
52.11945533410127
 10
114.0918197522572
 20
52.13052672450126
 10
114.3182126978572
 20
52.14200685730128
 10
114.5218086082572
 20
52.15316580450127
 10
114.7155207090572
 20
52.16452062690127
 10
114.9081887842572
 20
52.17654213570128
 10
115.1004278466572
 20
52.18928408130128
 10
115.3002056754572
 20
52.20335162850128
 10
115.5214274402572
 20
52.21996961570127
 10
115.7685152098572
 20
52.23992264450126
 10
116.0288567538572
 20
52.26268768930125
 10
116.2843569314572
 20
52.28696870370126
 10
116.5274917522572
 20
52.31209491170128
 10
116.7601704562572
 20
52.33825809090126
  0
LINE
  5
109
330
2
100
AcDbEntity
  8
0
100
AcDbLine
 10
105.6754385266572
 20
56.36219012770126
 30
0.0
 11
119.1913529938572
 21
56.36219012770126
 31
0.0
  0
LWPOLYLINE
  5
10A
330
2
100
AcDbEntity
  8
0
100
AcDbPolyline
 90
       17
 70
     0
 43
0.0
 10
106.0093524946572
 20
54.08808399010126
 10
106.8080874482572
 20
53.98135859010128
 10
107.6105601106572
 20
53.88850936450126
 10
108.4135624658572
 20
53.80996756930128
 10
109.2170000722572
 20
53.74572217090127
 10
110.0207775314572
 20
53.69576390050127
 10
110.8248011298572
 20
53.66008503810127
 10
111.6289853826572
 20
53.63867941090126
 10
112.4332499266572
 20
53.63154310210126
 10
113.2375145186572
 20
53.63867480930128
 10
114.0416988850572
 20
53.66007583810127
 10
114.8457225970572
 20
53.69575010050127
 10
115.6495001554572
 20
53.74570376610129
 10
116.4529378770572
 20
53.80994455650128
 10
117.2559404146572
 20
53.88848174530128
 10
118.0584133554572
 20
53.98132636930128
 10
118.8574067666572
 20
54.08808399010126
  0
LWPOLYLINE
  5
10B
330
2
100
AcDbEntity
  8
0
100
AcDbPolyline
 90
       18
 70
     0
 43
0.0
 10
117.7032316370572
 20
55.41454269890127
 10
117.0895547794572
 20
55.30332638050126
 10
116.4716063218572
 20
55.20550744930128
 10
115.8524128754572
 20
55.12164300130127
 10
115.2321673426572
 20
55.05174241890128
 10
114.6110655906572
 20
54.99581378530127
 10
113.9893022242572
 20
54.95386324450127
 10
113.3670692130572
 20
54.92589503650126
 10
112.7445546018572
 20
54.91191174210126
 10
112.1219461426572
 20
54.91191464610128
 10
111.4994315778572
 20
54.92590374850127
 10
110.8771986418572
 20
54.95387776770127
 10
110.2554353602572
 20
54.99583412770127
 10
109.6343337330572
 20
55.05176859010126
 10
109.0140884274572
 20
55.12167500450127
 10
108.3948953842572
 20
55.20554527330128
 10
107.7769475426572
 20
55.30337000290126
 10
107.1635276226572
 20
55.41454269890127
  0
LWPOLYLINE
  5
10C
330
2
100
AcDbEntity
  8
0
100
AcDbPolyline
 90
       42
 70
     0
 43
0.0
 10
119.2915900434572
 20
53.85335832770127
 10
119.1436662482572
 20
53.82163230050128
 10
118.9988605154572
 20
53.79127548930128
 10
118.8572840466572
 20
53.76226142370126
 10
118.7190480386572
 20
53.73456363170126
 10
118.5841973890572
 20
53.70814453730128
 10
118.4525117666572
 20
53.68292213090126
 10
118.3237045394572
 20
53.65880329410126
 10
118.1974890770572
 20
53.63569490690128
 10
118.0327781650572
 20
53.60630968450127
 10
117.8717267714572
 20
53.57842508290127
 10
117.7138964018572
 20
53.55191091010127
 10
117.5588330642572
 20
53.52663949570126
 10
117.4060207490572
 20
53.50249327650127
 10
117.2549279474572
 20
53.47935720770127
 10
117.0304202722572
 20
53.44632207810128
 10
116.8072124930572
 20
53.41507223650125
 10
116.5839141714572
 20
53.38539040290126
 10
116.3590655458572
 20
53.35710498370128
 10
116.1316055346572
 20
53.33011268610127
 10
115.9021370786572
 20
53.30453769730127
 10
115.7487641298572
 20
53.28837768290128
 10
115.5965651442572
 20
53.27306073730127
 10
115.4471538594572
 20
53.25871954210126
 10
115.3019038002572
 20
53.24545542210126
 10
115.1612276338572
 20
53.23324427170127
 10
115.0252978146572
 20
53.22203062850127
 10
114.8941155794572
 20
53.21175037570128
 10
114.7669973138572
 20
53.20230479010127
 10
114.6430881826572
 20
53.19358649570128
 10
114.4615103874572
 20
53.18166757570129
 10
114.2831770098572
 20
53.17095946690128
 10
114.1059424114572
 20
53.16129098850126
 10
113.9272894578572
 20
53.15254224610126
 10
113.7451579330572
 20
53.14463953090125
 10
113.5596867746572
 20
53.13764262850128
 10
113.3716416050572
 20
53.13163922690129
 10
113.1820955970572
 20
53.12669515170128
 10
112.9922645954572
 20
53.12286103330126
 10
112.8036275714572
 20
53.12014858850128
 10
112.6173874210572
 20
53.11855143810126
 10
112.4333796306572
 20
53.11802976290127
  0
LWPOLYLINE
  5
10D
330
2
100
AcDbEntity
  8
0
100
AcDbPolyline
 90
       21
 70
     0
 43
0.0
 10
101.4819140306572
 20
56.95264563170127
 10
101.5869166898572
 20
56.79510139650128
 10
101.7334566962572
 20
56.59144019170128
 10
101.8887243026572
 20
56.39315681890128
 10
102.0524566386572
 20
56.20064098690128
 10
102.2243723106572
 20
56.01427198370126
 10
102.4041728930572
 20
55.83441675810127
 10
102.5915437138572
 20
55.66142908770126
 10
102.7861545010572
 20
55.49564889890127
 10
102.9876603458572
 20
55.33740133090129
 10
103.1957021890572
 20
55.18699624290127
 10
103.4099075634572
 20
55.04472746690126
 10
103.6298921410572
 20
54.91087164130127
 10
103.8552598786572
 20
54.78568803970128
 10
104.0856034946572
 20
54.66941806690127
 10
104.3205066674572
 20
54.56228395170126
 10
104.5595445010572
 20
54.46448853090126
 10
104.8022828850572
 20
54.37621532290126
 10
105.0482777394572
 20
54.29762829090129
 10
105.2970856466572
 20
54.22886829090126
 10
105.5453700946572
 20
54.17067243810127
  0
LINE
  5
10E
330
2
100
AcDbEntity
  8
0
100
AcDbLine
 10
107.0970711474572
 20
52.61464226850129
 30
0.0
 11
107.1763495426572
 21
52.59812517090129
 31
0.0
  0
LWPOLYLINE
  5
10F
330
2
100
AcDbEntity
  8
0
100
AcDbPolyline
 90
       31
 70
     0
 43
0.0
 10
109.4333796306572
 20
52.27945948450127
 10
109.3526108002572
 20
52.28633609730128
 10
109.2717616834572
 20
52.29352102850126
 10
109.1908537346572
 20
52.30101678370127
 10
109.1099164738572
 20
52.30882492930127
 10
109.0290116594572
 20
52.31694329730126
 10
108.9482091202572
 20
52.32536878210126
 10
108.8675672354572
 20
52.33409950530128
 10
108.7870986258572
 20
52.34313850530128
 10
108.7068044626572
 20
52.35249004290128
 10
108.6266971922572
 20
52.36215697090128
 10
108.5468343250572
 20
52.37213648610128
 10
108.4672846402572
 20
52.38242437570128
 10
108.3881096770572
 20
52.39301747330128
 10
108.3093420050572
 20
52.40391680770128
 10
108.2310069554572
 20
52.41512445410126
 10
108.1531296898572
 20
52.42664110850128
 10
108.0757346978572
 20
52.43846194370127
 10
107.9988463042572
 20
52.45058075010127
 10
107.9224935762572
 20
52.46298916130126
 10
107.8467245522572
 20
52.47567016770128
 10
107.7715920178572
 20
52.48860460450126
 10
107.6971393090572
 20
52.50177482690128
 10
107.6233719602572
 20
52.51516927010126
 10
107.5502860530572
 20
52.52877789730127
 10
107.4778873138572
 20
52.54258849250127
 10
107.4062200226572
 20
52.55658015650126
 10
107.3353380978572
 20
52.57072981410127
 10
107.2652901426572
 20
52.58501505730126
 10
107.1961034818572
 20
52.59941614690126
 10
107.1278001250572
 20
52.61391400610128
  0
LWPOLYLINE
  5
110
330
2
100
AcDbEntity
  8
0
100
AcDbPolyline
 90
       17
 70
     0
 43
0.0
 10
108.0952336818572
 20
52.34782397410126
 10
107.9715433058572
 20
52.35727162530128
 10
107.8474100130572
 20
52.35673875650127
 10
107.7236273778572
 20
52.34622877250126
 10
107.6009867298572
 20
52.32580885890127
 10
107.4802720946572
 20
52.29560955810126
 10
107.3622551874572
 20
52.25582393250127
 10
107.2476904754572
 20
52.20670632450128
 10
107.1373103554572
 20
52.14857073730127
 10
107.0318204754572
 20
52.08178882530126
 10
106.9318952194572
 20
52.00678751810127
 10
106.8381733970572
 20
51.92404628770126
 10
106.7512541602572
 20
51.83409409250126
 10
106.6716931746572
 20
51.73750598210128
 10
106.5999990626572
 20
51.63489943650128
 10
106.5366301570572
 20
51.52693040770128
 10
106.4819915762572
 20
51.41428915010127
  0
LWPOLYLINE
  5
111
330
2
100
AcDbEntity
  8
0
100
AcDbPolyline
 90
       57
 70
     0
 43
0.0
 10
106.4999302770572
 20
51.40973250690127
 10
106.5156916194572
 20
51.44470171490127
 10
106.5322916946572
 20
51.47926133410127
 10
106.5496240386572
 20
51.51320889410127
 10
106.5676176354572
 20
51.54644787010127
 10
106.5862535026572
 20
51.57898913250128
 10
106.6055046290572
 20
51.61082733730125
 10
106.6253477650572
 20
51.64196303970126
 10
106.6457604178572
 20
51.67239703170128
 10
106.6667216306572
 20
51.70213144450127
 10
106.6882117458572
 20
51.73116919170126
 10
106.7102124994572
 20
51.75951396290128
 10
106.7327070722572
 20
51.78717014530128
 10
106.7556799906572
 20
51.81414256130128
 10
106.7791171154572
 20
51.84043637090127
 10
106.8030066434572
 20
51.86605802050127
 10
106.8273335218572
 20
51.89100932930128
 10
106.8520749266572
 20
51.91528408930128
 10
106.8772132946572
 20
51.93888176610127
 10
106.9027371218572
 20
51.96180711330126
 10
106.9286341362572
 20
51.98406335170128
 10
106.9548937794572
 20
52.00565443490126
 10
106.9815063570572
 20
52.02658421090126
 10
107.0084633698572
 20
52.04685662210128
 10
107.0357574450572
 20
52.06647557730128
 10
107.0633823778572
 20
52.08544489570127
 10
107.0913331346572
 20
52.10376823170128
 10
107.1196058706572
 20
52.12144900610127
 10
107.1481979282572
 20
52.13849031650127
 10
107.1771078498572
 20
52.15489487170126
 10
107.2063352994572
 20
52.17066485410126
 10
107.2358813106572
 20
52.18580197250128
 10
107.2657475058572
 20
52.20030698530127
 10
107.2959382082572
 20
52.21418062370128
 10
107.3264554130572
 20
52.22742119010127
 10
107.3573067762572
 20
52.24002807010126
 10
107.3885368738572
 20
52.25201267970127
 10
107.4201889250572
 20
52.26338071330127
 10
107.4522746434572
 20
52.27412269250127
 10
107.4848040114572
 20
52.28422671490128
 10
107.5177890226572
 20
52.29367967810128
 10
107.5512407538572
 20
52.30246626530126
 10
107.5851704530572
 20
52.31056926690127
 10
107.6195888866572
 20
52.31796936610127
 10
107.6545063906572
 20
52.32464513410127
 10
107.6899325378572
 20
52.33057294530127
 10
107.7258762738572
 20
52.33572697410128
 10
107.7623446850572
 20
52.34007903170127
 10
107.7993461394572
 20
52.34359890210126
 10
107.8368847266572
 20
52.34625370370128
 10
107.8749877442572
 20
52.34800916930126
 10
107.9135287602572
 20
52.34882500930126
 10
107.9522034706572
 20
52.34867445410128
 10
107.9908589282572
 20
52.34755308610127
 10
108.0294686898572
 20
52.34546159010128
 10
108.0680087682572
 20
52.34240126530128
 10
108.1064554082572
 20
52.33837397570127
  0
LWPOLYLINE
  5
112
330
2
100
AcDbEntity
  8
0
100
AcDbPolyline
 90
       43
 70
     0
 43
0.0
 10
112.4333796306572
 20
53.11802976290127
 10
112.2492378802572
 20
53.11855221570127
 10
112.0628885826572
 20
53.12015137090128
 10
111.8741685490572
 20
53.12286663330127
 10
111.6842714514572
 20
53.12670423330127
 10
111.4946666386572
 20
53.13165235810126
 10
111.3065693090572
 20
53.13766016130128
 10
111.1210473426572
 20
53.14466195170126
 10
110.9388334850572
 20
53.15257166850128
 10
110.7600287042572
 20
53.16133176130128
 10
110.5825419586572
 20
53.17101906530126
 10
110.4636749202572
 20
53.17805070370127
 10
110.3436095282572
 20
53.18559892770128
 10
110.2217345442572
 20
53.19371914210126
 10
110.0973963314572
 20
53.20247577890126
 10
109.9697716642572
 20
53.21196936610127
 10
109.8379949170572
 20
53.22230945410126
 10
109.7013796658572
 20
53.23359620290128
 10
109.5599562930572
 20
53.24589220770127
 10
109.4139343794572
 20
53.25925067330127
 10
109.2637570690572
 20
53.27369378530128
 10
109.1108017458572
 20
53.28911963810128
 10
108.9566793522572
 20
53.30539530530126
 10
108.7260943586572
 20
53.33115620450127
 10
108.4975224770572
 20
53.35835009250127
 10
108.2716080242572
 20
53.38684690370127
 10
108.0475150178572
 20
53.41671634690126
 10
107.8240061954572
 20
53.44809475170126
 10
107.5997194802572
 20
53.48118512930128
 10
107.4490500418572
 20
53.50431366210128
 10
107.2968542722572
 20
53.52841799810128
 10
107.1425708114572
 20
53.55361543170127
 10
106.9856553346572
 20
53.58002568290126
 10
106.8256316898572
 20
53.60777819490127
 10
106.6620407618572
 20
53.63700483970126
 10
106.5367124850572
 20
53.65997819010127
 10
106.4088184722572
 20
53.68395039490128
 10
106.2780578418572
 20
53.70901692610127
 10
106.1441297042572
 20
53.73527325730126
 10
106.0068026258572
 20
53.76280318210127
 10
105.8661229730572
 20
53.79164375330126
 10
105.7222065634572
 20
53.82182034370126
 10
105.5751692178572
 20
53.85335832770127
  0
LWPOLYLINE
  5
113
330
2
100
AcDbEntity
  8
0
100
AcDbPolyline
 90
       20
 70
     0
 43
0.0
 10
106.2169348338572
 20
52.79106836130129
 10
106.2084341986572
 20
52.77946607010128
 10
106.1983347058572
 20
52.75786012450126
 10
106.1866991714572
 20
52.72638638370128
 10
106.1736007090572
 20
52.68524258530127
 10
106.1591216162572
 20
52.63468721410126
 10
106.1433528626572
 20
52.57503788770129
 10
106.1263935186572
 20
52.50666935970127
 10
106.1083501346572
 20
52.43001115810128
 10
106.0893360754572
 20
52.34554489570126
 10
106.0694708002572
 20
52.25380123810126
 10
106.0488791202572
 20
52.15535657090126
 10
106.0276904066572
 20
52.05082938210129
 10
106.0060377794572
 20
51.94087637250127
 10
105.9840572738572
 20
51.82618832770126
 10
105.9618869858572
 20
51.70748578850126
 10
105.9396662018572
 20
51.58551451010126
 10
105.9175345250572
 20
51.46104079170126
 10
105.8956309986572
 20
51.33484664930128
 10
105.8740932274572
 20
51.20772490050126
  0
LINE
  5
114
330
2
100
AcDbEntity
  8
0
100
AcDbLine
 10
102.9527010594572
 20
53.42212944610128
 30
0.0
 11
102.9964629426572
 21
53.41737348450127
 31
0.0
  0
LINE
  5
115
330
2
100
AcDbEntity
  8
0
100
AcDbLine
 10
102.8903570450572
 20
53.42876308290127
 30
0.0
 11
102.9527010594572
 21
53.42212944610128
 31
0.0
  0
LINE
  5
116
330
2
100
AcDbEntity
  8
0
100
AcDbLine
 10
102.8005173074572
 20
53.43807546850126
 30
0.0
 11
102.8903570450572
 21
53.42876308290127
 31
0.0
  0
LINE
  5
117
330
2
100
AcDbEntity
  8
0
100
AcDbLine
 10
107.0196656594572
 20
52.63705362050126
 30
0.0
 11
106.5327668530572
 21
52.74077484450126
 31
0.0
  0
LINE
  5
118
330
2
100
AcDbEntity
  8
0
100
AcDbLine
 10
106.9332850322572
 20
52.64827998370129
 30
0.0
 11
107.0160158594572
 21
52.63136110370126
 31
0.0
  0
LINE
  5
119
330
2
100
AcDbEntity
  8
0
100
AcDbLine
 10
106.8489583890572
 20
52.66539918370128
 30
0.0
 11
106.9332850322572
 21
52.64827998370129
 31
0.0
  0
LINE
  5
11A
330
2
100
AcDbEntity
  8
0
100
AcDbLine
 10
106.7630953362572
 20
52.68272056610126
 30
0.0
 11
106.8489583890572
 21
52.66539918370128
 31
0.0
  0
LINE
  5
11B
330
2
100
AcDbEntity
  8
0
100
AcDbLine
 10
106.6315046354572
 20
52.70908848450128
 30
0.0
 11
106.7630953362572
 21
52.68272056610126
 31
0.0
  0
LINE
  5
11C
330
2
100
AcDbEntity
  8
0
100
AcDbLine
 10
107.1278001250572
 20
52.61391400610128
 30
0.0
 11
107.0196656594572
 21
52.63705362050126
 31
0.0
  0
LINE
  5
11D
330
2
100
AcDbEntity
  8
0
100
AcDbLine
 10
107.0160158594572
 20
52.63136110370126
 30
0.0
 11
107.0970711474572
 21
52.61464226850129
 31
0.0
  0
LWPOLYLINE
  5
11E
330
2
100
AcDbEntity
  8
0
100
AcDbPolyline
 90
        4
 70
     0
 43
0.0
 10
105.5453700930572
 20
54.17067243330127
 10
105.6983307570572
 20
54.13978808290128
 10
105.8550420914572
 20
54.11189096770127
 10
106.0093524930572
 20
54.08808399010126
  0
LINE
  5
11F
330
2
100
AcDbEntity
  8
0
100
AcDbLine
 10
106.2178910706572
 20
52.80756422050126
 30
0.0
 11
105.9734968146572
 21
52.85912938530126
 31
0.0
  0
LINE
  5
120
330
2
100
AcDbEntity
  8
0
100
AcDbLine
 10
105.9734968146572
 20
52.85912938530126
 30
0.0
 11
105.7855127714572
 21
52.89851623170128
 31
0.0
  0
LINE
  5
121
330
2
100
AcDbEntity
  8
0
100
AcDbLine
 10
105.7855127714572
 20
52.89851623170128
 30
0.0
 11
105.6583806450572
 21
52.92496655970126
 31
0.0
  0
LINE
  5
122
330
2
100
AcDbEntity
  8
0
100
AcDbLine
 10
105.6583806450572
 20
52.92496655970126
 30
0.0
 11
105.5300564978572
 21
52.95147275170126
 31
0.0
  0
LINE
  5
123
330
2
100
AcDbEntity
  8
0
100
AcDbLine
 10
105.5300564978572
 20
52.95147275170126
 30
0.0
 11
105.4006224146572
 21
52.97797267170128
 31
0.0
  0
LWPOLYLINE
  5
124
330
2
100
AcDbEntity
  8
0
100
AcDbPolyline
 90
        8
 70
     0
 43
0.0
 10
105.4006224146572
 20
52.97797267170128
 10
105.3355412114572
 20
52.99119436450126
 10
105.2702662690572
 20
53.00437826370128
 10
105.2048355762572
 20
53.01750986530127
 10
105.1392821442572
 20
53.03057556770127
 10
105.0736190850572
 20
53.04356538050126
 10
105.0078545330572
 20
53.05647020930127
 10
104.9419966258572
 20
53.06928096610127
  0
LINE
  5
125
330
2
100
AcDbEntity
  8
0
100
AcDbLine
 10
106.3584320002572
 20
52.76325702690127
 30
0.0
 11
106.4966151810572
 21
52.73593040130126
 31
0.0
  0
LINE
  5
126
330
2
100
AcDbEntity
  8
0
100
AcDbLine
 10
106.2169335474572
 20
52.79106864290127
 30
0.0
 11
106.3584320002572
 21
52.76325702690127
 31
0.0
  0
LINE
  5
127
330
2
100
AcDbEntity
  8
0
100
AcDbLine
 10
106.5327668530572
 20
52.74077484450126
 30
0.0
 11
106.2178910706572
 21
52.80756422050126
 31
0.0
  0
LINE
  5
128
330
2
100
AcDbEntity
  8
0
100
AcDbLine
 10
106.4966151810572
 20
52.73593040130126
 30
0.0
 11
106.6315046354572
 21
52.70908848450128
 31
0.0
  0
LWPOLYLINE
  5
129
330
2
100
AcDbEntity
  8
0
100
AcDbPolyline
 90
       21
 70
     0
 43
0.0
 10
108.1064554098572
 20
52.33837397570127
 10
108.3375216290572
 20
52.31238853890127
 10
108.5795257682572
 20
52.28736356610127
 10
108.8336165554572
 20
52.26319126530126
 10
109.0942525106572
 20
52.24037227810126
 10
109.3419575730572
 20
52.22034683970128
 10
109.5628749154572
 20
52.20373292130128
 10
109.7623963186572
 20
52.18966532930128
 10
109.9549227698572
 20
52.17688683490127
 10
110.1480499634572
 20
52.16482027170127
 10
110.3419859842572
 20
52.15343662370128
 10
110.5461161346572
 20
52.14223257250129
 10
110.7737116434572
 20
52.13067643810126
 10
111.0139500258572
 20
52.11956597410128
 10
111.2475941586572
 20
52.10987311330126
 10
111.4725180738572
 20
52.10164000450126
 10
111.6908055154572
 20
52.09477272770127
 10
111.8988907314572
 20
52.08938986210128
 10
112.0936493970572
 20
52.08555726530128
 10
112.2728370738572
 20
52.08328417890126
 10
112.4333796306572
 20
52.08254288610127
  0
LWPOLYLINE
  5
12A
330
2
100
AcDbEntity
  8
0
100
AcDbPolyline
 90
       32
 70
     0
 43
0.0
 10
111.5431391906572
 20
52.15491266050128
 10
111.4456311698572
 20
52.15839985250127
 10
111.3942088626572
 20
52.16033793090128
 10
111.3410032034572
 20
52.16241336610128
 10
111.2860106354572
 20
52.16463206210128
 10
111.2292150514572
 20
52.16700075810127
 10
111.1705972162572
 20
52.16952639970128
 10
111.1101375026572
 20
52.17221608770126
 10
111.0478147410572
 20
52.17507755490126
 10
110.9836073730572
 20
52.17811868450127
 10
110.9174857714572
 20
52.18134801570127
 10
110.8493880322572
 20
52.18477668450126
 10
110.7792441794572
 20
52.18841648130126
 10
110.7069844658572
 20
52.19227960770126
 10
110.6325400402572
 20
52.19637992130128
 10
110.5558422786572
 20
52.20073169730127
 10
110.4967982562572
 20
52.20416939490127
 10
110.4364151714572
 20
52.20776414370127
 10
110.3746600690572
 20
52.21152352290127
 10
110.3114999890572
 20
52.21545510850126
 10
110.2469032098572
 20
52.21956667170127
 10
110.1808429458572
 20
52.22386675330128
 10
110.1132936418572
 20
52.22836408930127
 10
110.0442297506572
 20
52.23306741570127
 10
109.9736230834572
 20
52.23798608130127
 10
109.9014349074572
 20
52.24313188770128
 10
109.8276238594572
 20
52.24851724930127
 10
109.7521485730572
 20
52.25415458370128
 10
109.6749770850572
 20
52.26005611010126
 10
109.5961150546572
 20
52.26623327170128
 10
109.5155775490572
 20
52.27269731330128
 10
109.4333796306572
 20
52.27945948450127
  0
LINE
  5
12B
330
2
100
AcDbEntity
  8
0
100
AcDbLine
 10
107.1763495426572
 20
52.59812517090129
 30
0.0
 11
107.2537261890572
 21
52.58181402530127
 31
0.0
  0
LWPOLYLINE
  5
12C
330
2
100
AcDbEntity
  8
0
100
AcDbPolyline
 90
        3
 70
     0
 43
0.0
 10
108.1064554082572
 20
52.33837397570127
 10
108.1008075234572
 20
52.34320328770127
 10
108.0952336978572
 20
52.34782396290126
  0
LWPOLYLINE
  5
12D
330
2
100
AcDbEntity
  8
0
100
AcDbPolyline
 90
       36
 70
     0
 43
0.0
 10
107.2537261890572
 20
52.58181402530127
 10
107.3289057266572
 20
52.56574744930128
 10
107.3655337522572
 20
52.55782783970127
 10
107.4014910578572
 20
52.54998647490126
 10
107.4367528018572
 20
52.54222578530127
 10
107.4712990882572
 20
52.53454711170127
 10
107.5051142210572
 20
52.52695087330128
 10
107.5381794706572
 20
52.51943818210128
 10
107.5704750818572
 20
52.51201040770126
 10
107.6019824898572
 20
52.50466870690127
 10
107.6326832002572
 20
52.49741427810127
 10
107.6625593570572
 20
52.49024824450126
 10
107.6915933442572
 20
52.48317176130126
 10
107.7197677922572
 20
52.47618602530128
 10
107.7470665042572
 20
52.46929205890126
 10
107.7734743042572
 20
52.46249075010126
 10
107.7989758354572
 20
52.45578316610127
 10
107.8235560178572
 20
52.44917045410128
 10
107.8472007394572
 20
52.44265366690126
 10
107.8698965922572
 20
52.43623383810126
 10
107.8916307106572
 20
52.42991203330126
 10
107.9123908674572
 20
52.42368933730128
 10
107.9321654722572
 20
52.41756684770127
 10
107.9509435682572
 20
52.41154569410127
 10
107.9687148242572
 20
52.40562703970127
 10
107.9854695442572
 20
52.39981208930126
 10
108.0011986610572
 20
52.39410208770127
 10
108.0158937154572
 20
52.38849834210128
 10
108.0295469810572
 20
52.38300217250127
 10
108.0421504402572
 20
52.37761535330128
 10
108.0536837058572
 20
52.37234598530128
 10
108.0641272594572
 20
52.36720431650127
 10
108.0734912530572
 20
52.36218782370127
 10
108.0817921138572
 20
52.35728920610128
 10
108.0890391698572
 20
52.35250244450128
 10
108.0952336818572
 20
52.34782397410126
  0
LINE
  5
12E
330
2
100
AcDbEntity
  8
0
100
AcDbLine
 10
113.2789233426572
 20
52.15339880770128
 30
0.0
 11
113.1914469842572
 21
52.15059531170126
 31
0.0
  0
LWPOLYLINE
  5
12F
330
2
100
AcDbEntity
  8
0
100
AcDbPolyline
 90
        8
 70
     0
 43
0.0
 10
112.4333796306572
 20
52.13738203170127
 10
112.3218034338572
 20
52.13775305090127
 10
112.2096422002572
 20
52.13879207650126
 10
112.0975547106572
 20
52.14040239650126
 10
111.9862332834572
 20
52.14249934850127
 10
111.9307186818572
 20
52.14371366850127
 10
111.8747109250572
 20
52.14504631490126
 10
111.8175864258572
 20
52.14651079170128
  0
LINE
  5
130
330
2
100
AcDbEntity
  8
0
100
AcDbLine
 10
111.6338132850572
 20
52.15189869730128
 30
0.0
 11
111.5431391906572
 21
52.15491266050128
 31
0.0
  0
LINE
  5
131
330
2
100
AcDbEntity
  8
0
100
AcDbLine
 10
111.7183734786572
 20
52.14929539810126
 30
0.0
 11
111.6338132850572
 21
52.15189869730128
 31
0.0
  0
LINE
  5
132
330
2
100
AcDbEntity
  8
0
100
AcDbLine
 10
111.8175864258572
 20
52.14651079170128
 30
0.0
 11
111.7183734786572
 21
52.14929539810126
 31
0.0
  0
LWPOLYLINE
  5
133
330
2
100
AcDbEntity
  8
0
100
AcDbPolyline
 90
       10
 70
     0
 43
0.0
 10
113.1914469842572
 20
52.15059531170126
 10
113.1094036082572
 20
52.14816590050128
 10
113.0505400882572
 20
52.14654711490126
 10
112.9933323506572
 20
52.14507807810128
 10
112.9372206290572
 20
52.14374064930126
 10
112.8815851170572
 20
52.14252150690126
 10
112.7699935282572
 20
52.14041558210126
 10
112.6576389282572
 20
52.13879831170126
 10
112.5452151858572
 20
52.13775472610127
 10
112.4333796306572
 20
52.13738203170127
  0
LWPOLYLINE
  5
134
330
2
100
AcDbEntity
  8
0
100
AcDbPolyline
 90
       22
 70
     0
 43
0.0
 10
107.1635276258572
 20
55.41454271330128
 10
107.0468204818572
 20
55.44001304450128
 10
106.9288493698572
 20
55.47195220450126
 10
106.8126927442572
 20
55.50973876930126
 10
106.6986939058572
 20
55.55325724450128
 10
106.5871894770572
 20
55.60237411810127
 10
106.4785085394572
 20
55.65693829890128
 10
106.3729718146572
 20
55.71678158370128
 10
106.2708906626572
 20
55.78171922210126
 10
106.1725663954572
 20
55.85155034210126
 10
106.0782891778572
 20
55.92605866370127
 10
105.9883367842572
 20
56.00501347490126
 10
105.9029715826572
 20
56.08817270370128
 10
105.8224403458572
 20
56.17528434530126
 10
105.7469759762572
 20
56.26608557730128
 10
105.6767964354572
 20
56.36030440130127
 10
105.6121030946572
 20
56.45766282690127
 10
105.5530822562572
 20
56.55787619650126
 10
105.4999053138572
 20
56.66065368610128
 10
105.4527291522572
 20
56.76569795810127
 10
105.4116957810572
 20
56.87270571490128
 10
105.3827428930572
 20
56.96162965570128
  0
LINE
  5
135
330
2
100
AcDbEntity
  8
0
100
AcDbLine
 10
101.2883796306572
 20
56.36219012770126
 30
0.0
 11
101.9149530498572
 21
56.36219012770126
 31
0.0
  0
LWPOLYLINE
  5
136
330
2
100
AcDbEntity
  8
0
100
AcDbPolyline
 90
        4
 70
     0
 43
0.0
 10
101.9533170866572
 20
57.00126576130128
 10
102.8395143570572
 20
57.01362245570127
 10
103.7270462882572
 20
57.02488496930127
 10
104.6157805922572
 20
57.03505229890126
  0
LWPOLYLINE
  5
137
330
2
100
AcDbEntity
  8
0
100
AcDbPolyline
 90
       21
 70
     0
 43
0.0
 10
101.9533170866572
 20
57.00126576130128
 10
101.9057828594572
 20
57.00042660130129
 10
101.8608792770572
 20
56.99934615010127
 10
101.8186081618572
 20
56.99804362690128
 10
101.7788938610572
 20
56.99653418530127
 10
101.7417790434572
 20
56.99483589090127
 10
101.7071398146572
 20
56.99295798850127
 10
101.6749977522572
 20
56.99091478210127
 10
101.6452879442572
 20
56.98871406050128
 10
101.6179711106572
 20
56.98636240290127
 10
101.5930838242572
 20
56.98387130530128
 10
101.5705653298572
 20
56.98124083170128
 10
101.5504573970572
 20
56.97847902530128
 10
101.5327840050572
 20
56.97559042530127
 10
101.5175644754572
 20
56.97257503810127
 10
101.5048795650572
 20
56.96944136130127
 10
101.4947832914572
 20
56.96618913570128
 10
101.4873679538572
 20
56.96282322530127
 10
101.4827394146572
 20
56.95935143330126
 10
101.4810059394572
 20
56.95577627010127
 10
101.4819119154572
 20
56.95264562210127
  0
LWPOLYLINE
  5
138
330
2
100
AcDbEntity
  8
0
100
AcDbPolyline
 90
        3
 70
     0
 43
0.0
 10
105.3664169410572
 20
56.97509752290128
 10
105.3727716594572
 20
56.97029323970127
 10
105.3793948098572
 20
56.96551618530128
  0
LWPOLYLINE
  5
139
330
2
100
AcDbEntity
  8
0
100
AcDbPolyline
 90
        3
 70
     0
 43
0.0
 10
105.3827421650572
 20
56.96162965410128
 10
105.3824154546572
 20
56.96241878850128
 10
105.3793948098572
 20
56.96551618530128
  0
LWPOLYLINE
  5
13A
330
2
100
AcDbEntity
  8
0
100
AcDbPolyline
 90
       23
 70
     0
 43
0.0
 10
105.3664169410572
 20
56.97509752290128
 10
105.3580949746572
 20
56.98000558050129
 10
105.3456691394572
 20
56.98495219490126
 10
105.3292102754572
 20
56.98986655010128
 10
105.3088788178572
 20
56.99468835010129
 10
105.2848153938572
 20
56.99938038530127
 10
105.2573490930572
 20
57.00388191330128
 10
105.2269154386572
 20
57.00813713090127
 10
105.1938030130572
 20
57.01212480610127
 10
105.1583473202572
 20
57.01582216930126
 10
105.1209762834572
 20
57.01920408930127
 10
105.0820299698572
 20
57.02226071970128
 10
105.0416812866572
 20
57.02499650690126
 10
105.0003275922572
 20
57.02740142210126
 10
104.9583714882572
 20
57.02947154050128
 10
104.9159418354572
 20
57.03121905250128
 10
104.8731189794572
 20
57.03265501410126
 10
104.8301397842572
 20
57.03378378850127
 10
104.7872128274572
 20
57.03461201250127
 10
104.7443143634572
 20
57.03514966690128
 10
104.7014434770572
 20
57.03540197410126
 10
104.6585913490572
 20
57.03537029570128
 10
104.6157805922572
 20
57.03505229890126
  0
LWPOLYLINE
  5
13B
330
2
100
AcDbEntity
  8
0
100
AcDbPolyline
 90
       21
 70
     0
 43
0.0
 10
119.3213891666572
 20
54.17067243650127
 10
119.5694126818572
 20
54.22880172130127
 10
119.8182215714572
 20
54.29755088450128
 10
120.0642184866572
 20
54.37612728130128
 10
120.3069601282572
 20
54.46439019330128
 10
120.5460021506572
 20
54.56217566690128
 10
120.7809102818572
 20
54.66930019330127
 10
121.0112594706572
 20
54.78556092770128
 10
121.2366332482572
 20
54.91073561250127
 10
121.4566241874572
 20
55.04458278370126
 10
121.6708361122572
 20
55.18684308930128
 10
121.8788846210572
 20
55.33723983170128
 10
122.0803973554572
 20
55.49547924130127
 10
122.2750153890572
 20
55.66125157410127
 10
122.4623939202572
 20
55.83423182050125
 10
122.6422026642572
 20
56.01408009570127
 10
122.8141268770572
 20
56.20044260290126
 10
122.9778680722572
 20
56.39295236930127
 10
123.1331447970572
 20
56.59123007810126
 10
123.2796941202572
 20
56.79488596130127
 10
123.3848452290572
 20
56.95264563330127
  0
LWPOLYLINE
  5
13C
330
2
100
AcDbEntity
  8
0
100
AcDbPolyline
 90
       10
 70
     0
 43
0.0
 10
119.9247626354572
 20
53.06928096610127
 10
119.8589047282572
 20
53.05647020930127
 10
119.7931401762572
 20
53.04356538050126
 10
119.7274771154572
 20
53.03057556770127
 10
119.6619236850572
 20
53.01750986530127
 10
119.5964929922572
 20
53.00437826370128
 10
119.5312180498572
 20
52.99119436450126
 10
119.4661368450572
 20
52.97797267170128
 10
119.4012873650572
 20
52.96472768770127
 10
119.2723968514572
 20
52.93821653890126
  0
LWPOLYLINE
  5
13D
330
2
100
AcDbEntity
  8
0
100
AcDbPolyline
 90
       14
 70
     0
 43
0.0
 10
118.6498244274572
 20
52.79106836130129
 10
119.1327284194572
 20
52.88774896770127
 10
119.5753031362572
 20
52.97818355170128
 10
119.9706644226572
 20
53.05811085730127
 10
120.3249411650572
 20
53.12720637090126
 10
120.6471941986572
 20
53.18663401250126
 10
120.9580580786572
 20
53.24013908450126
 10
121.2704830562572
 20
53.29011180770127
 10
121.5865119282572
 20
53.33686240130126
 10
121.9049369330572
 20
53.38015635170126
 10
122.2246569874572
 20
53.41981428450129
 10
122.5450845314572
 20
53.45574594850126
 10
122.8655267842572
 20
53.48786133410126
 10
123.1846837858572
 20
53.51603579970128
  0
LWPOLYLINE
  5
13E
330
2
100
AcDbEntity
  8
0
100
AcDbPolyline
 90
       17
 70
     0
 43
0.0
 10
118.3847676850572
 20
51.41428915010127
 10
118.3301291026572
 20
51.52693040770128
 10
118.2667601970572
 20
51.63489943650128
 10
118.1950660866572
 20
51.73750598210128
 10
118.1155051010572
 20
51.83409409250126
 10
118.0285858642572
 20
51.92404628770126
 10
117.9348640418572
 20
52.00678751810127
 10
117.8349387858572
 20
52.08178882530126
 10
117.7294489058572
 20
52.14857073730127
 10
117.6190687858572
 20
52.20670632450128
 10
117.5045040738572
 20
52.25582393250127
 10
117.3864871650572
 20
52.29560955810126
 10
117.2657725298572
 20
52.32580885890127
 10
117.1431318818572
 20
52.34622877250126
 10
117.0193492482572
 20
52.35673875650127
 10
116.8952159538572
 20
52.35727162530128
 10
116.7715255794572
 20
52.34782397410126
  0
LWPOLYLINE
  5
13F
330
2
100
AcDbEntity
  8
0
100
AcDbPolyline
 90
       58
 70
     0
 43
0.0
 10
116.7601704578572
 20
52.33825809090126
 10
116.7979574258572
 20
52.34222499330127
 10
116.8358354146572
 20
52.34525789890128
 10
116.8737812610572
 20
52.34735498690127
 10
116.9117742546572
 20
52.34851507330128
 10
116.9497829650572
 20
52.34873738370126
 10
116.9876534962572
 20
52.34802636450126
 10
117.0251086194572
 20
52.34640672290126
 10
117.0620243650572
 20
52.34391623010129
 10
117.0984205266572
 20
52.34058793250127
 10
117.1343028930572
 20
52.33645308770127
 10
117.1696791698572
 20
52.33154059970127
 10
117.2045559042572
 20
52.32587748130126
 10
117.2389413730572
 20
52.31948854370128
 10
117.2728445330572
 20
52.31239653730128
 10
117.3062750594572
 20
52.30462216610127
 10
117.3392430626572
 20
52.29618415490128
 10
117.3717590418572
 20
52.28709927970126
 10
117.4038336050572
 20
52.27738247490126
 10
117.4354777090572
 20
52.26704677730126
 10
117.4667020354572
 20
52.25610353570127
 10
117.4975149970572
 20
52.24456324290128
 10
117.5279451650572
 20
52.23242659330129
 10
117.5580426594572
 20
52.21968138690127
 10
117.5878268642572
 20
52.20632383330126
 10
117.6172969026572
 20
52.19235718850126
 10
117.6464582770572
 20
52.17778061570126
 10
117.6753127218572
 20
52.16259378210128
 10
117.7038617842572
 20
52.14679525570128
 10
117.7321056322572
 20
52.13038318530127
 10
117.7600434354572
 20
52.11335516610128
 10
117.7876732258572
 20
52.09570840290126
 10
117.8149919378572
 20
52.07743975490126
 10
117.8419953906572
 20
52.05854582850128
 10
117.8686783090572
 20
52.03902303170128
 10
117.8950343234572
 20
52.01886765890129
 10
117.9210559874572
 20
51.99807594210128
 10
117.9467347938572
 20
51.97664411490126
 10
117.9720611922572
 20
51.95456847490127
 10
117.9970246946572
 20
51.93184535490127
 10
118.0216135106572
 20
51.90847153090127
 10
118.0458161938572
 20
51.88444269890126
 10
118.0696133170572
 20
51.85976205730128
 10
118.0929841522572
 20
51.83443465730127
 10
118.1159168498572
 20
51.80845590370129
 10
118.1383994978572
 20
51.78182006690128
 10
118.1604183250572
 20
51.75452232130126
 10
118.1819583730572
 20
51.72655809410128
 10
118.2030033922572
 20
51.69792329410128
 10
118.2235357170572
 20
51.66861459490127
 10
118.2435367458572
 20
51.63862888130125
 10
118.2629854386572
 20
51.60796567970127
 10
118.2818630498572
 20
51.57661975330126
 10
118.3001390802572
 20
51.54460496770127
 10
118.3178103762572
 20
51.51188527810126
 10
118.3348057122572
 20
51.47855213570128
 10
118.3511387266572
 20
51.44453654210128
 10
118.3668288194572
 20
51.40973288290126
  0
LWPOLYLINE
  5
140
330
2
100
AcDbEntity
  8
0
100
AcDbPolyline
 90
       20
 70
     0
 43
0.0
 10
118.9926660338572
 20
51.20772490050126
 10
118.9711282626572
 20
51.33484664930128
 10
118.9492247346572
 20
51.46104079170126
 10
118.9270930594572
 20
51.58551451010126
 10
118.9048722754572
 20
51.70748578850126
 10
118.8827019874572
 20
51.82618832770126
 10
118.8607214818572
 20
51.94087637250127
 10
118.8390688546572
 20
52.05082938210129
 10
118.8178801394572
 20
52.15535657090126
 10
118.7972884610572
 20
52.25380123810126
 10
118.7774231858572
 20
52.34554489570126
 10
118.7584091250572
 20
52.43001115810128
 10
118.7403657410572
 20
52.50666935970127
 10
118.7234063970572
 20
52.57503788770129
 10
118.7076376450572
 20
52.63468721410126
 10
118.6931585522572
 20
52.68524258530127
 10
118.6800600882572
 20
52.72638638370128
 10
118.6684245554572
 20
52.75786012450126
 10
118.6583250626572
 20
52.77946607010128
 10
118.6498244274572
 20
52.79106836130129
  0
LWPOLYLINE
  5
141
330
2
100
AcDbEntity
  8
0
100
AcDbPolyline
 90
       31
 70
     0
 43
0.0
 10
117.7389591362572
 20
52.61391400610128
 10
117.6706557778572
 20
52.59941614690126
 10
117.6014691170572
 20
52.58501505730126
 10
117.5314211602572
 20
52.57072981410127
 10
117.4605392354572
 20
52.55658015650126
 10
117.3888719426572
 20
52.54258849250127
 10
117.3164732034572
 20
52.52877789570127
 10
117.2433872962572
 20
52.51516927010126
 10
117.1696199458572
 20
52.50177482530128
 10
117.0951672354572
 20
52.48860460290126
 10
117.0200346994572
 20
52.47567016610128
 10
116.9442656738572
 20
52.46298915810126
 10
116.8679129442572
 20
52.45058074850127
 10
116.7910245522572
 20
52.43846194210127
 10
116.7136295618572
 20
52.42664110690128
 10
116.6357522962572
 20
52.41512445250126
 10
116.5574172450572
 20
52.40391680610128
 10
116.4786495698572
 20
52.39301747170128
 10
116.3994746050572
 20
52.38242437410128
 10
116.3199249202572
 20
52.37213648450128
 10
116.2400620530572
 20
52.36215696930128
 10
116.1599547842572
 20
52.35249004130128
 10
116.0796606226572
 20
52.34313850370128
 10
115.9991920130572
 20
52.33409950370128
 10
115.9185501298572
 20
52.32536878050126
 10
115.8377475906572
 20
52.31694329570126
 10
115.7568427778572
 20
52.30882492770127
 10
115.6759055170572
 20
52.30101678210127
 10
115.5949975714572
 20
52.29352102850126
 10
115.5141484562572
 20
52.28633609570128
 10
115.4333796306572
 20
52.27945948450127
  0
LWPOLYLINE
  5
142
330
2
100
AcDbEntity
  8
0
100
AcDbPolyline
 90
       30
 70
     0
 43
0.0
 10
115.4333796306572
 20
52.27945948450127
 10
115.3513387762572
 20
52.27271007650128
 10
115.2709476466572
 20
52.26625733090128
 10
115.1922210834572
 20
52.26009007970128
 10
115.1151739314572
 20
52.25419715010128
 10
115.0398117698572
 20
52.24856718370128
 10
114.9661031330572
 20
52.24318806210127
 10
114.8940072914572
 20
52.23804747970127
 10
114.8234835154572
 20
52.23313313250128
 10
114.7544936802572
 20
52.22843331970128
 10
114.6870100706572
 20
52.22393876450126
 10
114.6210075730572
 20
52.21964080290127
 10
114.5564610802572
 20
52.21553076610127
 10
114.4933442578572
 20
52.21160017730127
 10
114.4316259074572
 20
52.20784132610126
 10
114.3712736082572
 20
52.20424669090127
 10
114.3122549410572
 20
52.20080875330125
 10
114.2355834210572
 20
52.19645619650126
 10
114.1611575122572
 20
52.19235465570128
 10
114.0889095538572
 20
52.18848994370128
 10
114.0187717522572
 20
52.18484828770127
 10
113.9506757618572
 20
52.18141757250126
 10
113.8845530994572
 20
52.17818609730128
 10
113.8203432754572
 20
52.17514280290126
 10
113.7580177730572
 20
52.17227920290127
 10
113.6975560706572
 20
52.16958745250128
 10
113.6389378562572
 20
52.16705985250126
 10
113.5821436706572
 20
52.16468930530126
 10
113.5271542610572
 20
52.16246885730126
 10
113.4739537666572
 20
52.16039177250127
  0
LINE
  5
143
330
2
100
AcDbEntity
  8
0
100
AcDbLine
 10
113.4739537666572
 20
52.16039177250127
 30
0.0
 11
113.3729136306572
 21
52.15664439010126
 31
0.0
  0
LINE
  5
144
330
2
100
AcDbEntity
  8
0
100
AcDbLine
 10
117.5751349426572
 20
52.57374449570128
 30
0.0
 11
117.6514748978572
 21
52.58994347490127
 31
0.0
  0
LINE
  5
145
330
2
100
AcDbEntity
  8
0
100
AcDbLine
 10
117.5012255090572
 20
52.55782783970127
 30
0.0
 11
117.5751349426572
 21
52.57374449570128
 31
0.0
  0
LINE
  5
146
330
2
100
AcDbEntity
  8
0
100
AcDbLine
 10
118.5551246498572
 20
52.77247427330127
 30
0.0
 11
118.6498257122572
 21
52.79106864290127
 31
0.0
  0
LINE
  5
147
330
2
100
AcDbEntity
  8
0
100
AcDbLine
 10
118.4158380754572
 20
52.74498506210128
 30
0.0
 11
118.5551246498572
 21
52.77247427330127
 31
0.0
  0
LINE
  5
148
330
2
100
AcDbEntity
  8
0
100
AcDbLine
 10
118.2798526546572
 20
52.71798251810128
 30
0.0
 11
118.4158380754572
 21
52.74498506210128
 31
0.0
  0
LINE
  5
149
330
2
100
AcDbEntity
  8
0
100
AcDbLine
 10
118.1471581826572
 20
52.69145798210127
 30
0.0
 11
118.2798526546572
 21
52.71798251810128
 31
0.0
  0
LINE
  5
14A
330
2
100
AcDbEntity
  8
0
100
AcDbLine
 10
118.0605433106572
 20
52.67403443650128
 30
0.0
 11
118.1471581826572
 21
52.69145798210127
 31
0.0
  0
LINE
  5
14B
330
2
100
AcDbEntity
  8
0
100
AcDbLine
 10
117.9754422434572
 20
52.65681446050127
 30
0.0
 11
118.0605433106572
 21
52.67403443650128
 31
0.0
  0
LINE
  5
14C
330
2
100
AcDbEntity
  8
0
100
AcDbLine
 10
117.8919048498572
 20
52.63979556290127
 30
0.0
 11
117.9754422434572
 21
52.65681446050127
 31
0.0
  0
LINE
  5
14D
330
2
100
AcDbEntity
  8
0
100
AcDbLine
 10
117.8100005010572
 20
52.62297662530127
 30
0.0
 11
117.8919048498572
 21
52.63979556290127
 31
0.0
  0
LINE
  5
14E
330
2
100
AcDbEntity
  8
0
100
AcDbLine
 10
117.7298196194572
 20
52.60635831490128
 30
0.0
 11
117.8100005010572
 21
52.62297662530127
 31
0.0
  0
LINE
  5
14F
330
2
100
AcDbEntity
  8
0
100
AcDbLine
 10
119.2723968514572
 20
52.93821653890126
 30
0.0
 11
119.1446570338572
 21
52.91173032770126
 31
0.0
  0
LINE
  5
150
330
2
100
AcDbEntity
  8
0
100
AcDbLine
 10
119.1446570338572
 20
52.91173032770126
 30
0.0
 11
119.0181829586572
 21
52.88533618210127
 31
0.0
  0
LINE
  5
151
330
2
100
AcDbEntity
  8
0
100
AcDbLine
 10
117.6514748978572
 20
52.58994347490127
 30
0.0
 11
117.7298196194572
 21
52.60635831490128
 31
0.0
  0
LINE
  5
152
330
2
100
AcDbEntity
  8
0
100
AcDbLine
 10
119.0181829586572
 20
52.88533618210127
 30
0.0
 11
118.8314798098572
 21
52.84612629730128
 31
0.0
  0
LINE
  5
153
330
2
100
AcDbEntity
  8
0
100
AcDbLine
 10
118.8314798098572
 20
52.84612629730128
 30
0.0
 11
118.5689825602572
 21
52.79064770850126
 31
0.0
  0
LINE
  5
154
330
2
100
AcDbEntity
  8
0
100
AcDbLine
 10
118.5689825602572
 20
52.79064770850126
 30
0.0
 11
118.1811039666572
 21
52.70826261730127
 31
0.0
  0
LINE
  5
155
330
2
100
AcDbEntity
  8
0
100
AcDbLine
 10
118.1811039666572
 20
52.70826261730127
 30
0.0
 11
117.9569173522572
 21
52.66050232930126
 31
0.0
  0
LINE
  5
156
330
2
100
AcDbEntity
  8
0
100
AcDbLine
 10
117.9569173522572
 20
52.66050232930126
 30
0.0
 11
117.7389591362572
 21
52.61391400610128
 31
0.0
  0
LWPOLYLINE
  5
157
330
2
100
AcDbEntity
  8
0
100
AcDbPolyline
 90
        3
 70
     0
 43
0.0
 10
116.7601704578572
 20
52.33825809090126
 10
116.7658858562572
 20
52.34314780770128
 10
116.7715255634572
 20
52.34782396290126
  0
LWPOLYLINE
  5
158
330
2
100
AcDbEntity
  8
0
100
AcDbPolyline
 90
       34
 70
     0
 43
0.0
 10
116.7715255794572
 20
52.34782397410126
 10
116.7777200914572
 20
52.35250244450128
 10
116.7849671474572
 20
52.35728920610128
 10
116.7932680066572
 20
52.36218782370127
 10
116.8026320002572
 20
52.36720431650127
 10
116.8130755554572
 20
52.37234598530128
 10
116.8246088210572
 20
52.37761535330128
 10
116.8372122802572
 20
52.38300217250127
 10
116.8508655442572
 20
52.38849834210128
 10
116.8655605986572
 20
52.39410208770127
 10
116.8812897170572
 20
52.39981208930126
 10
116.8980444370572
 20
52.40562703970127
 10
116.9158156930572
 20
52.41154569410127
 10
116.9345937890572
 20
52.41756684770127
 10
116.9543683922572
 20
52.42368933730128
 10
116.9751285490572
 20
52.42991203330126
 10
116.9968626690572
 20
52.43623383810126
 10
117.0195585202572
 20
52.44265366690126
 10
117.0432032418572
 20
52.44917045410128
 10
117.0677834258572
 20
52.45578316610127
 10
117.0932849570572
 20
52.46249075010126
 10
117.1196927554572
 20
52.46929205890126
 10
117.1469914674572
 20
52.47618602530128
 10
117.1751659170572
 20
52.48317176130126
 10
117.2041999042572
 20
52.49024824450126
 10
117.2340760610572
 20
52.49741427810127
 10
117.2647767698572
 20
52.50466870690127
 10
117.2962841778572
 20
52.51201040770126
 10
117.3285797906572
 20
52.51943818210128
 10
117.3616450386572
 20
52.52695087330128
 10
117.3954601730572
 20
52.53454711170127
 10
117.4300064594572
 20
52.54222578530127
 10
117.4652682034572
 20
52.54998647490126
 10
117.5012255090572
 20
52.55782783970127
  0
LWPOLYLINE
  5
159
330
2
100
AcDbEntity
  8
0
100
AcDbPolyline
 90
        4
 70
     0
 43
0.0
 10
118.8574067666572
 20
54.08808399010126
 10
119.0114545682572
 20
54.11184737730128
 10
119.1681669602572
 20
54.13973837890129
 10
119.3213891682572
 20
54.17067243330127
  0
LWPOLYLINE
  5
15A
330
2
100
AcDbEntity
  8
0
100
AcDbPolyline
 90
       18
 70
     0
 43
0.0
 10
121.9155419298572
 20
53.42228910530128
 10
121.9795395554572
 20
53.42909304290128
 10
122.0222351378572
 20
53.43354868770126
 10
122.0720657602572
 20
53.43866966850126
 10
122.1291963746572
 20
53.44443969090128
 10
122.1936149442572
 20
53.45082004290128
 10
122.2648502162572
 20
53.45772419170126
 10
122.3420765410572
 20
53.46503298210127
 10
122.4245782898572
 20
53.47264196130126
 10
122.5121530466572
 20
53.48049659330126
 10
122.6045967938572
 20
53.48854196290128
 10
122.7016393634572
 20
53.49671757890127
 10
122.8029366242572
 20
53.50495781730126
 10
122.9081922882572
 20
53.51320261250126
 10
123.0173496850572
 20
53.52141110690126
 10
123.1302894514572
 20
53.52953664130126
 10
123.2468672466572
 20
53.53753020610128
 10
123.3669160930572
 20
53.54534038050127
  0
LINE
  5
15B
330
2
100
AcDbEntity
  8
0
100
AcDbLine
 10
121.8704174962572
 20
53.41738684290127
 30
0.0
 11
121.9155419298572
 21
53.42228910530128
 31
0.0
  0
LWPOLYLINE
  5
15C
330
2
100
AcDbEntity
  8
0
100
AcDbPolyline
 90
       23
 70
     0
 43
0.0
 10
120.2509786690572
 20
57.03505229890126
 10
120.2081679122572
 20
57.03537029570128
 10
120.1653157826572
 20
57.03540197410126
 10
120.1224448978572
 20
57.03514966690128
 10
120.0795464338572
 20
57.03461201250127
 10
120.0366194770572
 20
57.03378378850127
 10
119.9936402818572
 20
57.03265501410126
 10
119.9508174258572
 20
57.03121905250128
 10
119.9083877730572
 20
57.02947154050128
 10
119.8664316690572
 20
57.02740142210126
 10
119.8250779746572
 20
57.02499650690126
 10
119.7847292914572
 20
57.02226071970128
 10
119.7457829778572
 20
57.01920408930127
 10
119.7084119394572
 20
57.01582216930126
 10
119.6729562482572
 20
57.01212480610127
 10
119.6398438226572
 20
57.00813713090127
 10
119.6094101666572
 20
57.00388191330128
 10
119.5819438658572
 20
56.99938038530127
 10
119.5578804418572
 20
56.99468835010129
 10
119.5375489858572
 20
56.98986655010128
 10
119.5210901218572
 20
56.98495219490126
 10
119.5086642866572
 20
56.98000558050129
 10
119.5003423186572
 20
56.97509752290128
  0
LWPOLYLINE
  5
15D
330
2
100
AcDbEntity
  8
0
100
AcDbPolyline
 90
       22
 70
     0
 43
0.0
 10
119.4840163682572
 20
56.96162965570128
 10
119.4549871890572
 20
56.87248869090126
 10
119.4139412642572
 20
56.76548441730128
 10
119.3667527858572
 20
56.66044422370126
 10
119.3135638034572
 20
56.55767141570127
 10
119.2545312386572
 20
56.45746334050127
 10
119.1898265314572
 20
56.36011082530126
 10
119.1196360258572
 20
56.26589852450127
 10
119.0441611346572
 20
56.17510441250127
 10
118.9636198306572
 20
56.08800044450126
 10
118.8782450098572
 20
56.00484938690127
 10
118.7882834338572
 20
55.92590319810128
 10
118.6939974898572
 20
55.85140393730128
 10
118.5956650082572
 20
55.78158232450127
 10
118.4935762098572
 20
55.71665464130126
 10
118.3880324658572
 20
55.65682174690127
 10
118.2793451602572
 20
55.60226835810126
 10
118.1678350322572
 20
55.55316264130127
 10
118.0538311810572
 20
55.50965564610127
 10
117.9376702354572
 20
55.47188084450127
 10
117.8196955074572
 20
55.43995369250126
 10
117.7032316354572
 20
55.41454271330128
  0
LWPOLYLINE
  5
15E
330
2
100
AcDbEntity
  8
0
100
AcDbPolyline
 90
        3
 70
     0
 43
0.0
 10
119.4873644514572
 20
56.96551618530128
 10
119.4843438786572
 20
56.96241892290126
 10
119.4840171074572
 20
56.96162965410128
  0
LWPOLYLINE
  5
15F
330
2
100
AcDbEntity
  8
0
100
AcDbPolyline
 90
        3
 70
     0
 43
0.0
 10
119.4873644514572
 20
56.96551618530128
 10
119.4939876002572
 20
56.97029323970127
 10
119.5003423186572
 20
56.97509752290128
  0
LINE
  5
160
330
2
100
AcDbEntity
  8
0
100
AcDbLine
 10
122.9514846466572
 20
56.36219012770126
 30
0.0
 11
123.5783796306572
 21
56.36219012770126
 31
0.0
  0
LWPOLYLINE
  5
161
330
2
100
AcDbEntity
  8
0
100
AcDbPolyline
 90
        4
 70
     0
 43
0.0
 10
120.2509786690572
 20
57.03505229890126
 10
121.1397129714572
 20
57.02488496930127
 10
122.0272449026572
 20
57.01362245570127
 10
122.9134421746572
 20
57.00126576130128
  0
LWPOLYLINE
  5
162
330
2
100
AcDbEntity
  8
0
100
AcDbPolyline
 90
       21
 70
     0
 43
0.0
 10
123.3848473442572
 20
56.95264562210127
 10
123.3857533186572
 20
56.95577627010127
 10
123.3840198434572
 20
56.95935143330126
 10
123.3793913042572
 20
56.96282322530127
 10
123.3719759666572
 20
56.96618913570128
 10
123.3618796930572
 20
56.96944136130127
 10
123.3491947842572
 20
56.97257503810127
 10
123.3339752546572
 20
56.97559042530127
 10
123.3163018626572
 20
56.97847902530128
 10
123.2961939314572
 20
56.98124083170128
 10
123.2736754354572
 20
56.98387130530128
 10
123.2487881506572
 20
56.98636240290127
 10
123.2214713170572
 20
56.98871406050128
 10
123.1917615090572
 20
56.99091478210127
 10
123.1596194450572
 20
56.99295798850127
 10
123.1249802162572
 20
56.99483589090127
 10
123.0878653986572
 20
56.99653418530127
 10
123.0481510978572
 20
56.99804362690128
 10
123.0058799826572
 20
56.99934615010127
 10
122.9609764018572
 20
57.00042660130129
 10
122.9134421746572
 20
57.00126576130128
  0
LWPOLYLINE
  5
163
330
2
100
AcDbEntity
  8
0
100
AcDbPolyline
 90
        4
 70
     0
 43
0.0
 10
112.4333796306572
 20
62.36219012770127
 10
106.9612070738572
 20
62.36229455330127
 10
101.6255085714572
 20
62.36250500930125
 10
96.43066449465727
 20
62.36214030050127
  0
LWPOLYLINE
  5
164
330
2
100
AcDbEntity
  8
0
100
AcDbPolyline
 90
        4
 70
     0
 43
0.0
 10
96.43066449465727
 20
62.36214030050127
 10
96.13066128665726
 20
62.35970920130125
 10
95.83082594905725
 20
62.35258704290126
 10
95.53119180345726
 20
62.34077573090127
  0
LWPOLYLINE
  5
165
330
2
100
AcDbEntity
  8
0
100
AcDbPolyline
 90
       26
 70
     0
 43
0.0
 10
146.5787968226572
 20
50.19325872290128
 10
146.1828867026572
 20
51.03960933250127
 10
145.7520927138572
 20
51.86484622050127
 10
145.2876215298572
 20
52.66721823810127
 10
144.7906956514572
 20
53.44509700930126
 10
144.2625899826572
 20
54.19711195170126
 10
143.7046747778572
 20
54.92185530370128
 10
143.1183158546572
 20
55.61800507330127
 10
142.5048607490572
 20
56.28450973250128
 10
141.8658868914572
 20
56.92015066690126
 10
141.2028792210572
 20
57.52386555490128
 10
140.5171055954572
 20
58.09497218690125
 10
139.8100493346572
 20
58.63265637090126
 10
139.0830731410572
 20
59.13621307490126
 10
138.3373973570572
 20
59.60514927650127
 10
137.5746270146572
 20
60.03878688450126
 10
136.7962611922572
 20
60.43652491970127
 10
136.0035809138572
 20
60.80022415170126
 10
135.1979120434572
 20
61.12503809570125
 10
134.3810386194572
 20
61.41266940930126
 10
133.5553047682572
 20
61.66254487650127
 10
132.7231857922572
 20
61.87422763330125
 10
131.8854188514572
 20
62.04774316290126
 10
131.0412377506572
 20
62.18336686690125
 10
130.1910461394572
 20
62.28110356610125
 10
129.3355674562572
 20
62.34077573090127
  0
LWPOLYLINE
  5
166
330
2
100
AcDbEntity
  8
0
100
AcDbPolyline
 90
        5
 70
     0
 43
0.0
 10
147.5441314546572
 20
47.55445123170128
 10
147.4367835922572
 20
47.90850510850126
 10
147.1786137442572
 20
48.68316212610128
 10
146.8923257426572
 20
49.44532344130127
 10
146.5787968226572
 20
50.19325872290128
  0
LWPOLYLINE
  5
167
330
2
100
AcDbEntity
  8
0
100
AcDbPolyline
 90
       31
 70
     0
 43
0.0
 10
136.4595081090572
 20
48.14649187330127
 10
136.3947148642572
 20
48.25457947490128
 10
136.3286970098572
 20
48.36123860770126
 10
136.2614535026572
 20
48.46647183490128
 10
136.1929939298572
 20
48.57026255010126
 10
136.1233321250572
 20
48.67258730370128
 10
136.0524883058572
 20
48.77341444770127
 10
135.9804788626572
 20
48.87271757890127
 10
135.9072985218572
 20
48.97049944930128
 10
135.8329139538572
 20
49.06679545730128
 10
135.7572012706572
 20
49.16174242850127
 10
135.6800208514572
 20
49.25548295490128
 10
135.6012606658572
 20
49.34808129410126
 10
135.5208845618572
 20
49.43952546530127
 10
135.4391322770572
 20
49.52957688290126
 10
135.3562411858572
 20
49.61802812770128
 10
135.2721633186572
 20
49.70502306210128
 10
135.2153627154572
 20
49.76235005410126
 10
135.1577635698572
 20
49.81935151650128
 10
135.0991478162572
 20
49.87624620450128
 10
135.0393035170572
 20
49.93324120130129
 10
134.9780432146572
 20
49.99049693890126
 10
134.9151855714572
 20
50.04816217570127
 10
134.8668760402572
 20
50.09177471170128
 10
134.8174357330572
 20
50.13579631170128
 10
134.7667343762572
 20
50.18032202050128
 10
134.7146417010572
 20
50.22544687810128
 10
134.6610543122572
 20
50.27124226690128
 10
134.6059763218572
 20
50.31768492610126
 10
134.5494387202572
 20
50.36472793410126
 10
134.4914725010572
 20
50.41232437250127
  0
LWPOLYLINE
  5
168
330
2
100
AcDbEntity
  8
0
100
AcDbPolyline
 90
       93
 70
     0
 43
0.0
 10
127.0738430834572
 20
53.51568450690127
 10
127.2980385842572
 20
53.49231298690128
 10
127.5165004306572
 20
53.46647531650126
 10
127.7292123026572
 20
53.43830208770126
 10
127.9361472898572
 20
53.40792673250127
 10
128.1372821042572
 20
53.37548435810126
 10
128.3326564162572
 20
53.34110290210128
 10
128.5230187986572
 20
53.30476670370126
 10
128.7098299122572
 20
53.26629297570128
 10
128.8940786242572
 20
53.22554653250128
 10
129.0760866194572
 20
53.18250574530129
 10
129.2561506722572
 20
53.13714079170129
 10
129.4345701314572
 20
53.08940839650128
 10
129.6116372018572
 20
53.03925421890127
 10
129.7876713842572
 20
52.98660254210128
 10
129.9629384178572
 20
52.93137985250126
 10
130.1374445954572
 20
52.87358819970126
 10
130.3111144082572
 20
52.81325298050126
 10
130.4840049810572
 20
52.75035224290127
 10
130.6562341426572
 20
52.68483753090126
 10
130.8278974450572
 20
52.61666208610129
 10
130.9990602370572
 20
52.54578511650127
 10
131.1697431954572
 20
52.47217987810128
 10
131.3400193042572
 20
52.39579256450127
 10
131.5101834434572
 20
52.31645672770127
 10
131.6805677090572
 20
52.23397880930128
 10
131.8512753858572
 20
52.14826445570128
 10
132.0221989298572
 20
52.05931933410127
 10
132.1931537058572
 20
51.96719347650128
 10
132.3639567522572
 20
51.87194199010128
 10
132.5340802770572
 20
51.77383177890127
 10
132.7049841202572
 20
51.67194959170126
 10
132.8770546066572
 20
51.56598540610128
 10
133.0410781522572
 20
51.46184696770126
 10
133.1895169682572
 20
51.36501368610126
 10
133.3242316898572
 20
51.27503897730128
 10
133.4482245874572
 20
51.19049339970127
 10
133.5631439906572
 20
51.11067709890128
 10
133.6703383810572
 20
51.03498243650128
 10
133.7708516290572
 20
50.96293319650126
 10
133.8649765778572
 20
50.89453437890128
 10
133.9546646866572
 20
50.82853651970125
 10
134.0454481490572
 20
50.76086574690126
 10
134.1420506898572
 20
50.68779261570128
 10
134.2466158786572
 20
50.60731658850127
 10
134.3629677666572
 20
50.51588682850127
 10
134.4914145666572
 20
50.41237240930127
 10
134.6216503362572
 20
50.30431272610127
 10
134.7445622882572
 20
50.19912393250127
 10
134.8599448386572
 20
50.09723159490127
 10
134.9693599378572
 20
49.99749938530126
 10
135.0734906962572
 20
49.89949545730127
 10
135.1730117810572
 20
49.80275577090129
 10
135.2686025570572
 20
49.70676088450128
 10
135.3604136738572
 20
49.61148699490127
 10
135.4459932482572
 20
49.51974955810126
 10
135.5226188706572
 20
49.43503119970128
 10
135.5920580930572
 20
49.35600580770127
 10
135.6588812690572
 20
49.27783315330126
 10
135.7255566194572
 20
49.19768376130128
 10
135.7921226210572
 20
49.11545127330126
 10
135.8584956226572
 20
49.03117353730127
 10
135.9248424034572
 20
48.94456390850127
 10
135.9912224290572
 20
48.85544947810126
 10
136.0577446498572
 20
48.76357038210128
 10
136.1245165986572
 20
48.66864029250127
 10
136.1916696290572
 20
48.57030597730127
 10
136.2593595602572
 20
48.46813637890128
 10
136.3277706754572
 20
48.36160440930126
 10
136.3971667330572
 20
48.24998781890127
 10
136.4678780658572
 20
48.13235687330126
 10
136.5397054226572
 20
48.00858113250126
 10
136.6115080242572
 20
47.88023134850127
 10
136.6822307618572
 20
47.74897418210128
 10
136.7516766034572
 20
47.61506707810127
 10
136.8198854882572
 20
47.47832856930128
 10
136.8868159346572
 20
47.33872413250128
 10
136.9524445266572
 20
47.19617809730126
 10
137.0167531282572
 20
47.05059447010126
 10
137.0797195010572
 20
46.90187609250128
 10
137.1411092930572
 20
46.75044996930128
 10
137.2004420258572
 20
46.59747833090128
 10
137.2574224370572
 20
46.44383541250127
 10
137.3121145218572
 20
46.28951873250128
 10
137.3647039058572
 20
46.13415824930126
 10
137.4152986194572
 20
45.97757679810126
 10
137.4638695250572
 20
45.82001489250126
 10
137.5103575698572
 20
45.66184546850126
 10
137.5547310482572
 20
45.50339738050126
 10
137.5969890386572
 20
45.34492732770127
 10
137.6371541058572
 20
45.18662755970126
 10
137.6752498882572
 20
45.02870247330128
 10
137.7113055826572
 20
44.87135061730126
  0
LWPOLYLINE
  5
169
330
2
100
AcDbEntity
  8
0
100
AcDbPolyline
 90
       75
 70
     0
 43
0.0
 10
144.6093442482572
 20
48.91857479490127
 10
144.5035216690572
 20
49.10492486210128
 10
144.3948141954572
 20
49.29039603970128
 10
144.2831518946572
 20
49.47506839330128
 10
144.1684587298572
 20
49.65902256770127
 10
144.0506956562572
 20
49.84227183650128
 10
143.9298558930572
 20
50.02477725410128
 10
143.8059842882572
 20
50.20642687330127
 10
143.6791616034572
 20
50.38706093570127
 10
143.5494221154572
 20
50.56659273250128
 10
143.4167429426572
 20
50.74501864610127
 10
143.2810941234572
 20
50.92234241410128
 10
143.1423888066572
 20
51.09863715650127
 10
143.0005856802572
 20
51.27391182050127
 10
142.8556755218572
 20
51.44813323330126
 10
142.7076525298572
 20
51.62126405410126
 10
142.5565092546572
 20
51.79326946210128
 10
142.4021956370572
 20
51.96416153410126
 10
142.2446669282572
 20
52.13394332770127
 10
142.0838977186572
 20
52.30259462850128
 10
141.9199103730572
 20
52.47004555330128
 10
141.7528043778572
 20
52.63615159970126
 10
141.5826740258572
 20
52.80077982050127
 10
141.4095063378572
 20
52.96390629890126
 10
141.2332918594572
 20
53.12550318850128
 10
141.0540182546572
 20
53.28554491330127
 10
140.8716634706572
 20
53.44401386530129
 10
140.6862395650572
 20
53.60086300290126
 10
140.4977243170572
 20
53.75607380450128
 10
140.3061962818572
 20
53.90954623810128
 10
140.1116040642572
 20
54.06128717890126
 10
139.9142555474572
 20
54.21102786530127
 10
139.7154288018572
 20
54.35780431330127
 10
139.5160783234572
 20
54.50093791970127
 10
139.3166360450572
 20
54.64016991010126
 10
139.1170918290572
 20
54.77557070530128
 10
138.9173896018572
 20
54.90723481890126
 10
138.7175239842572
 20
55.03521910690128
 10
138.5176034642572
 20
55.15950893730127
 10
138.3179234082572
 20
55.27998573730127
 10
138.1187267490572
 20
55.39657979970127
 10
137.9201157650572
 20
55.50930865570126
 10
137.7221078082572
 20
55.61823734690128
 10
137.5246867346572
 20
55.72344822530126
 10
137.3278386850572
 20
55.82501947330126
 10
137.1315178354572
 20
55.92304295490126
 10
136.9356699954572
 20
56.01761053890126
 10
136.7402846754572
 20
56.10879008930126
 10
136.5451596018572
 20
56.19672829890126
 10
136.3495312978572
 20
56.28180986210129
 10
136.1529140946572
 20
56.36427320290128
 10
135.9553543042572
 20
56.44411663330126
 10
135.7568184162572
 20
56.52137172450128
 10
135.5571371426572
 20
56.59611796930128
 10
135.3561426338572
 20
56.66842521570126
 10
135.1537818482572
 20
56.73831634370128
 10
134.9500096482572
 20
56.80580978210127
 10
134.7446391778572
 20
56.87096593730126
 10
134.5371670258572
 20
56.93393313410126
 10
134.3270063650572
 20
56.99486767330128
 10
134.1138735154572
 20
57.05382099810126
 10
133.8976817490572
 20
57.11078175170126
 10
133.6782723746572
 20
57.16575456610127
 10
133.4554452338572
 20
57.21874901890126
 10
133.2290510626572
 20
57.26975562210128
 10
132.9989799714572
 20
57.31875160610127
 10
132.7649692450572
 20
57.36574219170126
 10
132.5264184626572
 20
57.41078812930126
 10
132.2826655154572
 20
57.45394898050128
 10
132.0332663506572
 20
57.49523144130129
 10
131.7780383042572
 20
57.53458928450126
 10
131.5163246594572
 20
57.57204187010126
 10
131.2471859250572
 20
57.60761997410128
 10
130.9729158498572
 20
57.64096694370127
 10
130.6988874578572
 20
57.67130019010128
  0
LWPOLYLINE
  5
16A
330
2
100
AcDbEntity
  8
0
100
AcDbPolyline
 90
       23
 70
     0
 43
0.0
 10
138.5440497474572
 20
42.72518642050127
 10
138.5285213458572
 20
42.79785262850126
 10
138.5124464002572
 20
42.86901302370128
 10
138.4956169266572
 20
42.93883530370126
 10
138.4823883234572
 20
42.99038095970127
 10
138.4686132066572
 20
43.04107619810127
 10
138.4591367842572
 20
43.07427585730127
 10
138.4494924610572
 20
43.10677605570126
 10
138.4397574978572
 20
43.13834066210128
 10
138.4299839010572
 20
43.16881730210127
 10
138.4201226578572
 20
43.19838867170128
 10
138.4100994994572
 20
43.22732123010126
 10
138.3946079858572
 20
43.27001754530127
 10
138.3783900786572
 20
43.31224957410126
 10
138.3612914594572
 20
43.35430668930126
 10
138.3433204594572
 20
43.39614173090126
 10
138.3245106850572
 20
43.43769989250128
 10
138.3048341842572
 20
43.47923231490128
 10
138.2772372882572
 20
43.53499836450126
 10
138.2482893314572
 20
43.59125722850126
 10
138.2182571570572
 20
43.64796503010126
 10
138.1874319234572
 20
43.70504263010127
 10
138.1249802706572
 20
43.81939123170127
  0
LWPOLYLINE
  5
16B
330
2
100
AcDbEntity
  8
0
100
AcDbPolyline
 90
       12
 70
     0
 43
0.0
 10
138.5646747810572
 20
42.71119388770126
 10
138.5142139458572
 20
42.93410983970128
 10
138.4592956034572
 20
43.12782045570128
 10
138.4000014306572
 20
43.29374429250125
 10
138.3300235042572
 20
43.45147851650128
 10
138.2411811586572
 20
43.62300944610126
 10
138.1366009906572
 20
43.81251207970126
 10
138.0212494850572
 20
44.02754420290128
 10
137.9146726050572
 20
44.25022510210126
 10
137.8307086274572
 20
44.45877359170125
 10
137.7643182786572
 20
44.66218245570127
 10
137.7113056338572
 20
44.87135051010127
  0
LWPOLYLINE
  5
16C
330
2
100
AcDbEntity
  8
0
100
AcDbPolyline
 90
       53
 70
     0
 43
0.0
 10
140.9507575602572
 20
41.36219012770126
 10
140.9488959394572
 20
41.46587856610127
 10
140.9434807122572
 20
41.56545117250127
 10
140.9348425938572
 20
41.65943397410127
 10
140.9231662306572
 20
41.74821431810127
 10
140.9081620914572
 20
41.83460677570127
 10
140.8895521506572
 20
41.91987996610127
 10
140.8675593650572
 20
42.00237742690127
 10
140.8421368098572
 20
42.08171112930126
 10
140.8127120690572
 20
42.15885942050127
 10
140.7788833874572
 20
42.23379876450127
 10
140.7407252226572
 20
42.30527796290127
 10
140.7015511874572
 20
42.36721015490127
 10
140.6654886738572
 20
42.41504013570128
 10
140.6315414562572
 20
42.45111189250127
 10
140.5959313778572
 20
42.47939314690127
 10
140.5555965618572
 20
42.50175342370127
 10
140.5098841666572
 20
42.51880337250127
 10
140.4594704946572
 20
42.53302562690127
 10
140.4043652786572
 20
42.54556477410126
 10
140.3443927810572
 20
42.55770129250127
 10
140.2790883554572
 20
42.57031056610126
 10
140.2078732850572
 20
42.58394715970126
 10
140.1300769618572
 20
42.59959497250128
 10
140.0449611330572
 20
42.61862820130128
 10
139.9516434674572
 20
42.64253763810127
 10
139.8489740242572
 20
42.67308372610126
 10
139.7353564418572
 20
42.71203051170127
 10
139.6093290866572
 20
42.76152932130128
 10
139.4707206754572
 20
42.82402197090127
 10
139.3295328322572
 20
42.89672465250126
 10
139.1963800450572
 20
42.97450443330126
 10
139.0725932498572
 20
43.05545529890127
 10
138.9534982610572
 20
43.14219167650128
 10
138.8301746866572
 20
43.24291007330126
 10
138.6976504258572
 20
43.36564178210127
 10
138.5695079266572
 20
43.50099835330127
 10
138.4568224642572
 20
43.63529535810127
 10
138.3623259842572
 20
43.76003362210127
 10
138.2811484434572
 20
43.87648127330126
 10
138.2095255602572
 20
43.98605571010128
 10
138.1455558562572
 20
44.08886743330126
 10
138.0879339458572
 20
44.18491376130126
 10
138.0359874994572
 20
44.27378813890126
 10
137.9893783042572
 20
44.35503595170127
 10
137.9478271442572
 20
44.42858863490127
 10
137.9104676146572
 20
44.49560073090125
 10
137.8759729794572
 20
44.55819506530128
 10
137.8429915794572
 20
44.61870918210126
 10
137.8102452226572
 20
44.67963275490126
 10
137.7773381346572
 20
44.74195629410127
 10
137.7443399874572
 20
44.80581714210126
 10
137.7113056338572
 20
44.87135051010127
  0
LWPOLYLINE
  5
16D
330
2
100
AcDbEntity
  8
0
100
AcDbPolyline
 90
       33
 70
     0
 43
0.0
 10
137.6866199362572
 20
44.91647375810126
 10
137.6520919250572
 20
45.06804356610127
 10
137.6159729058572
 20
45.21892835810127
 10
137.5782338866572
 20
45.36910349730127
 10
137.5388107970572
 20
45.51868210050128
 10
137.4976300914572
 20
45.66779909570127
 10
137.4546153858572
 20
45.81653891490129
 10
137.4096856754572
 20
45.96497926530128
 10
137.3627443058572
 20
46.11322146690127
 10
137.3302651250572
 20
46.21203585090126
 10
137.2967112978572
 20
46.31110189890129
 10
137.2619469458572
 20
46.41071169250127
 10
137.2258303074572
 20
46.51115391170129
 10
137.1881960962572
 20
46.61270365570127
 10
137.1488731474572
 20
46.71563262530128
 10
137.1181663474572
 20
46.79389672450128
 10
137.0863208242572
 20
46.87319694370126
 10
137.0532440498572
 20
46.95364076130127
 10
137.0188434978572
 20
47.03533565250126
 10
136.9830232162572
 20
47.11838628290126
 10
136.9456735490572
 20
47.20288608130127
 10
136.9066814114572
 20
47.28892566690126
 10
136.8659337202572
 20
47.37659566050126
 10
136.8319910466572
 20
47.44796781090127
 10
136.7967673522572
 20
47.52049602050127
 10
136.7601775458572
 20
47.59423489090127
 10
136.7221365330572
 20
47.66923902050126
 10
136.6825592210572
 20
47.74556301410126
 10
136.6413673842572
 20
47.82324227330128
 10
136.5985102546572
 20
47.90223539170128
 10
136.5539439314572
 20
47.98248177090127
 10
136.5076245154572
 20
48.06392080610127
 10
136.4595081058572
 20
48.14649189570127
  0
LWPOLYLINE
  5
16E
330
2
100
AcDbEntity
  8
0
100
AcDbPolyline
 90
       24
 70
     0
 43
0.0
 10
138.1249802706572
 20
43.81939123170127
 10
138.1018228242572
 20
43.86198057730126
 10
138.0791079362572
 20
43.90408747810127
 10
138.0570414498572
 20
43.94543270690127
 10
138.0358292066572
 20
43.98573703490126
 10
138.0156365666572
 20
44.02477535970127
 10
137.9964669810572
 20
44.06253906370127
 10
137.9782834194572
 20
44.09907365570126
 10
137.9610488514572
 20
44.13442464290127
 10
137.9447167570572
 20
44.16865774530125
 10
137.9292026466572
 20
44.20191953570127
 10
137.9144125442572
 20
44.23437680130127
 10
137.9002524706572
 20
44.26619632610126
 10
137.8821973138572
 20
44.30792422210126
 10
137.8649163266572
 20
44.34924398850128
 10
137.8482307058572
 20
44.39058474690128
 10
137.8240285490572
 20
44.45337109090127
 10
137.8007668098572
 20
44.51740132610126
 10
137.7784787554572
 20
44.58279389730129
 10
137.7573180834572
 20
44.64921649090126
 10
137.7374572482572
 20
44.71621270370127
 10
137.7190233314572
 20
44.78328053090126
 10
137.7020971650572
 20
44.85001860770125
 10
137.6866199362572
 20
44.91647375810126
  0
LWPOLYLINE
  5
16F
330
2
100
AcDbEntity
  8
0
100
AcDbPolyline
 90
        7
 70
     0
 43
0.0
 10
148.4055806754572
 20
42.46893664290126
 10
148.3949775058572
 20
42.66292053250127
 10
148.3364502610572
 20
43.42763976770126
 10
148.2528444450572
 20
44.17822040930127
 10
148.1453703714572
 20
44.91408084290128
 10
148.0153074370572
 20
45.63433273410126
 10
147.8666757522572
 20
46.32637629570126
  0
LWPOLYLINE
  5
170
330
2
100
AcDbEntity
  8
0
100
AcDbPolyline
 90
       24
 70
     0
 43
0.0
 10
146.7116595202572
 20
41.36219012770126
 10
146.7103108786572
 20
41.55838359970127
 10
146.7062910786572
 20
41.75344917890128
 10
146.6996230098572
 20
41.94761643010127
 10
146.6902935682572
 20
42.14155429250126
 10
146.6783111634572
 20
42.33508799010126
 10
146.6636936530572
 20
42.52804550210128
 10
146.6464386674572
 20
42.72056469250126
 10
146.6265433970572
 20
42.91271825570126
 10
146.6040079458572
 20
43.10452323650127
 10
146.5788311842572
 20
43.29599784610127
 10
146.5510099986572
 20
43.48716447810128
 10
146.5205384482572
 20
43.67805290530128
 10
146.4874051826572
 20
43.86871229090127
 10
146.4516044978572
 20
44.05914628130128
 10
146.4131312866572
 20
44.24935218370126
 10
146.3719660370572
 20
44.43938970050126
 10
146.3280805650572
 20
44.62933781250126
 10
146.2814970402572
 20
44.81905511810126
 10
146.2321601842572
 20
45.00871780290125
 10
146.1798145266572
 20
45.19917027330126
 10
146.1249543762572
 20
45.38856163970126
 10
146.0680555202572
 20
45.57545705410126
 10
146.0095510354572
 20
45.75873837730128
  0
LWPOLYLINE
  5
171
330
2
100
AcDbEntity
  8
0
100
AcDbPolyline
 90
       22
 70
     0
 43
0.0
 10
138.6932126962572
 20
41.36219012930126
 10
138.6927984850572
 20
41.42975287010126
 10
138.6915782594572
 20
41.49696264130127
 10
138.6895833394572
 20
41.56381262530127
 10
138.6868438994572
 20
41.63030056130127
 10
138.6833855538572
 20
41.69644242690127
 10
138.6792327730572
 20
41.76225876290127
 10
138.6744087874572
 20
41.82777120770127
 10
138.6689318498572
 20
41.89300580770127
 10
138.6628189778572
 20
41.95798971330127
 10
138.6560862610572
 20
42.02274937090126
 10
138.6487461218572
 20
42.08730844450127
 10
138.6408100578572
 20
42.15168989570126
 10
138.6322891154572
 20
42.21591441730128
 10
138.6231925138572
 20
42.27999363810127
 10
138.6135290226572
 20
42.34393691330128
 10
138.6033070562572
 20
42.40775357570128
 10
138.5925336210572
 20
42.47145285250127
 10
138.5812153698572
 20
42.53504394370127
 10
138.5693586450572
 20
42.59853331970127
 10
138.5569685170572
 20
42.66191653570126
 10
138.5440497474572
 20
42.72518642050127
  0
LWPOLYLINE
  5
172
330
2
100
AcDbEntity
  8
0
100
AcDbPolyline
 90
        3
 70
     0
 43
0.0
 10
148.4333734434572
 20
41.36219012770126
 10
148.4175307074572
 20
42.19785769410127
 10
148.4055806754572
 20
42.46893664290126
  0
LWPOLYLINE
  5
173
330
2
100
AcDbEntity
  8
0
100
AcDbPolyline
 90
       18
 70
     0
 43
0.0
 10
146.0095510354572
 20
45.75873837730128
 10
145.9456726290572
 20
45.95016330210126
 10
145.8793332786572
 20
46.14086840930127
 10
145.8106364178572
 20
46.33065987490127
 10
145.7395754738572
 20
46.51967398530127
 10
145.6661783218572
 20
46.70793347970127
 10
145.5906969202572
 20
46.89490788130126
 10
145.5129630338572
 20
47.08112155010127
 10
145.4329193666572
 20
47.26677726370127
 10
145.3506301410572
 20
47.45178092770126
 10
145.2661176898572
 20
47.63614516770127
 10
145.1793714658572
 20
47.81995798530127
 10
145.0903647458572
 20
48.00332936930127
 10
144.9990315362572
 20
48.18643288290127
 10
144.9053009106572
 20
48.36943156130127
 10
144.8091358658572
 20
48.55240632770128
 10
144.7105027794572
 20
48.73542118690128
 10
144.6093442482572
 20
48.91857479490127
  0
LWPOLYLINE
  5
174
330
2
100
AcDbEntity
  8
0
100
AcDbPolyline
 90
        4
 70
     0
 43
0.0
 10
147.8666759362572
 20
46.32637550050128
 10
147.7576367682572
 20
46.77515667810126
 10
147.6321605218572
 20
47.24666465890126
 10
147.5441314546572
 20
47.55445123170128
  0
LWPOLYLINE
  5
175
330
2
100
AcDbEntity
  8
0
100
AcDbPolyline
 90
       49
 70
     0
 43
0.0
 10
134.2387420034572
 20
54.44215916930128
 10
134.3435755618572
 20
54.37534702210126
 10
134.4472427042572
 20
54.30650759810126
 10
134.5497309218572
 20
54.23563584450127
 10
134.6510076274572
 20
54.16274387170128
 10
134.7509599426572
 20
54.08791239970128
 10
134.8494549138572
 20
54.01123930530127
 10
134.9463739218572
 20
53.93281525250128
 10
135.0416556994572
 20
53.85270203330128
 10
135.1352533106572
 20
53.77095422530127
 10
135.2271109890572
 20
53.68763828130127
 10
135.3171376370572
 20
53.60286816930127
 10
135.4052333234572
 20
53.51676973090127
 10
135.4913102226572
 20
53.42946126530129
 10
135.5753289218572
 20
53.34103087810126
 10
135.6572621202572
 20
53.25155912770128
 10
135.7370752818572
 20
53.16113918690127
 10
135.8147049506572
 20
53.06991467490127
 10
135.8900804386572
 20
52.97804182370126
 10
135.9631430098572
 20
52.88566772610128
 10
136.0338817170572
 20
52.79290290850127
 10
136.1022975650572
 20
52.69984876130127
 10
136.1683984178572
 20
52.60659735330128
 10
136.2322195794572
 20
52.51320346850127
 10
136.2938032194572
 20
52.41971257410128
 10
136.3531915362572
 20
52.32616889090127
 10
136.4104268802572
 20
52.23261167650128
 10
136.4655516338572
 20
52.13907894370127
 10
136.5186107234572
 20
52.04560148130127
 10
136.5696592226572
 20
51.95218117890127
 10
136.6187547458572
 20
51.85881269890126
 10
136.6659509250572
 20
51.76549584450126
 10
136.7112854498572
 20
51.67225099490128
 10
136.7547920274572
 20
51.57910366690126
 10
136.7965051602572
 20
51.48607528450128
 10
136.8364625282572
 20
51.39317088610127
 10
136.8747026098572
 20
51.30039141570128
 10
136.9112578034572
 20
51.20775470690128
 10
136.9461361938572
 20
51.11534615810126
 10
136.9793397922572
 20
51.02326805570126
 10
137.0108761522572
 20
50.93161000130127
 10
137.0407750290572
 20
50.84041084130126
 10
137.0690717234572
 20
50.74969673410127
 10
137.0957988034572
 20
50.65950521090127
 10
137.1209779202572
 20
50.56991929730128
 10
137.1446279890572
 20
50.48103338850125
 10
137.1667722738572
 20
50.39292846530128
 10
137.1874514354572
 20
50.30563184930127
 10
137.2067104802572
 20
50.21915743810126
  0
LWPOLYLINE
  5
176
330
2
100
AcDbEntity
  8
0
100
AcDbPolyline
 90
       59
 70
     0
 43
0.0
 10
137.2067104802572
 20
50.21915743810126
 10
137.1484187538572
 20
50.27848153250127
 10
137.0909646882572
 20
50.33619676770126
 10
137.0344575714572
 20
50.39224491010128
 10
136.9789660242572
 20
50.44660618690127
 10
136.9243959890572
 20
50.49941466530126
 10
136.8706127410572
 20
50.55084287170126
 10
136.8174901026572
 20
50.60105173890128
 10
136.7649360930572
 20
50.65015583330128
 10
136.7128672802572
 20
50.69825812610128
 10
136.6354692178572
 20
50.76877107330128
 10
136.5585610882572
 20
50.83768499330128
 10
136.4817217218572
 20
50.90542031650127
 10
136.4045014098572
 20
50.97238585410128
 10
136.3264365954572
 20
51.03898470530126
 10
136.2470368802572
 20
51.10560875650128
 10
136.1657641906572
 20
51.17266966050127
 10
136.0819165954572
 20
51.24066937890126
 10
136.0242220370572
 20
51.28677785890127
 10
135.9648399762572
 20
51.33366057570126
 10
135.9035574866572
 20
51.38144139170126
 10
135.8401639730572
 20
51.43023798210126
 10
135.7744581650572
 20
51.48014326690128
 10
135.7062411250572
 20
51.53124398370128
 10
135.6353166242572
 20
51.58362017410127
 10
135.5614992610572
 20
51.63732510210127
 10
135.4846063394572
 20
51.69240533250127
 10
135.4044614770572
 20
51.74889849090127
 10
135.3209135266572
 20
51.80680642530126
 10
135.2338176530572
 20
51.86612203970128
 10
135.1430246370572
 20
51.92683646530127
 10
135.0483677266572
 20
51.98893373410126
 10
134.9496757874572
 20
52.05239610530128
 10
134.8467703634572
 20
52.11720452450126
 10
134.7394437298572
 20
52.18333470050126
 10
134.6274808418572
 20
52.25076102850128
 10
134.5403373666572
 20
52.30216210370127
 10
134.4503778914572
 20
52.35424383650126
 10
134.3575152706572
 20
52.40697220290127
 10
134.2616623570572
 20
52.46031317890126
 10
134.1627680306572
 20
52.51421292770126
 10
134.0609252658572
 20
52.56853837730128
 10
133.9562630642572
 20
52.62313663810127
 10
133.8489104242572
 20
52.67785482690126
 10
133.7018214754572
 20
52.75074160130128
 10
133.5505450546572
 20
52.82324867650126
 10
133.3954473506572
 20
52.89505494690127
 10
133.2368471090572
 20
52.96586799010126
 10
133.0748732754572
 20
53.03551011170128
 10
132.9096073442572
 20
53.10383230530127
 10
132.7411302002572
 20
53.17068732610128
 10
132.5695203026572
 20
53.23593499330127
 10
132.3948554962572
 20
53.29943688770126
 10
132.2172247458572
 20
53.36105432450128
 10
132.0367614770572
 20
53.42064753570127
 10
131.8536102258572
 20
53.47807648930126
 10
131.6678910098572
 20
53.53321052450127
 10
131.4796257554572
 20
53.58595649410128
 10
131.2888118626572
 20
53.63623062050127
  0
LWPOLYLINE
  5
177
330
2
100
AcDbEntity
  8
0
100
AcDbPolyline
 90
       35
 70
     0
 43
0.0
 10
134.4914725906572
 20
50.41232433570127
 10
134.4180135330572
 20
50.47176321570126
 10
134.3425177362572
 20
50.53189903970127
 10
134.2651765378572
 20
50.59257496450126
 10
134.1861043042572
 20
50.65369857730127
 10
134.1051074754572
 20
50.71543517730126
 10
134.0219155154572
 20
50.77801449410128
 10
133.9363519138572
 20
50.84158591490126
 10
133.8486162434572
 20
50.90597745570128
 10
133.7590021074572
 20
50.97093679010126
 10
133.6678031042572
 20
51.03621158850126
 10
133.5753128338572
 20
51.10154952610128
 10
133.4818248946572
 20
51.16669827650127
 10
133.4111459154572
 20
51.21534189730127
 10
133.3396852178572
 20
51.26397873090127
 10
133.2672148162572
 20
51.31274314370128
 10
133.1941374898572
 20
51.36134071970127
 10
133.0965854002572
 20
51.42529297890127
 10
132.9994376274572
 20
51.48793768450127
 10
132.9031810722572
 20
51.54897787330128
 10
132.8081519186572
 20
51.60821219010128
 10
132.7140835122572
 20
51.66582173890128
 10
132.6205584882572
 20
51.72208323170128
 10
132.4806360178572
 20
51.80439252130128
 10
132.3411437362572
 20
51.88426120770128
 10
132.2021783986572
 20
51.96168423810127
 10
132.0636371650572
 20
52.03675670530128
 10
131.9253673010572
 20
52.10959873730127
 10
131.7872160706572
 20
52.18033046530127
 10
131.6029172338572
 20
52.27155224770126
 10
131.4180892290572
 20
52.35944794850126
 10
131.2322635090572
 20
52.44422958210129
 10
131.0450748562572
 20
52.52606000450126
 10
130.8565713538572
 20
52.60490545090127
 10
130.6669044050572
 20
52.68068300930128
  0
LINE
  5
178
330
2
100
AcDbEntity
  8
0
100
AcDbLine
 10
127.0626573730572
 20
53.52691825890127
 30
0.0
 11
127.1081256802572
 21
53.52257626690127
 31
0.0
  0
LINE
  5
179
330
2
100
AcDbEntity
  8
0
100
AcDbLine
 10
127.0038701842572
 20
53.53231265890127
 30
0.0
 11
127.0626573730572
 21
53.52691825890127
 31
0.0
  0
LWPOLYLINE
  5
17A
330
2
100
AcDbEntity
  8
0
100
AcDbPolyline
 90
       33
 70
     0
 43
0.0
 10
129.0640015250572
 20
56.14691591010128
 10
129.2454476594572
 20
56.13120269250126
 10
129.4272578130572
 20
56.11254000130128
 10
129.6093960786572
 20
56.09089979170128
 10
129.7918186818572
 20
56.06625568450127
 10
129.9744503634572
 20
56.03858796610126
 10
130.1572079938572
 20
56.00787859010129
 10
130.3400120194572
 20
55.97411008610126
 10
130.5227971730572
 20
55.93726727650127
 10
130.7055017634572
 20
55.89733556130127
 10
130.8880632802572
 20
55.85430072770129
 10
131.0704159586572
 20
55.80815013250128
 10
131.2524932146572
 20
55.75887152450127
 10
131.4342019138572
 20
55.70646390370126
 10
131.6153427106572
 20
55.65097128770128
 10
131.7956897106572
 20
55.59244894850127
 10
131.9750201234572
 20
55.53095771970126
 10
132.1531236002572
 20
55.46658067490128
 10
132.3297928962572
 20
55.39940645730126
 10
132.5048029090572
 20
55.32953979650128
 10
132.6778570898572
 20
55.25714979490127
 10
132.8486410274572
 20
55.18242164770126
 10
133.0168526258572
 20
55.10554497570126
 10
133.1822390578572
 20
55.02672709410126
 10
133.3445598130572
 20
54.94617974690126
 10
133.4641353730572
 20
54.88477137730126
 10
133.5816988994572
 20
54.82265699970128
 10
133.6970980850572
 20
54.75998432290126
 10
133.8101806258572
 20
54.69690106050126
 10
133.9208324002572
 20
54.63353527970127
 10
134.0290920242572
 20
54.56993647330128
 10
134.1350362914572
 20
54.50613448610127
 10
134.2387420034572
 20
54.44215916930128
  0
LWPOLYLINE
  5
17B
330
2
100
AcDbEntity
  8
0
100
AcDbPolyline
 90
        4
 70
     0
 43
0.0
 10
129.3355674562572
 20
62.34077573090127
 10
129.0359333122572
 20
62.35258704290126
 10
128.7360979746572
 20
62.35970920130125
 10
128.4360947650572
 20
62.36214030050127
  0
ENDSEC
  0
SECTION
  2
OBJECTS
  0
DICTIONARY
  5
A
330
0
100
AcDbDictionary
  3
ACAD_GROUP
350
23
  3
ACAD_LAYOUT
350
9
  3
ACAD_MLINESTYLE
350
24
  3
ACAD_PLOTSETTINGS
350
25
  3
ACAD_PLOTSTYLENAME
350
26
  3
ACDBHEADERROUNDTRIPXREC
350
1F2
  3
ACDBVARIABLEDICTIONARY
350
17C
  0
DICTIONARY
  5
1AA
330
2
100
AcDbDictionary
280
     1
  3
ACAD_LAYOUTSELFREF
360
213
  0
DICTIONARY
  5
1B0
330
B
100
AcDbDictionary
280
     1
  3
ACAD_LAYOUTSELFREF
360
214
  0
DICTIONARY
  5
23
102
{ACAD_REACTORS
330
A
102
}
330
A
100
AcDbDictionary
  0
DICTIONARY
  5
9
102
{ACAD_REACTORS
330
A
102
}
330
A
100
AcDbDictionary
  0
DICTIONARY
  5
24
102
{ACAD_REACTORS
330
A
102
}
330
A
100
AcDbDictionary
  3
STANDARD
350
27
  0
DICTIONARY
  5
25
102
{ACAD_REACTORS
330
A
102
}
330
A
100
AcDbDictionary
  0
ACDBDICTIONARYWDFLT
  5
26
102
{ACAD_REACTORS
330
A
102
}
330
A
100
AcDbDictionary
281
     1
  3
Normal
350
5
100
AcDbDictionaryWithDefault
340
5
  0
DICTIONARY
  5
1F2
102
{ACAD_REACTORS
330
A
102
}
330
A
100
AcDbDictionary
  3
CEPSNTYPE
350
1FC
  3
DIMSTYLEDATA
350
200
  3
FINGERPRINTGUID
350
1FD
  3
HYPERLINKBASE
350
1F5
  3
INSUNITS
350
1FB
  3
LAYOUTDICT
350
1F7
  3
LWETCUNION
350
1FA
  3
PLOTSETDICT
350
1F8
  3
PLOTSTYLNAMDICT
350
1F9
  3
PSVPSCALE
350
1FF
  3
PUCSBASE
350
203
  3
PUCSORGBACK
350
209
  3
PUCSORGBOTTOM
350
205
  3
PUCSORGFRONT
350
208
  3
PUCSORGLEFT
350
206
  3
PUCSORGRIGHT
350
207
  3
PUCSORGTOP
350
204
  3
PUCSORTHOREF
350
201
  3
PUCSORTHOVIEW
350
202
  3
STYLESHEET
350
1F6
  3
TSTACKALIGN
350
1F3
  3
TSTACKSIZE
350
1F4
  3
UCSBASE
350
20C
  3
UCSORGBACK
350
212
  3
UCSORGBOTTOM
350
20E
  3
UCSORGFRONT
350
211
  3
UCSORGLEFT
350
20F
  3
UCSORGRIGHT
350
210
  3
UCSORGTOP
350
20D
  3
UCSORTHOREF
350
20A
  3
UCSORTHOVIEW
350
20B
  3
VERSIONGUID
350
1FE
  0
DICTIONARY
  5
17C
102
{ACAD_REACTORS
330
A
102
}
330
A
100
AcDbDictionary
  3
DIMASSOC
350
17E
  3
HIDETEXT
350
17D
  0
XRECORD
  5
213
102
{ACAD_REACTORS
330
1AA
102
}
330
1AA
100
AcDbXrecord
340
2
  0
XRECORD
  5
214
102
{ACAD_REACTORS
330
1B0
102
}
330
1B0
100
AcDbXrecord
340
B
  0
MLINESTYLE
  5
27
102
{ACAD_REACTORS
330
24
102
}
330
24
100
AcDbMlineStyle
  2
STANDARD
 70
     0
  3

 62
   256
 51
90.0
 52
90.0
 71
     2
 49
0.5
 62
   256
  6
BYLAYER
 49
-0.5
 62
   256
  6
BYLAYER
  0
ACDBPLACEHOLDER
  5
5
102
{ACAD_REACTORS
330
26
102
}
330
0
100
AcDbPlaceHolder
280
     0
  0
XRECORD
  5
1FC
102
{ACAD_REACTORS
330
1F2
102
}
330
1F2
100
AcDbXrecord
 90
        0
  0
XRECORD
  5
200
102
{ACAD_REACTORS
330
1F2
102
}
330
1F2
100
AcDbXrecord
1000
DSTYLE
1002
{
1070
   341
340
1E
1070
   342
340
1E
1002
}
  0
XRECORD
  5
1FD
102
{ACAD_REACTORS
330
1F2
102
}
330
1F2
100
AcDbXrecord
  1

  0
XRECORD
  5
1F5
102
{ACAD_REACTORS
330
1F2
102
}
330
1F2
100
AcDbXrecord
  1

  0
XRECORD
  5
1FB
102
{ACAD_REACTORS
330
1F2
102
}
330
1F2
100
AcDbXrecord
 90
        1
  0
XRECORD
  5
1F7
102
{ACAD_REACTORS
330
1F2
102
}
330
1F2
100
AcDbXrecord
340
9
  0
XRECORD
  5
1FA
102
{ACAD_REACTORS
330
1F2
102
}
330
1F2
100
AcDbXrecord
 90
    10781
  0
XRECORD
  5
1F8
102
{ACAD_REACTORS
330
1F2
102
}
330
1F2
100
AcDbXrecord
340
25
  0
XRECORD
  5
1F9
102
{ACAD_REACTORS
330
1F2
102
}
330
1F2
100
AcDbXrecord
340
26
  0
XRECORD
  5
1FF
102
{ACAD_REACTORS
330
1F2
102
}
330
1F2
100
AcDbXrecord
 40
0.0
  0
XRECORD
  5
203
102
{ACAD_REACTORS
330
1F2
102
}
330
1F2
100
AcDbXrecord
340
0
  0
XRECORD
  5
209
102
{ACAD_REACTORS
330
1F2
102
}
330
1F2
100
AcDbXrecord
 10
0.0
 20
0.0
 30
0.0
  0
XRECORD
  5
205
102
{ACAD_REACTORS
330
1F2
102
}
330
1F2
100
AcDbXrecord
 10
0.0
 20
0.0
 30
0.0
  0
XRECORD
  5
208
102
{ACAD_REACTORS
330
1F2
102
}
330
1F2
100
AcDbXrecord
 10
0.0
 20
0.0
 30
0.0
  0
XRECORD
  5
206
102
{ACAD_REACTORS
330
1F2
102
}
330
1F2
100
AcDbXrecord
 10
0.0
 20
0.0
 30
0.0
  0
XRECORD
  5
207
102
{ACAD_REACTORS
330
1F2
102
}
330
1F2
100
AcDbXrecord
 10
0.0
 20
0.0
 30
0.0
  0
XRECORD
  5
204
102
{ACAD_REACTORS
330
1F2
102
}
330
1F2
100
AcDbXrecord
 10
0.0
 20
0.0
 30
0.0
  0
XRECORD
  5
201
102
{ACAD_REACTORS
330
1F2
102
}
330
1F2
100
AcDbXrecord
340
0
  0
XRECORD
  5
202
102
{ACAD_REACTORS
330
1F2
102
}
330
1F2
100
AcDbXrecord
 70
     0
  0
XRECORD
  5
1F6
102
{ACAD_REACTORS
330
1F2
102
}
330
1F2
100
AcDbXrecord
  1

  0
XRECORD
  5
1F3
102
{ACAD_REACTORS
330
1F2
102
}
330
1F2
100
AcDbXrecord
 90
        1
  0
XRECORD
  5
1F4
102
{ACAD_REACTORS
330
1F2
102
}
330
1F2
100
AcDbXrecord
 90
       70
  0
XRECORD
  5
20C
102
{ACAD_REACTORS
330
1F2
102
}
330
1F2
100
AcDbXrecord
340
0
  0
XRECORD
  5
212
102
{ACAD_REACTORS
330
1F2
102
}
330
1F2
100
AcDbXrecord
 10
0.0
 20
0.0
 30
0.0
  0
XRECORD
  5
20E
102
{ACAD_REACTORS
330
1F2
102
}
330
1F2
100
AcDbXrecord
 10
0.0
 20
0.0
 30
0.0
  0
XRECORD
  5
211
102
{ACAD_REACTORS
330
1F2
102
}
330
1F2
100
AcDbXrecord
 10
0.0
 20
0.0
 30
0.0
  0
XRECORD
  5
20F
102
{ACAD_REACTORS
330
1F2
102
}
330
1F2
100
AcDbXrecord
 10
0.0
 20
0.0
 30
0.0
  0
XRECORD
  5
210
102
{ACAD_REACTORS
330
1F2
102
}
330
1F2
100
AcDbXrecord
 10
0.0
 20
0.0
 30
0.0
  0
XRECORD
  5
20D
102
{ACAD_REACTORS
330
1F2
102
}
330
1F2
100
AcDbXrecord
 10
0.0
 20
0.0
 30
0.0
  0
XRECORD
  5
20A
102
{ACAD_REACTORS
330
1F2
102
}
330
1F2
100
AcDbXrecord
340
0
  0
XRECORD
  5
20B
102
{ACAD_REACTORS
330
1F2
102
}
330
1F2
100
AcDbXrecord
 70
     0
  0
XRECORD
  5
1FE
102
{ACAD_REACTORS
330
1F2
102
}
330
1F2
100
AcDbXrecord
  1
{4EADD30C-1806-49AE-B700-5F8F6A84EF05}
  0
DICTIONARYVAR
  5
17E
102
{ACAD_REACTORS
330
17C
102
}
330
17C
100
DictionaryVariables
280
     0
  1
1
  0
DICTIONARYVAR
  5
17D
102
{ACAD_REACTORS
330
17C
102
}
330
17C
100
DictionaryVariables
280
     0
  1
1
  0
ENDSEC
  0
EOF
