  0
SECTION
  2
HEADER
  9
$ACADVER
  1
AC1014
  9
$ACADMAINTVER
 70
     9
  9
$DWGCODEPAGE
  3
ANSI_1252
  9
$INSBASE
 10
10.0097770407
 20
1.986622652599999
 30
0.0
  9
$EXTMIN
 10
-10.62169770415218
 20
-15.118973550205
 30
-0.0015258207003583
  9
$EXTMAX
 10
31.38247294323674
 20
11.23212932781164
 30
0.0000000349246037
  9
$LIMMIN
 10
0.0
 20
0.0
  9
$LIMMAX
 10
17.0
 20
11.0
  9
$ORTHOMODE
 70
     1
  9
$REGENMODE
 70
     1
  9
$FILLMODE
 70
     1
  9
$QTEXTMODE
 70
     0
  9
$MIRRTEXT
 70
     1
  9
$DRAGMODE
 70
     2
  9
$LTSCALE
 40
2.0
  9
$OSMODE
 70
    55
  9
$ATTMODE
 70
     1
  9
$TEXTSIZE
 40
0.2
  9
$TRACEWID
 40
0.05
  9
$TEXTSTYLE
  7
STANDARD
  9
$CLAYER
  8
0
  9
$CELTYPE
  6
BYLAYER
  9
$CECOLOR
 62
   256
  9
$CELTSCALE
 40
1.0
  9
$DELOBJ
 70
     1
  9
$DISPSILH
 70
     0
  9
$DIMSCALE
 40
1.0
  9
$DIMASZ
 40
0.1875
  9
$DIMEXO
 40
0.0625
  9
$DIMDLI
 40
0.38
  9
$DIMRND
 40
0.0
  9
$DIMDLE
 40
0.0
  9
$DIMEXE
 40
0.18
  9
$DIMTP
 40
0.0
  9
$DIMTM
 40
0.0
  9
$DIMTXT
 40
0.125
  9
$DIMCEN
 40
0.09
  9
$DIMTSZ
 40
0.0
  9
$DIMTOL
 70
     0
  9
$DIMLIM
 70
     0
  9
$DIMTIH
 70
     1
  9
$DIMTOH
 70
     1
  9
$DIMSE1
 70
     0
  9
$DIMSE2
 70
     0
  9
$DIMTAD
 70
     0
  9
$DIMZIN
 70
     4
  9
$DIMBLK
  1
_FILLED
  9
$DIMASO
 70
     1
  9
$DIMSHO
 70
     1
  9
$DIMPOST
  1

  9
$DIMAPOST
  1
cm
  9
$DIMALT
 70
     1
  9
$DIMALTD
 70
     2
  9
$DIMALTF
 40
2.54
  9
$DIMLFAC
 40
1.0
  9
$DIMTOFL
 70
     0
  9
$DIMTVP
 40
0.0
  9
$DIMTIX
 70
     0
  9
$DIMSOXD
 70
     0
  9
$DIMSAH
 70
     0
  9
$DIMBLK1
  1

  9
$DIMBLK2
  1

  9
$DIMSTYLE
  2
STANDARD
  9
$DIMCLRD
 70
     0
  9
$DIMCLRE
 70
     0
  9
$DIMCLRT
 70
     0
  9
$DIMTFAC
 40
1.0
  9
$DIMGAP
 40
0.09
  9
$DIMJUST
 70
     0
  9
$DIMSD1
 70
     0
  9
$DIMSD2
 70
     0
  9
$DIMTOLJ
 70
     1
  9
$DIMTZIN
 70
     4
  9
$DIMALTZ
 70
     0
  9
$DIMALTTZ
 70
     0
  9
$DIMFIT
 70
     3
  9
$DIMUPT
 70
     0
  9
$DIMUNIT
 70
     5
  9
$DIMDEC
 70
     4
  9
$DIMTDEC
 70
     4
  9
$DIMALTU
 70
     2
  9
$DIMALTTD
 70
     2
  9
$DIMTXSTY
  7
STANDARD
  9
$DIMAUNIT
 70
     0
  9
$LUNITS
 70
     2
  9
$LUPREC
 70
     4
  9
$SKETCHINC
 40
0.1
  9
$FILLETRAD
 40
0.0
  9
$AUNITS
 70
     0
  9
$AUPREC
 70
     0
  9
$MENU
  1
acad
  9
$ELEVATION
 40
0.0
  9
$PELEVATION
 40
0.0
  9
$THICKNESS
 40
0.0
  9
$LIMCHECK
 70
     0
  9
$BLIPMODE
 70
     0
  9
$CHAMFERA
 40
0.0
  9
$CHAMFERB
 40
0.0
  9
$CHAMFERC
 40
0.0
  9
$CHAMFERD
 40
0.0
  9
$SKPOLY
 70
     0
  9
$TDCREATE
 40
2453675.440412859
  9
$TDUPDATE
 40
2453685.504633182
  9
$TDINDWG
 40
0.0168397917
  9
$TDUSRTIMER
 40
0.0168397917
  9
$USRTIMER
 70
     1
  9
$ANGBASE
 50
0.0
  9
$ANGDIR
 70
     0
  9
$PDMODE
 70
     3
  9
$PDSIZE
 40
0.3125
  9
$PLINEWID
 40
0.0
  9
$COORDS
 70
     1
  9
$SPLFRAME
 70
     0
  9
$SPLINETYPE
 70
     6
  9
$SPLINESEGS
 70
     8
  9
$ATTDIA
 70
     0
  9
$ATTREQ
 70
     1
  9
$HANDLING
 70
 22529
  9
$HANDSEED
  5
310
  9
$SURFTAB1
 70
     6
  9
$SURFTAB2
 70
     6
  9
$SURFTYPE
 70
     6
  9
$SURFU
 70
     6
  9
$SURFV
 70
     6
  9
$UCSNAME
  2

  9
$UCSORG
 10
0.0
 20
0.0
 30
0.0
  9
$UCSXDIR
 10
1.0
 20
0.0
 30
0.0
  9
$UCSYDIR
 10
0.0
 20
1.0
 30
0.0
  9
$PUCSNAME
  2

  9
$PUCSORG
 10
0.0
 20
0.0
 30
0.0
  9
$PUCSXDIR
 10
1.0
 20
0.0
 30
0.0
  9
$PUCSYDIR
 10
0.0
 20
1.0
 30
0.0
  9
$USERI1
 70
     0
  9
$USERI2
 70
     0
  9
$USERI3
 70
     0
  9
$USERI4
 70
     0
  9
$USERI5
 70
     0
  9
$USERR1
 40
0.0
  9
$USERR2
 40
0.0
  9
$USERR3
 40
0.0
  9
$USERR4
 40
0.0
  9
$USERR5
 40
0.0
  9
$WORLDVIEW
 70
     1
  9
$SHADEDGE
 70
     3
  9
$SHADEDIF
 70
    70
  9
$TILEMODE
 70
     1
  9
$MAXACTVP
 70
    16
  9
$PINSBASE
 10
0.0
 20
0.0
 30
0.0
  9
$PLIMCHECK
 70
     0
  9
$PEXTMIN
 10
1.000000000000000E+20
 20
1.000000000000000E+20
 30
1.000000000000000E+20
  9
$PEXTMAX
 10
-1.000000000000000E+20
 20
-1.000000000000000E+20
 30
-1.000000000000000E+20
  9
$PLIMMIN
 10
0.0
 20
0.0
  9
$PLIMMAX
 10
12.0
 20
9.0
  9
$UNITMODE
 70
     0
  9
$VISRETAIN
 70
     0
  9
$PLINEGEN
 70
     1
  9
$PSLTSCALE
 70
     0
  9
$TREEDEPTH
 70
  3020
  9
$PICKSTYLE
 70
     1
  9
$CMLSTYLE
  2
STANDARD
  9
$CMLJUST
 70
     0
  9
$CMLSCALE
 40
1.0
  9
$PROXYGRAPHICS
 70
     0
  9
$MEASUREMENT
 70
     0
  0
ENDSEC
  0
SECTION
  2
CLASSES
  0
CLASS
  1
ACDBDICTIONARYWDFLT
  2
AcDbDictionaryWithDefault
  3
AutoCAD 2000
 90
        0
280
     0
281
     0
  0
CLASS
  1
ACDBPLACEHOLDER
  2
AcDbPlaceHolder
  3
AutoCAD 2000
 90
        0
280
     0
281
     0
  0
CLASS
  1
LAYOUT
  2
AcDbLayout
  3
AutoCAD 2000
 90
        0
280
     0
281
     0
  0
CLASS
  1
LWPOLYLINE
  2
AcDbPolyline
  3
AutoCAD 2000
 90
        0
280
     0
281
     1
  0
CLASS
  1
IMAGE
  2
AcDbRasterImage
  3
ISM
 90
      127
280
     1
281
     1
  0
CLASS
  1
OLE2FRAME
  2
AcDbOle2Frame
  3
AutoCAD 2000
 90
        0
280
     0
281
     1
  0
CLASS
  1
HATCH
  2
AcDbHatch
  3
AutoCAD 2000
 90
        0
280
     0
281
     1
  0
CLASS
  1
DICTIONARYVAR
  2
AcDbDictionaryVar
  3
AutoCAD 2000
 90
        0
280
     0
281
     0
  0
CLASS
  1
RASTERVARIABLES
  2
AcDbRasterVariables
  3
ISM
 90
        0
280
     1
281
     0
  0
CLASS
  1
IMAGEDEF
  2
AcDbRasterImageDef
  3
ISM
 90
        0
280
     1
281
     0
  0
CLASS
  1
IMAGEDEF_REACTOR
  2
AcDbRasterImageDefReactor
  3
ISM
 90
        1
280
     1
281
     0
  0
CLASS
  1
IDBUFFER
  2
AcDbIdBuffer
  3
AutoCAD 2000
 90
        0
280
     0
281
     0
  0
CLASS
  1
SPATIAL_FILTER
  2
AcDbSpatialFilter
  3
AutoCAD 2000
 90
        0
280
     0
281
     0
  0
CLASS
  1
XRECORD
  2
AcDbXrecord
  3
AutoCAD 2000
 90
        0
280
     0
281
     0
  0
CLASS
  1
SORTENTSTABLE
  2
AcDbSortentsTable
  3
AutoCAD 2000
 90
        0
280
     0
281
     0
  0
CLASS
  1
LAYER_INDEX
  2
AcDbLayerIndex
  3
AutoCAD 2000
 90
        0
280
     0
281
     0
  0
CLASS
  1
SPATIAL_INDEX
  2
AcDbSpatialIndex
  3
AutoCAD 2000
 90
        0
280
     0
281
     0
  0
CLASS
  1
OBJECT_PTR
  2
CAseDLPNTableRecord
  3
ASE-LPNTableRecord
 90
        1
280
     1
281
     0
  0
CLASS
  1
PLOTSETTINGS
  2
AcDbPlotSettings
  3
AutoCAD 2000
 90
        0
280
     0
281
     0
  0
CLASS
  1
VBA_PROJECT
  2
AcDbVbaProject
  3
acadvba
 90
        0
280
     0
281
     0
  0
CLASS
  1
WIPEOUT
  2
AcDbWipeout
  3
"WipeOut|Product Desc: Object Enabler for WipeOut entity^I^I^I^I^I^I|Company: Autodesk, Inc.^I^I^I^I^I^I|WEB Address: www.autodesk.com"
 90
      127
280
     1
281
     1
  0
CLASS
  1
WIPEOUTVARIABLES
  2
AcDbWipeoutVariables
  3
"WipeOut|Product Desc:     WipeOut Dbx Application|Company:          Autodesk, Inc.|WEB Address:      www.autodesk.com"
 90
        0
280
     1
281
     0
  0
CLASS
  1
RTEXT
  2
RText
  3
RText|AutoCAD Express Tool|expresstools@autodesk.com
 90
        0
280
     1
281
     1
  0
CLASS
  1
ARCALIGNEDTEXT
  2
AcDbArcAlignedText
  3
ATEXT|AutoCAD Express Tool|expresstools@autodesk.com
 90
        0
280
     1
281
     1
  0
CLASS
  1
TABLESTYLE
  2
AcDbTableStyle
  3
ObjectDBX Classes
 90
     2047
280
     0
281
     0
  0
CLASS
  1
ACAD_PROXY_OBJECT_WRAPPER
  2
AcDbProxyObjectWrapper
  3
AutoCAD 2000
 90
        0
280
     0
281
     0
  0
CLASS
  1
LONG_TRANSACTION
  2
AcDbLongTransaction
  3
AutoCAD 2000
 90
        0
280
     0
281
     0
  0
CLASS
  1
LWPOLYLINE
  2
AcDbPolyline
  3
AutoCAD 2000
 90
        0
280
     0
281
     1
  0
CLASS
  1
HATCH
  2
AcDbHatch
  3
AutoCAD 2000
 90
        0
280
     0
281
     1
  0
CLASS
  1
XRECORD
  2
AcDbXrecord
  3
AutoCAD 2000
 90
        0
280
     0
281
     0
  0
CLASS
  1
LONG_TRANSACTION
  2
AcDbLongTransaction
  3
AutoCAD 2000
 90
        0
280
     0
281
     0
  0
CLASS
  1
LWPOLYLINE
  2
AcDbPolyline
  3
AutoCAD 2000
 90
        0
280
     0
281
     1
  0
CLASS
  1
HATCH
  2
AcDbHatch
  3
AutoCAD 2000
 90
        0
280
     0
281
     1
  0
CLASS
  1
XRECORD
  2
AcDbXrecord
  3
AutoCAD 2000
 90
        0
280
     0
281
     0
  0
ENDSEC
  0
SECTION
  2
TABLES
  0
TABLE
  2
VPORT
  5
1B
330
0
100
AcDbSymbolTable
 70
     3
  0
VPORT
  5
2EC
330
1B
100
AcDbSymbolTableRecord
100
AcDbViewportTableRecord
  2
*ACTIVE
 70
     0
 10
0.0
 20
0.0
 11
1.0
 21
1.0
 12
10.38038775144813
 22
-1.943422143744861
 13
0.0
 23
0.0
 14
1.0
 24
1.0
 15
0.0
 25
0.0
 16
0.0
 26
0.0
 36
1.0
 17
0.0
 27
0.0
 37
0.0
 40
32.24511523276992
 41
1.786792452830188
 42
50.0
 43
0.0
 44
0.0
 50
0.0
 51
0.0
 71
     0
 72
   100
 73
     1
 74
     1
 75
     0
 76
     0
 77
     0
 78
     0
  0
ENDTAB
  0
TABLE
  2
LTYPE
  5
16
330
0
100
AcDbSymbolTable
 70
     3
  0
LTYPE
  5
17
330
16
100
AcDbSymbolTableRecord
100
AcDbLinetypeTableRecord
  2
BYBLOCK
 70
     0
  3

 72
    65
 73
     0
 40
0.0
  0
LTYPE
  5
18
330
16
100
AcDbSymbolTableRecord
100
AcDbLinetypeTableRecord
  2
BYLAYER
 70
     0
  3

 72
    65
 73
     0
 40
0.0
  0
LTYPE
  5
A
330
16
100
AcDbSymbolTableRecord
100
AcDbLinetypeTableRecord
  2
CONTINUOUS
 70
     0
  3
Solid line
 72
    65
 73
     0
 40
0.0
  0
LTYPE
  5
116
330
16
100
AcDbSymbolTableRecord
100
AcDbLinetypeTableRecord
  2
CENTER
 70
     0
  3
____ _ ____ _ ____ _ ____ _ ____ _ ____ _ ____
 72
    65
 73
     4
 40
0.6
 49
0.375
 74
     0
 49
-0.075
 74
     0
 49
0.075
 74
     0
 49
-0.075
 74
     0
  0
LTYPE
  5
260
330
16
100
AcDbSymbolTableRecord
100
AcDbLinetypeTableRecord
  2
HIDDEN
 70
     0
  3
Hidden __ __ __ __ __ __ __ __ __ __ __ __ __ _
 72
    65
 73
     2
 40
0.375
 49
0.25
 74
     0
 49
-0.125
 74
     0
  0
ENDTAB
  0
TABLE
  2
LAYER
  5
12
330
0
100
AcDbSymbolTable
 70
     3
  0
LAYER
  5
6
330
12
100
AcDbSymbolTableRecord
100
AcDbLayerTableRecord
  2
0
 70
     0
 62
     7
  6
CONTINUOUS
  0
LAYER
  5
115
330
12
100
AcDbSymbolTableRecord
100
AcDbLayerTableRecord
  2
CENTER
 70
     0
 62
     1
  6
CENTER
  0
LAYER
  5
22E
330
12
100
AcDbSymbolTableRecord
100
AcDbLayerTableRecord
  2
DEFPOINTS
 70
     0
 62
     7
  6
CONTINUOUS
  0
ENDTAB
  0
TABLE
  2
STYLE
  5
13
330
0
100
AcDbSymbolTable
 70
     1
  0
STYLE
  5
14
330
13
100
AcDbSymbolTableRecord
100
AcDbTextStyleTableRecord
  2
STANDARD
 70
     0
 40
0.0
 41
0.8
 50
0.0
 71
     0
 42
0.2
  3
txt
  4

  0
ENDTAB
  0
TABLE
  2
VIEW
  5
19
330
0
100
AcDbSymbolTable
 70
     0
  0
ENDTAB
  0
TABLE
  2
UCS
  5
1A
330
0
100
AcDbSymbolTable
 70
     0
  0
ENDTAB
  0
TABLE
  2
APPID
  5
1D
330
0
100
AcDbSymbolTable
 70
     2
  0
APPID
  5
1E
330
1D
100
AcDbSymbolTableRecord
100
AcDbRegAppTableRecord
  2
ACAD
 70
     0
  0
APPID
  5
1F9
330
1D
100
AcDbSymbolTableRecord
100
AcDbRegAppTableRecord
  2
ACAD_DSTYLE_DIMTEXT_FILL
 70
     0
  0
ENDTAB
  0
TABLE
  2
DIMSTYLE
  5
1F
330
0
100
AcDbSymbolTable
 70
     1
  0
DIMSTYLE
105
20
330
1F
100
AcDbSymbolTableRecord
100
AcDbDimStyleTableRecord
  2
STANDARD
 70
     0
  3

  4
cm
  5
_FILLED
  6

  7

 40
1.0
 41
0.1875
 42
0.0625
 43
0.38
 44
0.18
 45
0.0
 46
0.0
 47
0.0
 48
0.0
140
0.125
141
0.09
142
0.0
143
2.54
144
1.0
145
0.0
146
1.0
147
0.09
 71
     0
 72
     0
 73
     1
 74
     1
 75
     0
 76
     0
 77
     0
 78
     4
170
     1
171
     2
172
     0
173
     0
174
     0
175
     0
176
     0
177
     0
178
     0
270
     5
271
     4
272
     4
273
     2
274
     2
340
14
275
     0
280
     0
281
     0
282
     0
283
     1
284
     4
285
     0
286
     0
287
     3
288
     0
  0
ENDTAB
  0
TABLE
  2
BLOCK_RECORD
  5
1
330
0
100
AcDbSymbolTable
 70
     2
  0
BLOCK_RECORD
  5
2
102
{ACAD_XDICTIONARY
360
3
102
}
330
1
100
AcDbSymbolTableRecord
100
AcDbBlockTableRecord
  2
*MODEL_SPACE
  0
BLOCK_RECORD
  5
E
102
{ACAD_XDICTIONARY
360
290
102
}
330
1
100
AcDbSymbolTableRecord
100
AcDbBlockTableRecord
  2
*PAPER_SPACE
  0
BLOCK_RECORD
  5
21
330
1
100
AcDbSymbolTableRecord
100
AcDbBlockTableRecord
  2
_FILLED
  0
BLOCK_RECORD
  5
2A7
330
1
100
AcDbSymbolTableRecord
100
AcDbBlockTableRecord
  2
*D1
  0
ENDTAB
  0
ENDSEC
  0
SECTION
  2
BLOCKS
  0
BLOCK
  5
5
330
2
100
AcDbEntity
  8
0
100
AcDbBlockBegin
  2
*MODEL_SPACE
 70
     0
 10
0.0
 20
0.0
 30
0.0
  3
*MODEL_SPACE
  1

  0
ENDBLK
  5
B
330
2
100
AcDbEntity
  8
0
100
AcDbBlockEnd
  0
BLOCK
  5
F
330
E
100
AcDbEntity
 67
     1
  8
0
100
AcDbBlockBegin
  2
*PAPER_SPACE
 70
     0
 10
0.0
 20
0.0
 30
0.0
  3
*PAPER_SPACE
  1

  0
ENDBLK
  5
10
330
E
100
AcDbEntity
 67
     1
  8
0
100
AcDbBlockEnd
  0
BLOCK
  5
22
330
21
100
AcDbEntity
  8
0
100
AcDbBlockBegin
  2
_FILLED
 70
     0
 10
0.0
 20
0.0
 30
0.0
  3
_FILLED
  1

  0
SOLID
  5
23
330
21
100
AcDbEntity
  8
0
  6
BYBLOCK
 62
     0
100
AcDbTrace
 10
0.0
 20
0.0
 30
0.0
 11
-1.0
 21
0.1666666667
 31
0.0
 12
-1.0
 22
-0.1666666667
 32
0.0
 13
-1.0
 23
-0.1666666667
 33
0.0
  0
ENDBLK
  5
24
330
21
100
AcDbEntity
  8
0
  6
BYBLOCK
 62
     0
100
AcDbBlockEnd
  0
BLOCK
  5
2B2
330
2A7
100
AcDbEntity
  8
0
100
AcDbBlockBegin
  2
*D1
 70
     1
 10
0.0
 20
0.0
 30
0.0
  3
*D1
  1

  0
LINE
  5
2A8
330
2A7
100
AcDbEntity
  8
0
 62
     0
100
AcDbLine
 10
7.952530138800022
 20
-13.1279539459
 30
0.0
 11
-18.35645928847121
 21
-13.12795394589999
 31
0.0
  0
LINE
  5
2A9
330
2A7
100
AcDbEntity
  8
0
 62
     0
100
AcDbLine
 10
7.952530138800021
 20
6.9970460541
 30
0.0
 11
-18.3564592884712
 21
6.997046054100008
 31
0.0
  0
LINE
  5
2AA
330
2A7
100
AcDbEntity
  8
0
 62
     0
100
AcDbLine
 10
-18.17645928847121
 20
-12.94045394589999
 30
0.0
 11
-18.1764592884712
 21
-3.280453945899992
 31
0.0
  0
LINE
  5
2AB
330
2A7
100
AcDbEntity
  8
0
 62
     0
100
AcDbLine
 10
-18.1764592884712
 20
6.809546054100008
 30
0.0
 11
-18.1764592884712
 21
-2.850453945899992
 31
0.0
  0
INSERT
  5
2AC
330
2A7
100
AcDbEntity
  8
0
 62
     0
100
AcDbBlockReference
  2
_FILLED
 10
-18.17645928847121
 20
-13.12795394589999
 30
0.0
 41
0.1875
 42
0.1875
 43
0.1875
 50
270.0
  0
INSERT
  5
2AD
330
2A7
100
AcDbEntity
  8
0
 62
     0
100
AcDbBlockReference
  2
_FILLED
 10
-18.1764592884712
 20
6.997046054100008
 30
0.0
 41
0.1875
 42
0.1875
 43
0.1875
 50
90.0
  0
MTEXT
  5
2AE
330
2A7
100
AcDbEntity
  8
0
 62
     0
100
AcDbMText
 10
-18.1764592884712
 20
-3.065453945899994
 30
0.0
 40
0.125
 41
0.0
 71
     5
 72
     1
  1
\A1;20{\H1.000000x;\S1/8;} [51.12cm]
1001
ACAD
1000
MTEXTBEGIN
1070
    73
1070
     1
1070
    44
1040
1.0
1070
    74
1070
     1
1000
MTEXTEND
  0
POINT
  5
2AF
330
2A7
100
AcDbEntity
  8
DEFPOINTS
 62
     0
100
AcDbPoint
 10
8.015030138800021
 20
-13.1279539459
 30
0.0
  0
POINT
  5
2B0
330
2A7
100
AcDbEntity
  8
DEFPOINTS
 62
     0
100
AcDbPoint
 10
8.015030138800021
 20
6.9970460541
 30
0.0
  0
POINT
  5
2B1
330
2A7
100
AcDbEntity
  8
DEFPOINTS
 62
     0
100
AcDbPoint
 10
-18.1764592884712
 20
6.997046054100008
 30
0.0
  0
ENDBLK
  5
2B3
330
2A7
100
AcDbEntity
  8
0
100
AcDbBlockEnd
  0
ENDSEC
  0
SECTION
  2
ENTITIES
  0
LWPOLYLINE
  5
32
330
2
100
AcDbEntity
  8
0
100
AcDbPolyline
 90
       61
 70
     0
 43
0.0
 10
20.21719314520001
 20
-11.16471272349999
 10
20.32911946360002
 20
-11.14892405629999
 10
20.44106030520001
 20
-11.13305971229999
 10
20.49428751160002
 20
-11.1250758483
 10
20.54409099160003
 20
-11.11703807709999
 10
20.58945479000001
 20
-11.10891555229999
 10
20.630282942
 20
-11.10066466269999
 10
20.66666219960001
 20
-11.0922826499
 10
20.69863400280002
 20
-11.08377513149999
 10
20.7262262124
 20
-11.07514712349999
 10
20.73838278200003
 20
-11.07078980509999
 10
20.74944683160001
 20
-11.0664046579
 10
20.76828725880003
 20
-11.0575538147
 10
20.78269231800001
 20
-11.04859984349999
 10
20.78821070360001
 20
-11.04408576189999
 10
20.79259519160001
 20
-11.03954778749999
 10
20.7958374268
 20
-11.03498655229999
 10
20.79792906200001
 20
-11.0304026851
 10
20.79885978840002
 20
-11.02579684029999
 10
20.79861149880002
 20
-11.02116975709999
 10
20.79716413080001
 20
-11.01652219389999
 10
20.79449762360002
 20
-11.01185491389999
 10
20.79059191480002
 20
-11.00716867869999
 10
20.78542694360001
 20
-11.0024642483
 10
20.7789826492
 20
-10.99774238589999
 10
20.77123896920002
 20
-10.9930038499
 10
20.7517465356
 20
-10.98348040349999
 10
20.72665579480002
 20
-10.97390299869999
 10
20.69564622840002
 20
-10.96428131709999
 10
20.65839731640002
 20
-10.95462504669999
 10
20.6373323116
 20
-10.94978680669999
 10
20.61458347640001
 20
-10.94494260349999
 10
20.56385887160002
 20
-10.9352373523
 10
20.50588350040001
 20
-10.9255137667
 10
20.44036096440001
 20
-10.91578584189999
 10
20.36700842040002
 20
-10.90606596509999
 10
20.28555363480001
 20
-10.8963505731
 10
20.19578838520001
 20
-10.88663553149999
 10
20.09774987800003
 20
-10.87693038109999
 10
19.99152605080001
 20
-10.86724665309999
 10
19.87716234040002
 20
-10.85759016029999
 10
19.75472685400001
 20
-10.8479671507
 10
19.62442087000002
 20
-10.83839132829999
 10
19.34099204440002
 20
-10.81943759709999
 10
19.028082702
 20
-10.80081463229999
 10
18.86101833400002
 20
-10.79164541149999
 10
18.68722735320003
 20
-10.78258808349999
 10
18.31943528120001
 20
-10.76473923709999
 10
18.12643958680001
 20
-10.75594361789999
 10
18.02803314520002
 20
-10.75158553309999
 10
17.92911784120002
 20
-10.74729609949999
 10
17.5276824876
 20
-10.73109054909999
 10
17.321668966
 20
-10.72366185149999
 10
17.11071646520002
 20
-10.7167210435
 10
17.00316949880002
 20
-10.7134413459
 10
16.8941707868
 20
-10.71029317629999
 10
16.78300876920002
 20
-10.7072579027
 10
16.66888506200001
 20
-10.70430820669999
 10
16.43245163320003
 20
-10.69866803869999
 10
16.18620257240002
 20
-10.6933782627
 10
15.86738341880001
 20
-10.68727947229999
  0
LWPOLYLINE
  5
33
330
2
100
AcDbEntity
  8
0
100
AcDbPolyline
 90
       38
 70
     0
 43
0.0
 10
8.350364497200018
 20
-10.65297507549999
 10
8.386925262000005
 20
-10.64926659069999
 10
8.423910425200006
 20
-10.64466294589999
 10
8.442889271600023
 20
-10.6416802755
 10
8.461747906800013
 20
-10.63798634909999
 10
8.474896846000007
 20
-10.63480672509999
 10
8.487874695600027
 20
-10.63100033629999
 10
8.500599770800022
 20
-10.62642819229999
 10
8.51382593880001
 20
-10.62057159869999
 10
8.52656836600002
 20
-10.6137090323
 10
8.538725250800013
 20
-10.60586769629999
 10
8.551215759600012
 20
-10.59626055069999
 10
8.562917554800009
 20
-10.58569179229999
 10
8.573858458800003
 20
-10.5743302371
 10
8.58492788280003
 20
-10.56126111869999
 10
8.595209988400029
 20
-10.5475707171
 10
8.604783638000014
 20
-10.5333750371
 10
8.614525614000029
 20
-10.51740589469999
 10
8.623593406000026
 20
-10.50104545949999
 10
8.632064898800024
 20
-10.48436743709999
 10
8.645086534000029
 20
-10.45595778429999
 10
8.656918063600016
 20
-10.42703151709999
 10
8.668985676400012
 20
-10.3943737779
 10
8.680084111600024
 20
-10.3613741491
 10
8.691477510000026
 20
-10.3244503811
 10
8.702053750000004
 20
-10.2872841235
 10
8.712954705200019
 20
-10.24599746909999
 10
8.723165188400031
 20
-10.20453446589999
 10
8.733784609200029
 20
-10.15858497629999
 10
8.743825583600028
 20
-10.11250560669999
 10
8.754438508400028
 20
-10.06111436829999
 10
8.764563503600015
 20
-10.00962465469999
 10
8.775463119600004
 20
-9.9517151107
 10
8.785946814000027
 20
-9.893728827499998
 10
8.808217449200014
 20
-9.763852782699999
 10
8.831327226800027
 20
-9.620868134699996
 10
8.85527503480003
 20
-9.466041227499999
 10
8.879917553200016
 20
-9.302113265899997
  0
LWPOLYLINE
  5
34
330
2
100
AcDbEntity
  8
0
  6
HIDDEN
 48
0.5
100
AcDbPolyline
 90
       20
 70
     0
 43
0.0
 10
24.28214625080002
 20
4.7211654237
 10
24.36001943640002
 20
4.740254228499999
 10
24.43758389560002
 20
4.760504822100003
 10
24.51485692280002
 20
4.781841922899999
 10
24.59185581080001
 20
4.804190250899999
 10
24.66859785560001
 20
4.827474522900004
 10
24.74510035000003
 20
4.851619460500003
 10
24.82138058840002
 20
4.876549778899999
 10
24.89745586200001
 20
4.902190198100001
 10
24.97334346840003
 20
4.928465436500005
 10
25.04906069880002
 20
4.955300212499999
 10
25.12462484760002
 20
4.9826192461
 10
25.24217069720001
 20
5.025999591699999
 10
25.35945202360002
 20
5.070088750100005
 10
25.4765343628
 20
5.114601430100002
 10
25.5934832556
 20
5.159252337300003
 10
25.71036423800001
 20
5.2037561805
 10
25.82724284920002
 20
5.247827668500001
 10
25.94418462680002
 20
5.291181508500002
 10
26.06125510840001
 20
5.333532409300005
  0
LWPOLYLINE
  5
35
330
2
100
AcDbEntity
  8
0
  6
HIDDEN
 48
0.25
100
AcDbPolyline
 90
       12
 70
     0
 43
0.0
 10
24.28214625080002
 20
4.7211654237
 10
24.22017439160001
 20
4.707083863699999
 10
24.15765260120002
 20
4.6942256301
 10
24.09468144760001
 20
4.6828539949
 10
24.03136149720001
 20
4.673232230100005
 10
23.96779331640002
 20
4.665623610899999
 10
23.9040774716
 20
4.6602914077
 10
23.87172100120003
 20
4.658540444500005
 10
23.83936554520002
 20
4.6574778461
 10
23.78032149720002
 20
4.657292471700003
 10
23.72129084760001
 20
4.658920690900004
 10
23.662239822
 20
4.661767022100001
  0
LWPOLYLINE
  5
36
330
2
100
AcDbEntity
  8
0
100
AcDbPolyline
 90
       63
 70
     0
 43
0.0
 10
4.894348626800024
 20
-10.6873098915
 10
4.581674497200026
 20
-10.6932888531
 10
4.33582934200001
 20
-10.69856073629999
 10
4.09973705240003
 20
-10.70418142589999
 10
3.985756673200029
 20
-10.70712081149999
 10
3.874725577200024
 20
-10.7101451507
 10
3.76592887640001
 20
-10.7132794595
 10
3.658583254000006
 20
-10.71654484029999
 10
3.448030441200018
 20
-10.72345592669999
 10
3.242423623600018
 20
-10.73085356349999
 10
2.841869623600018
 20
-10.74699586909999
 10
2.743193943600005
 20
-10.7512700451
 10
2.644985996400009
 20
-10.7556154755
 10
2.452284159600026
 20
-10.76438939549999
 10
2.084931922800024
 20
-10.78219368669999
 10
1.911308398000016
 20
-10.7912266979
 10
1.744380836400011
 20
-10.80037101789999
 10
1.431612287600017
 20
-10.8189444371
 10
1.14816514520001
 20
-10.8378480995
 10
1.017780449200017
 20
-10.84739957629999
 10
0.8952168268000093
 20
-10.85699868669999
 10
0.7806763868000246
 20
-10.86663150109999
 10
0.6742297996000275
 20
-10.8762919475
 10
0.5759249212000271
 20
-10.88597437149999
 10
0.4858497740000303
 20
-10.89566691709999
 10
0.4040439804000187
 20
-10.90535972669999
 10
0.3303134012000157
 20
-10.91505714109999
 10
0.2643990668000242
 20
-10.9247630419
 10
0.2060164508000071
 20
-10.93446528189999
 10
0.1548662860000149
 20
-10.94415003709999
 10
0.1318999388000179
 20
-10.94898430909999
 10
0.1106159116000072
 20
-10.9538128163
 10
0.0729273372000137
 20
-10.96345022589999
 10
0.0414746604000129
 20
-10.97305391389999
 10
0.0159350012000061
 20
-10.98261428989999
 10
-0.0040145203999771
 20
-10.99212176349999
 10
-0.0119905411999923
 20
-10.9968527395
 10
-0.0186700611999697
 20
-11.00156732509999
 10
-0.0240733955999701
 20
-11.00626475549999
 10
-0.0282208611999693
 20
-11.0109442659
 10
-0.0311327699999708
 20
-11.0156050899
 10
-0.032829438799979
 20
-11.0202464611
 10
-0.0333311795999691
 20
-11.0248676131
 10
-0.0326583091999737
 20
-11.02946778109999
 10
-0.0308291891999772
 20
-11.0340462211
 10
-0.027854374799972
 20
-11.03860228189999
 10
-0.0237424707999878
 20
-11.04313533309999
 10
-0.018502078799969
 20
-11.0476447475
 10
-0.0121418035999739
 20
-11.05212989309999
 10
-0.0046702499999753
 20
-11.05659014589999
 10
0.0135722860000271
 20
-11.06543344509999
 10
0.0243274876000044
 20
-11.0698152131
 10
0.036168127600007
 20
-11.07416943549999
 10
0.0490941772000042
 20
-11.07849535229999
 10
0.0631056060000219
 20
-11.08279220189999
 10
0.0943898700000148
 20
-11.09129582109999
 10
0.1300476364000076
 20
-11.09967507389999
 10
0.1701154908000149
 20
-11.1079241475
 10
0.2146750268000233
 20
-11.11604396669999
 10
0.2636988220000092
 20
-11.1240722195
 10
0.316276378800012
 20
-11.13204524189999
 10
0.4273122412000135
 20
-11.14788282109999
 10
0.5388288124000269
 20
-11.16364050909999
  0
LWPOLYLINE
  5
37
330
2
100
AcDbEntity
  8
0
100
AcDbPolyline
 90
       12
 70
     0
 43
0.0
 10
4.894479268400004
 20
-10.68728088509999
 10
5.266758574000022
 20
-10.68106337789999
 10
5.470529732400024
 20
-10.6780180819
 10
5.68406678520003
 20
-10.6750669571
 10
6.132367374000011
 20
-10.66959333949999
 10
6.597196479600029
 20
-10.66481573949999
 10
7.062813322800025
 20
-10.66080650589999
 10
7.291868105200023
 20
-10.65908526589999
 10
7.40481894360002
 20
-10.6582927587
 10
7.516481975600015
 20
-10.65754445629999
 10
7.735397183600014
 20
-10.65617534589999
 10
7.842419590000019
 20
-10.65555156829999
  0
LINE
  5
38
330
2
100
AcDbEntity
  8
0
100
AcDbLine
 10
7.842419590000012
 20
-10.6555515683
 30
0.0
 11
8.051103506800011
 21
-10.65441787709999
 31
0.0
  0
LWPOLYLINE
  5
39
330
2
100
AcDbEntity
  8
0
100
AcDbPolyline
 90
        4
 70
     0
 43
0.0
 10
8.051103506800018
 20
-10.65441787709999
 10
8.252490673200014
 20
-10.65342424509999
 10
8.301692722800027
 20
-10.6531960211
 10
8.350356830000009
 20
-10.65297579389999
  0
LWPOLYLINE
  5
3A
330
2
100
AcDbEntity
  8
0
100
AcDbPolyline
 90
        7
 70
     0
 43
0.0
 10
8.35036417720002
 20
-10.65297349309999
 10
8.954858111600003
 20
-10.65068124029999
 10
9.489491862000022
 20
-10.64930774269999
 10
9.733262689200017
 20
-10.64888001149999
 10
9.962571284400013
 20
-10.64859371869999
 10
10.17828925720002
 20
-10.64843087229999
 10
10.38094317720001
 20
-10.64837847709999
  0
LWPOLYLINE
  5
3B
330
2
100
AcDbEntity
  8
0
100
AcDbPolyline
 90
        7
 70
     0
 43
0.0
 10
12.41152217880002
 20
-10.65297349309999
 10
11.80702722200001
 20
-10.65068123709999
 10
11.27239268440001
 20
-10.64930773949999
 10
11.02862154040002
 20
-10.64888000829999
 10
10.79931267
 20
-10.64859371709999
 10
10.5835944732
 20
-10.64843087229999
 10
10.38094317880001
 20
-10.64837847709999
  0
LINE
  5
3C
330
2
100
AcDbEntity
  8
0
100
AcDbLine
 10
12.5093960972
 20
-10.65342428509999
 30
0.0
 11
12.41152994040001
 21
-10.6529758323
 31
0.0
  0
LINE
  5
3D
330
2
100
AcDbEntity
  8
0
100
AcDbLine
 10
12.7107832604
 20
-10.6544179171
 30
0.0
 11
12.5093960972
 21
-10.65342428509999
 31
0.0
  0
LWPOLYLINE
  5
3E
330
2
100
AcDbEntity
  8
0
100
AcDbPolyline
 90
       13
 70
     0
 43
0.0
 10
15.86740724920002
 20
-10.68728093629999
 10
15.49512798680001
 20
-10.68106342589999
 10
15.29135686040001
 20
-10.67801812989999
 10
15.07781983480001
 20
-10.67506700349999
 10
14.6295192956
 20
-10.6695933843
 10
14.16469022840002
 20
-10.66481578269999
 10
13.69907341240002
 20
-10.66080654749999
 10
13.47001863960002
 20
-10.6590853075
 10
13.3570678076
 20
-10.65829279869999
 10
13.2454047788
 20
-10.65754449629999
 10
13.02648957720001
 20
-10.65617538589999
 10
12.919467174
 20
-10.6555516083
 10
12.7107832604
 20
-10.65441791709999
  0
LWPOLYLINE
  5
3F
330
2
100
AcDbEntity
  8
0
100
AcDbPolyline
 90
       39
 70
     0
 43
0.0
 10
12.41152185880002
 20
-10.65297507549999
 10
12.37496109400001
 20
-10.64926659069999
 10
12.33797593080001
 20
-10.64466294589999
 10
12.31899708440002
 20
-10.6416802755
 10
12.3001384492
 20
-10.63798634909999
 10
12.28698951000001
 20
-10.63480672509999
 10
12.27401165880002
 20
-10.63100033629999
 10
12.26128658520002
 20
-10.62642819229999
 10
12.2480604172
 20
-10.62057159869999
 10
12.23531799000002
 20
-10.6137090323
 10
12.2231611036
 20
-10.60586769629999
 10
12.2106705964
 20
-10.59626055069999
 10
12.19896880120001
 20
-10.58569179229999
 10
12.18802789720001
 20
-10.5743302371
 10
12.17695847160001
 20
-10.56126111869999
 10
12.16667636600001
 20
-10.5475707171
 10
12.157102718
 20
-10.5333750371
 10
12.14736074200001
 20
-10.51740589469999
 10
12.13829294840002
 20
-10.50104545949999
 10
12.12982145720002
 20
-10.48436743709999
 10
12.11679982200001
 20
-10.45595778429999
 10
12.10496829240003
 20
-10.42703151709999
 10
12.092900678
 20
-10.3943737779
 10
12.08180224440002
 20
-10.3613741491
 10
12.07040884600002
 20
-10.3244503811
 10
12.05983260440001
 20
-10.2872841235
 10
12.04893164920002
 20
-10.24599746909999
 10
12.03872116760001
 20
-10.20453446589999
 10
12.02810174520001
 20
-10.15858497629999
 10
12.01806077080002
 20
-10.11250560669999
 10
12.00744784760002
 20
-10.06111436829999
 10
11.9973228524
 20
-10.00962465469999
 10
11.98642323480001
 20
-9.9517151107
 10
11.97593954200002
 20
-9.893728827499998
 10
11.9536689068
 20
-9.763852782699999
 10
11.93055912920002
 20
-9.620868134699996
 10
11.90661132120001
 20
-9.466041227499999
 10
11.88196880280003
 20
-9.302113265899997
 10
11.82930377080001
 20
-8.947384446699999
  0
LWPOLYLINE
  5
40
330
2
100
AcDbEntity
  8
0
  6
HIDDEN
 48
0.5
100
AcDbPolyline
 90
       90
 70
     0
 43
0.0
 10
-2.970568589199984
 20
4.664874290900002
 10
-2.874211881999968
 20
4.669512023700001
 10
-2.816946854799994
 20
4.671884183700001
 10
-2.759585281999989
 20
4.673419748500002
 10
-2.71911916999997
 20
4.6736677309
 10
-2.678701801999977
 20
4.672593100500002
 10
-2.638445806799978
 20
4.669512023700001
 10
-2.601034528399992
 20
4.664344660499999
 10
-2.563912752399971
 20
4.657078140500004
 10
-2.527130307599975
 20
4.647966546900001
 10
-2.490737024399976
 20
4.6372639629
 10
-2.454782731599976
 20
4.625224473300001
 10
-2.415143113999988
 20
4.610441532500004
 10
-2.37607806599999
 20
4.594358513300001
 10
-2.337550981199996
 20
4.577029198099999
 10
-2.30048066759997
 20
4.558930527699999
 10
-2.264071206799968
 20
4.539500383700001
 10
-2.228506184399975
 20
4.518542503700004
 10
-2.193969184399975
 20
4.495860622100003
 10
-2.16064379239998
 20
4.471258479700004
 10
-2.131085227599982
 20
4.446692006100001
 10
-2.102854856399972
 20
4.420423953300002
 10
-2.07608963879997
 20
4.3925598605
 10
-2.05092653639997
 20
4.363205266900003
 10
-2.02750250759999
 20
4.332465708500002
 10
-2.005954513999995
 20
4.300446726099998
 10
-1.986419513999976
 20
4.267253855700005
 10
-1.969034465999982
 20
4.2329926381
 10
-1.953936333199976
 20
4.197768610899998
 10
-1.94123792039997
 20
4.161734342100004
 10
-1.930866501199972
 20
4.124968396500001
 10
-1.92273103239998
 20
4.087594305300001
 10
-1.916740477199994
 20
4.049735596499999
 10
-1.912803792399984
 20
4.011515801299999
 10
-1.910829939599977
 20
3.973058446100004
 10
-1.910727875599974
 20
3.934487063700004
 10
-1.912406561999972
 20
3.8959251821
 10
-1.915774957199971
 20
3.857496332499998
 10
-1.921171942799986
 20
3.8167420157
 10
-1.928502749199992
 20
3.776417674900002
 10
-1.937878030799993
 20
3.736660698900003
 10
-1.949408440399992
 20
3.697608476500001
 10
-1.963204629199992
 20
3.659398393300001
 10
-1.97937725159997
 20
3.622167839700004
 10
-1.991059923599976
 20
3.598897626900004
 10
-2.003884464399988
 20
3.576214740499999
 10
-2.017970886799986
 20
3.554247599700005
 10
-2.033439201999982
 20
3.533124626900004
 10
-2.052310424399991
 20
3.510833329299998
 10
-2.072874406799968
 20
3.489918769300004
 10
-2.094975128399994
 20
3.470560468500003
 10
-2.118456571599978
 20
3.4529379453
 10
-2.143162720399971
 20
3.437230724500004
 10
-2.168937553999995
 20
3.423618324500004
 10
-2.19562505479999
 20
3.412280266900005
 10
-2.220751331599984
 20
3.403876122900001
 10
-2.246272717199985
 20
3.396725951699998
 10
-2.271947808399971
 20
3.390019463699999
 10
-2.324347337999995
 20
3.375496804500002
 10
-2.376481637199987
 20
3.359900798099999
 10
-2.428453200399985
 20
3.343695250900005
 10
-2.480364521999973
 20
3.327343967700002
 10
-2.53231809479999
 20
3.311310758099999
 10
-2.584416414799989
 20
3.296059425300001
 10
-2.636761974799981
 20
3.282053777299999
 10
-2.689457269199976
 20
3.269757618900001
 10
-2.742604792399987
 20
3.259634758099998
 10
-2.793634982799972
 20
3.2523517853
 10
-2.845038035599969
 20
3.247287492499999
 10
-2.896684920399991
 20
3.244274630100001
 10
-2.948446614799991
 20
3.2431459437
 10
-3.000194086799979
 20
3.243734185299999
 10
-3.061824477199991
 20
3.246417948500003
 10
-3.12329268679997
 20
3.2508213021
 10
-3.184640742799984
 20
3.256454644500003
 10
-3.290013189199981
 20
3.267994438100004
 10
-3.395162805199987
 20
3.281561583700003
 10
-3.500098093199994
 20
3.296991108500002
 10
-3.604827550799996
 20
3.314118038100005
 10
-3.709359677199984
 20
3.332777398099999
 10
-3.854366296399973
 20
3.360953505300003
 10
-3.999030816399994
 20
3.391329129300004
 10
-4.143376069199973
 20
3.423461044500001
 10
-4.287424893199982
 20
3.456906015699999
 10
-4.431200120399978
 20
3.491220817300003
 10
-4.574724585999973
 20
3.525962218900005
 10
-4.718021126799982
 20
3.560686988500002
 10
-4.861112576399989
 20
3.594951898899999
 10
-5.00402177159998
 20
3.628313718100002
 10
-5.146771545999996
 20
3.660329217300002
  0
LWPOLYLINE
  5
41
330
2
100
AcDbEntity
  8
0
100
AcDbPolyline
 90
       68
 70
     0
 43
0.0
 10
10.38094317720001
 20
2.990993671700003
 10
10.28415159960002
 20
2.981350038921519
 10
10.18790302200002
 20
2.961154968019528
 10
10.0838630971728
 20
2.930477905522835
 10
10.00212961400001
 20
2.89788465955452
 10
9.913970846000012
 20
2.848577025300002
 10
9.829773494000022
 20
2.807281167700004
 10
9.750064974000025
 20
2.759462230099998
 10
9.675366978800013
 20
2.705738911700002
 10
9.606236023600018
 20
2.6470126317
 10
9.541745279600007
 20
2.5831662557
 10
9.482932089200005
 20
2.5159349101
 10
9.428860300400003
 20
2.444872327700004
 10
9.380103870000027
 20
2.371208487700002
 10
9.336624479600004
 20
2.294896470099999
 10
9.299613295600011
 20
2.2159282669
 10
9.270390364400014
 20
2.134318985300005
 10
9.248538673200016
 20
2.050806759700002
 10
9.232827262000029
 20
1.966276498900001
 10
9.221076396400007
 20
1.881321884500003
 10
9.211368474800025
 20
1.796360223699998
 10
9.195769146800017
 20
1.626833430099999
 10
9.182593886000006
 20
1.458280945300003
 10
9.15836506520003
 20
1.125413918100001
 10
9.14632258040001
 20
0.9616072045000052
 10
9.133711828400009
 20
0.7997271660999985
 10
9.105687290800005
 20
0.4783257837000008
 10
9.089814882800027
 20
0.3166671501000025
 10
9.072483721200029
 20
0.1529447165000022
 10
9.053582668400025
 20
-0.0139434835000003
 10
9.033014780400009
 20
-0.1849386067000012
 10
9.01077916440002
 20
-0.3597544387000013
 10
8.986917948400019
 20
-0.5375405539000014
 10
8.961492362800015
 20
-0.7174592690999973
 10
8.934649618800023
 20
-0.8986711987000006
 10
8.906554740400025
 20
-1.080318638699999
 10
8.877293022000003
 20
-1.261915305899997
 10
8.846772290800004
 20
-1.443889465899999
 10
8.814876895600008
 20
-1.626807579499995
 10
8.781495726000031
 20
-1.811236912299996
 10
8.746529391600006
 20
-1.997746865899998
 10
8.709904556400005
 20
-2.186835974699995
 10
8.671597790000021
 20
-2.3784786963
 10
8.589894742000012
 20
-2.768443926699994
 10
8.501414286000027
 20
-3.1657974835
 10
8.454765510000015
 20
-3.3666502899
 10
8.406580057200017
 20
-3.5685918211
 10
8.305651905200022
 20
-3.975023073899997
 10
8.198620785200006
 20
-4.3841356179
 10
8.085491970800006
 20
-4.795086416299994
 10
8.026579961200013
 20
-5.000971387499994
 10
7.966085129200024
 20
-5.206985000300001
 10
7.904030799600008
 20
-5.412998657899997
 10
7.840479273200003
 20
-5.618764965099998
 10
7.709127249200008
 20
-6.028463736299997
 10
7.572708742000003
 20
-6.433934734699995
 10
7.502971710000025
 20
-6.634499267499997
 10
7.432425478000027
 20
-6.8333164979
 10
7.361227263600028
 20
-7.030249411499994
 10
7.325432852400012
 20
-7.128061312299998
 10
7.289531778800011
 20
-7.225474781099997
 10
7.217397246000018
 20
-7.419210873899999
 10
7.181135961200027
 20
-7.515576553899997
 10
7.144733111600004
 20
-7.611637808299995
 10
7.071408426800019
 20
-7.802834597099995
 10
6.997067996400005
 20
-7.992574473899999
 10
6.921456002800027
 20
-8.180044197099995
 10
6.843376612400021
 20
-8.366493755499995
  0
LWPOLYLINE
  5
42
330
2
100
AcDbEntity
  8
0
100
AcDbPolyline
 90
       58
 70
     0
 43
0.0
 10
10.38094317720001
 20
2.990993671700003
 10
10.4850326316
 20
2.986761092500003
 10
10.5849718716
 20
2.974408041300002
 10
10.6792705052
 20
2.954635850900004
 10
10.76832930360001
 20
2.927816833299999
 10
10.8550006316
 20
2.893215567700003
 10
10.94054023320001
 20
2.850099009300002
 10
11.02326627160002
 20
2.798877118100001
 10
11.1028114556
 20
2.739288953300004
 10
11.18016884280001
 20
2.669821756499999
 10
11.21861931
 20
2.630393129300003
 10
11.25530719480002
 20
2.5893168845
 10
11.2920732732
 20
2.544361345300004
 10
11.3268387612
 20
2.497842538900002
 10
11.3884981708
 20
2.403445671700005
 10
11.41311590680001
 20
2.360238407700002
 10
11.4358554364
 20
2.316020380499999
 10
11.471552158
 20
2.232575924500004
 10
11.48670574040002
 20
2.188213934100005
 10
11.49967334360002
 20
2.143160330900002
 10
11.51184111
 20
2.091956074900004
 10
11.52183388280002
 20
2.040281822099998
 10
11.53870855480002
 20
1.922610497299999
 10
11.55286577880002
 20
1.791548842899999
 10
11.56540026360002
 20
1.646871750100004
 10
11.57763208600002
 20
1.487800945300001
 10
11.59037131160002
 20
1.312667106900001
 10
11.60420766840002
 20
1.119387018899999
 10
11.62019001560003
 20
0.9054770493000035
 10
11.63971674040001
 20
0.6679702173000024
 10
11.66431247800002
 20
0.4032501149000041
 10
11.6957717244
 20
0.1062095597000052
 10
11.73591069880001
 20
-0.2301784514999952
 10
11.78700572760001
 20
-0.613093264299998
 10
11.85093348280003
 20
-1.043009761899995
 10
11.9230877724
 20
-1.482874051499997
 10
11.99892518680002
 20
-1.906533035499997
 10
12.07652085560002
 20
-2.309570995499996
 10
12.15842084120001
 20
-2.708641664299996
 10
12.25251437240001
 20
-3.139477163499996
 10
12.36741095160002
 20
-3.632966152299999
 10
12.49844320760002
 20
-4.159428430699996
 10
12.63347670840002
 20
-4.667057854699997
 10
12.76132403000002
 20
-5.119065998699994
 10
12.88109451320002
 20
-5.520157888299998
 10
12.99318416760002
 20
-5.878316918700001
 10
13.09790340760002
 20
-6.199500949099999
 10
13.19564972280002
 20
-6.489153305899996
 10
13.28618130360001
 20
-6.749880025899997
 10
13.36896953880003
 20
-6.982765385899995
 10
13.44380335480002
 20
-7.189515430699998
 10
13.51177508920002
 20
-7.374743409899998
 10
13.57512037880002
 20
-7.545357969899995
 10
13.63628455960002
 20
-7.708265880299997
 10
13.69783912600001
 20
-7.869676517099996
 10
13.76083098040001
 20
-8.031281382700001
 10
13.82540202520002
 20
-8.192338790699999
 10
13.89169522360001
 20
-8.352100341099998
  0
LWPOLYLINE
  5
43
330
2
100
AcDbEntity
  8
0
  6
HIDDEN
 48
0.5
100
AcDbPolyline
 90
       98
 70
     0
 43
0.0
 10
23.662239822
 20
4.661767022100001
 10
23.54394153400002
 20
4.668732094100001
 10
23.50586693880001
 20
4.6706382813
 10
23.46780885880002
 20
4.671688180499998
 10
23.42983402840002
 20
4.671260036500001
 10
23.3920091852
 20
4.668732094100001
 10
23.35525406680003
 20
4.663780828500001
 10
23.31878783480001
 20
4.656516753300003
 10
23.28269236440001
 20
4.647226610899998
 10
23.24704953400001
 20
4.636197146900002
 10
23.2119412172
 20
4.6237151021
 10
23.17292430200001
 20
4.608156377299998
 10
23.1345282684
 20
4.591232674899998
 10
23.09658517560001
 20
4.573070985299999
 10
23.0642578716
 20
4.556544327700002
 10
23.03229847480003
 20
4.539111991700004
 10
23.00086443960001
 20
4.520688686100001
 10
22.9701132236
 20
4.501189122900001
 10
22.94020228120001
 20
4.480528012500002
 10
22.9112890668
 20
4.458620068500003
 10
22.88353103640003
 20
4.435379999700003
 10
22.85708564440003
 20
4.410722516500001
 10
22.83211034680002
 20
4.384562330900003
 10
22.80657317560002
 20
4.354098622100003
 10
22.78303153720003
 20
4.321910310100001
 10
22.76152411160001
 20
4.288182071699999
 10
22.7420895884
 20
4.253098586900001
 10
22.7247666492
 20
4.216844537300005
 10
22.70959398040003
 20
4.179604599699999
 10
22.69661026520001
 20
4.141563455700001
 10
22.68585418840001
 20
4.102905783700002
 10
22.67736443640001
 20
4.063816262100004
 10
22.67133669400001
 20
4.025725879700004
 10
22.66747369560002
 20
3.987476188500004
 10
22.66578049880001
 20
3.9491394669
 10
22.66626216440002
 20
3.910787994900005
 10
22.66892375
 20
3.872494046100001
 10
22.67402081240001
 20
3.832669562900001
 10
22.6814259596
 20
3.793165154900002
 10
22.69106562840002
 20
3.754159410900001
 10
22.70286626360001
 20
3.715830919700003
 10
22.71675430520002
 20
3.678358268499998
 10
22.73144134680001
 20
3.644377454100002
 10
22.747703486
 20
3.610832780500004
 10
22.75868712760001
 20
3.5898165085
 10
22.77033692440002
 20
3.569021281300003
 10
22.78276039320002
 20
3.5486760637
 10
22.79606505400002
 20
3.5290098237
 10
22.81035842360001
 20
3.510251529299999
 10
22.82574801880002
 20
3.492630148500005
 10
22.84234136120002
 20
3.476374647700005
 10
22.860245966
 20
3.461713993300001
 10
22.8793365564
 20
3.448903473299999
 10
22.89955692600003
 20
3.437659788499999
 10
22.92064217880002
 20
3.427756953300004
 10
22.942327422
 20
3.418968978900004
 10
22.96434776120003
 20
3.411069878100001
 10
22.99897520600001
 20
3.399998407700003
 10
23.033700422
 20
3.3898983853
 10
23.06844955480002
 20
3.3801206957
 10
23.12640635000002
 20
3.363315874900003
 10
23.18431662040001
 20
3.346032345300002
 10
23.24227310680001
 20
3.328702796500003
 10
23.30036855320003
 20
3.311759918100001
 10
23.3586956972
 20
3.295636401300001
 10
23.41734728120002
 20
3.280764937299998
 10
23.47641604600002
 20
3.267578215699998
 10
23.5162417388
 20
3.259923287700004
 10
23.55626592600001
 20
3.253459302100004
 10
23.59645843160001
 20
3.248427649300005
 10
23.63678907960002
 20
3.245069719700005
 10
23.68269287160001
 20
3.243429734100004
 10
23.72866972920002
 20
3.243636591700003
 10
23.77465361880001
 20
3.245069719700005
 10
23.8604699356
 20
3.249531759700005
 10
23.9461121804
 20
3.255905794900002
 10
24.03161240920002
 20
3.263987794900003
 10
24.1170026796
 20
3.273573735700004
 10
24.20231504440002
 20
3.284459586899998
 10
24.30993633720001
 20
3.299834490900003
 10
24.41724601080002
 20
3.317073730899998
 10
24.52400555640002
 20
3.336294052500001
 10
24.62997646840003
 20
3.3576121997
 10
24.71441080920001
 20
3.3762852109
 10
24.7983175276
 20
3.396149417300001
 10
24.8818317708
 20
3.416967058899999
 10
24.96508867640002
 20
3.438500377300002
 10
25.04822339
 20
3.460511614099999
 10
25.13137105240002
 20
3.482763012500001
 10
25.21466680440002
 20
3.505016810900002
 10
25.29824579160001
 20
3.527035255699999
 10
25.38224315320002
 20
3.548580583700001
 10
25.46679403320001
 20
3.569415039700004
 10
25.5520335724
 20
3.589300865300003
 10
25.63809691480003
 20
3.608000298900002
 10
25.72511920120001
 20
3.625275585300002
 10
25.813235574
 20
3.6408889661
 10
25.9025811756
 20
3.654602681300005
  0
LWPOLYLINE
  5
44
330
2
100
AcDbEntity
  8
0
100
AcDbPolyline
 90
        9
 70
     0
 43
0.0
 10
-3.357244936399979
 20
4.6784498349
 10
-3.308599120399975
 20
4.671114081300004
 10
-3.260080704399996
 20
4.665928033300005
 10
-3.211670456399986
 20
4.662622383700004
 10
-3.163349142799972
 20
4.660927823699999
 10
-3.115097531599985
 20
4.660575042899999
 10
-3.066896389199996
 20
4.661294732500003
 10
-3.018726486799977
 20
4.662817585300004
 10
-2.970568589199984
 20
4.664874290900002
  0
LWPOLYLINE
  5
45
330
2
100
AcDbEntity
  8
0
  6
HIDDEN
 48
0.5
100
AcDbPolyline
 90
       20
 70
     0
 43
0.0
 10
-5.293207995599971
 20
5.328826983700004
 10
-5.168774309199989
 20
5.280230156500003
 10
-5.044620616399981
 20
5.232528876500005
 10
-4.921201776399982
 20
5.1858951245
 10
-4.798929187599981
 20
5.1404773645
 10
-4.678139283599989
 20
5.0963905085
 10
-4.559074701199989
 20
5.053711711700003
 10
-4.441993520399989
 20
5.012521575699999
 10
-4.327209713999991
 20
4.972917574100002
 10
-4.215046622799974
 20
4.934996641300003
 10
-4.105800176399981
 20
4.898842810899999
 10
-3.999746222799984
 20
4.864530550099999
 10
-3.897164219599972
 20
4.832132905299999
 10
-3.798343453199976
 20
4.801723265300005
 10
-3.703565229199995
 20
4.773369593300003
 10
-3.61309437639997
 20
4.747132190100003
 10
-3.527182488399972
 20
4.723065110100002
 10
-3.446064779599993
 20
4.701215719700002
 10
-3.369961921999987
 20
4.681625729300002
 10
-3.357244936399979
 20
4.6784498349
  0
LWPOLYLINE
  5
46
330
2
100
AcDbEntity
  8
0
  6
HIDDEN
 48
0.5
100
AcDbPolyline
 90
       85
 70
     0
 43
0.0
 10
-5.476457212045659
 20
6.986151586900007
 10
-5.188504350799973
 20
4.159652697300003
 10
-5.165279857999991
 20
3.918671311700002
 10
-5.139953017999971
 20
3.646433774100003
 10
-5.113229121999978
 20
3.341646495700004
 10
-5.088868085199976
 20
3.036077454100002
 10
-5.069938189199973
 20
2.7629554397
 10
-5.055423078799975
 20
2.520903956499999
 10
-5.042746947599994
 20
2.3049855565
 10
-5.030070149199985
 20
2.112200417300002
 10
-5.016086881999996
 20
1.940138945299999
 10
-4.999714198799978
 20
1.786832500500004
 10
-4.980070267599984
 20
1.650563166099999
 10
-4.956473552399984
 20
1.5303290461
 10
-4.92872141319998
 20
1.425849441300002
 10
-4.897232617999975
 20
1.3364524829
 10
-4.862796579599972
 20
1.261080521300002
 10
-4.826010389199979
 20
1.197697702100001
 10
-4.786666097999983
 20
1.143458966099998
 10
-4.744102320399974
 20
1.096059202900001
 10
-4.697583014799988
 20
1.054087679700003
 10
-4.645603145999984
 20
1.016289442900003
 10
-4.585450403599992
 20
0.9814372141000049
 10
-4.513848366799976
 20
0.9489755773000041
 10
-4.428849710799994
 20
0.9194628445000034
 10
-4.329766536399972
 20
0.8936273357000033
 10
-4.216173632399971
 20
0.871736782100001
 10
-4.087275624399978
 20
0.8534848844999984
 10
-3.942021869199976
 20
0.8383888557000034
 10
-3.778940003599984
 20
0.8260436413000036
 10
-3.596474198799995
 20
0.8160506749000049
 10
-3.392311830799968
 20
0.8078266221000021
 10
-3.165732965199993
 20
0.8006050749000053
 10
-2.936470049999968
 20
0.7937213340999989
 10
-2.727835473999988
 20
0.7863476269000032
 10
-2.54398064839998
 20
0.7776960700999993
 10
-2.380334520399969
 20
0.7671319196999989
 10
-2.233929771599974
 20
0.7541391964999989
 10
-2.103148861199969
 20
0.7382603949000029
 10
-1.986868000399994
 20
0.7190022589000052
 10
-1.884804083599988
 20
0.6959334141000042
 10
-1.796618817999984
 20
0.668964990100001
 10
-1.721743406799987
 20
0.6385876109000037
 10
-1.658255288399971
 20
0.6052591229000015
 10
-1.602976945999984
 20
0.5685546125000016
 10
-1.553053568399974
 20
0.5272948077000024
 10
-1.507069273999974
 20
0.4804880829000027
 10
-1.464771651599988
 20
0.4275294285000016
 10
-1.426040851599992
 20
0.3674051596999988
 10
-1.390649827599986
 20
0.2982449757000012
 10
-1.358665261199973
 20
0.217457934100004
 10
-1.330767587599979
 20
0.1223582109000034
 10
-1.308243611599976
 20
0.0111942029000005
 10
-1.291653665999973
 20
-0.1164196370999946
 10
-1.279539958799972
 20
-0.2603140018999994
 10
-1.269730309199985
 20
-0.4215909378999996
 10
-1.25950045479999
 20
-0.6019426514999964
 10
-1.246899257999984
 20
-0.8034802706999997
 10
-1.231458633999977
 20
-1.028910437099995
 10
-1.212747974799981
 20
-1.281161027499997
 10
-1.190274360399996
 20
-1.563477269099998
 10
-1.163577942799975
 20
-1.879206206699997
 10
-1.132285259599996
 20
-2.231210789099996
 10
-1.096201384399989
 20
-2.620853369899997
 10
-1.055039126799982
 20
-3.051333926699996
 10
-1.008992437199992
 20
-3.522067862699998
 10
-0.9628064739999899
 20
-3.989680168299997
 10
-0.920429989199988
 20
-4.421716777899995
 10
-0.8786121491999949
 20
-4.855719200300001
 10
-0.8331894931999954
 20
-5.3385136467
 10
-0.7852233859999842
 20
-5.864179958699999
 10
-0.7401654723999798
 20
-6.373832899499994
 10
-0.7013960115999965
 20
-6.823115677099998
 10
-0.6676801667999826
 20
-7.219533056300001
 10
-0.6365646307999953
 20
-7.5881428259
 10
-0.6064269859999741
 20
-7.946238974699994
 10
-0.5764042579999967
 20
-8.3030298595
 10
-0.5460340147999716
 20
-8.663380854700001
 10
-0.5149673235999899
 20
-9.030973654699998
 10
-0.4829754179999953
 20
-9.408169718699994
 10
-0.4500320355999748
 20
-9.795044251499994
 10
-0.4161080979999952
 20
-10.19178854589999
 10
-0.3809688403999871
 20
-10.60102609629999
 10
-0.3442490787999759
 20
-11.02686449149999
 10
-0.3055388099999732
 20
-11.47389611389999
  0
LWPOLYLINE
  5
47
330
2
100
AcDbEntity
  8
0
100
AcDbPolyline
 90
       47
 70
     0
 43
0.0
 10
13.91857184600002
 20
-8.366494902699997
 10
13.95088632440001
 20
-8.445707225900001
 10
13.98377771800002
 20
-8.5246822131
 10
14.0172396076
 20
-8.603297366699997
 10
14.05135813080002
 20
-8.681629656299996
 10
14.08591982840002
 20
-8.759074289899999
 10
14.12122826360001
 20
-8.836181339500001
 10
14.15697881720001
 20
-8.912162627499995
 10
14.19357115000002
 20
-8.987742113899997
 10
14.23071975320002
 20
-9.062205792299998
 10
14.26880626360002
 20
-9.136194045099998
 10
14.30760444120002
 20
-9.209145419499996
 10
14.34742541240001
 20
-9.281543677099996
 10
14.3879327484
 20
-9.352684861099994
 10
14.42954534040001
 20
-9.423185129899998
 10
14.47181551960002
 20
-9.492173257899999
 10
14.51528311480001
 20
-9.5604132339
 10
14.55949436760002
 20
-9.627077097899999
 10
14.60499501400002
 20
-9.692867574699995
 10
14.65128059480002
 20
-9.756942411499998
 10
14.6989371884
 20
-9.820003998699995
 10
14.74755318360001
 20
-9.881399901099996
 10
14.7975951228
 20
-9.9416391731
 10
14.84875210040002
 20
-10.0002685731
 10
14.90135374680002
 20
-10.0576054355
 10
14.95494800760002
 20
-10.1131071251
 10
15.0099865068
 20
-10.16717704349999
 10
15.0658118748
 20
-10.21910989469999
 10
15.12309055160002
 20
-10.2694346707
 10
15.18023578680001
 20
-10.31673686589999
 10
15.23878374040001
 20
-10.36229013789999
 10
15.29307584440002
 20
-10.40198905789999
 10
15.34850127160001
 20
-10.44008796189999
 10
15.39709420600002
 20
-10.4715382547
 10
15.44650231160002
 20
-10.50168926269999
 10
15.48868911000002
 20
-10.52600131069999
 10
15.53143710840001
 20
-10.54931114589999
 10
15.56810825080001
 20
-10.56825480669999
 10
15.60517350520001
 20
-10.5864138035
 10
15.63686288120001
 20
-10.60115059869999
 10
15.66882529400001
 20
-10.6152846851
 10
15.72315019800001
 20
-10.63765403549999
 10
15.76858294040002
 20
-10.65479886589999
 10
15.8054936588
 20
-10.66767389149999
 10
15.8342055324
 20
-10.67701322749999
 10
15.85475283480002
 20
-10.68340414269999
 10
15.86740408600002
 20
-10.68727996829999
  0
LWPOLYLINE
  5
48
330
2
100
AcDbEntity
  8
0
100
AcDbPolyline
 90
       48
 70
     0
 43
0.0
 10
11.58618905720001
 20
-7.476140320299997
 10
11.53725301880001
 20
-7.189329467499995
 10
11.48624492760001
 20
-6.873762099499998
 10
11.43358637560001
 20
-6.5261423747
 10
11.37857236920001
 20
-6.137667904299995
 10
11.32091875
 20
-5.701581536299997
 10
11.26042883960002
 20
-5.209574491499999
 10
11.19744953080001
 20
-4.655167403499994
 10
11.13399124920002
 20
-4.045558677099997
 10
11.07734558040002
 20
-3.4489335779
 10
11.0304260988
 20
-2.9088127459
 10
10.99186211480002
 20
-2.426543881899995
 10
10.95972780760001
 20
-1.9924464483
 10
10.93289880600002
 20
-1.602103619499999
 10
10.91006880120002
 20
-1.2494153811
 10
10.89022798840002
 20
-0.9306431794999951
 10
10.87270612920002
 20
-0.6435753810999998
 10
10.85683781240001
 20
-0.3848794035000011
 10
10.84209392600001
 20
-0.1523172146999983
 10
10.82801995160002
 20
0.0583667564999999
 10
10.81434331160002
 20
0.2503436845000024
 10
10.80092466200002
 20
0.4249562237000007
 10
10.78769975960003
 20
0.5829268749000036
 10
10.77459703480002
 20
0.7253010061000041
 10
10.76152661720001
 20
0.8533912205000007
 10
10.7484344396
 20
0.9687236860999988
 10
10.73530529560002
 20
1.072911023700001
 10
10.72207475160001
 20
1.1673268909
 10
10.70864547320002
 20
1.253212505299998
 10
10.69491768120002
 20
1.331685692500002
 10
10.6807939132
 20
1.403580990100003
 10
10.66619527000003
 20
1.469461335700003
 10
10.65110057240002
 20
1.529767534100002
 10
10.63549613720002
 20
1.5848492557
 10
10.619362198
 20
1.635006716500001
 10
10.60271592120002
 20
1.680366154899999
 10
10.58557421720002
 20
1.7210675213
 10
10.56797444760002
 20
1.757230522900002
 10
10.55000088920002
 20
1.788959487700005
 10
10.53172815960002
 20
1.816348671700005
 10
10.51328163000002
 20
1.8394973101
 10
10.49484953880002
 20
1.8585522941
 10
10.47670148280002
 20
1.873749898900001
 10
10.45897312440001
 20
1.885528364500004
 10
10.44146047320001
 20
1.894421386899999
 10
10.4238084332
 20
1.900810945300001
 10
10.40567607000002
 20
1.9048836893
 10
10.37506376920001
 20
1.906711679700002
  0
LWPOLYLINE
  5
49
330
2
100
AcDbEntity
  8
0
100
AcDbPolyline
 90
        4
 70
     0
 43
0.0
 10
11.74188132760002
 20
-8.379626339499999
 10
11.7102542284
 20
-8.188241155499994
 10
11.6735834348
 20
-7.974399683499996
 10
11.58618905720001
 20
-7.476140320299997
  0
LWPOLYLINE
  5
4A
330
2
100
AcDbEntity
  8
0
100
AcDbPolyline
 90
        4
 70
     0
 43
0.0
 10
11.82930377080001
 20
-8.947384446699999
 10
11.80117940280001
 20
-8.759960669099996
 10
11.7721080908
 20
-8.570374657899996
 10
11.74188540120002
 20
-8.3796263491
  0
LWPOLYLINE
  5
4B
330
2
100
AcDbEntity
  8
0
100
AcDbPolyline
 90
        5
 70
     0
 43
0.0
 10
8.879917553200016
 20
-9.302113265899997
 10
8.932582585200009
 20
-8.947384446699999
 10
8.96070695320003
 20
-8.759960669099996
 10
8.989778263600015
 20
-8.570374657899996
 10
9.020000953200025
 20
-8.3796263491
  0
LWPOLYLINE
  5
4C
330
2
100
AcDbEntity
  8
0
100
AcDbPolyline
 90
       52
 70
     0
 43
0.0
 10
9.020005028400021
 20
-8.379626339499999
 10
9.051632126000015
 20
-8.188241155499994
 10
9.088302921200011
 20
-7.974399683499996
 10
9.129883628400023
 20
-7.737266673899995
 10
9.175697297200031
 20
-7.476140320299997
 10
9.224633337200003
 20
-7.189329467499995
 10
9.275641426800007
 20
-6.873762099499998
 10
9.328299980400004
 20
-6.5261423747
 10
9.383313986800004
 20
-6.137667904299995
 10
9.440967606000015
 20
-5.701581536299997
 10
9.501457514800023
 20
-5.209574491499999
 10
9.564436825200004
 20
-4.655167403499994
 10
9.627895106800025
 20
-4.045558677099997
 10
9.684540775600027
 20
-3.4489335779
 10
9.731460255600012
 20
-2.9088127459
 10
9.770024241200019
 20
-2.426543881899995
 10
9.802158548400029
 20
-1.9924464483
 10
9.828987548400021
 20
-1.602103619499999
 10
9.851817553200021
 20
-1.2494153811
 10
9.871658367600019
 20
-0.9306431794999951
 10
9.889180225200021
 20
-0.6435753810999998
 10
9.905048542000031
 20
-0.3848794035000011
 10
9.919792428400029
 20
-0.1523172146999983
 10
9.933866404400021
 20
0.0583667564999999
 10
9.947543044400021
 20
0.2503436845000024
 10
9.960961694000019
 20
0.4249562237000007
 10
9.974186594800016
 20
0.5829268749000036
 10
9.987289321200023
 20
0.7253010061000041
 10
10.00035973880002
 20
0.8533912205000007
 10
10.01345191480001
 20
0.9687236860999988
 10
10.02658105880001
 20
1.072911023700001
 10
10.03981160280002
 20
1.1673268909
 10
10.05324088120002
 20
1.253212505299998
 10
10.06696867480002
 20
1.331685692500002
 10
10.08109244120001
 20
1.403580990100003
 10
10.09569108440001
 20
1.469461335700003
 10
10.11078578200002
 20
1.529767534100002
 10
10.12639021880002
 20
1.5848492557
 10
10.14252415640001
 20
1.635006716500001
 10
10.15917043320001
 20
1.680366154899999
 10
10.17631213720002
 20
1.7210675213
 10
10.19391190840002
 20
1.757230522900002
 10
10.21188546680002
 20
1.788959487700005
 10
10.23015819480002
 20
1.816348671700005
 10
10.24860472440002
 20
1.8394973101
 10
10.26703681720002
 20
1.8585522941
 10
10.28518487160002
 20
1.873749898900001
 10
10.30291323160003
 20
1.885528364500004
 10
10.32042588120001
 20
1.894421386899999
 10
10.33807792120001
 20
1.900810945300001
 10
10.35621028440002
 20
1.9048836893
 10
10.37506376920001
 20
1.906711679700002
  0
LWPOLYLINE
  5
4D
330
2
100
AcDbEntity
  8
0
100
AcDbPolyline
 90
       47
 70
     0
 43
0.0
 10
6.843314508400027
 20
-8.366494902699997
 10
6.811002399600027
 20
-8.445703589099998
 10
6.778113151600024
 20
-8.524674853099995
 10
6.74465128280002
 20
-8.6032906163
 10
6.710532513200007
 20
-8.681623400299997
 10
6.675972377200025
 20
-8.759063985899999
 10
6.640665548400022
 20
-8.836167008299995
 10
6.604915660400024
 20
-8.912146736299995
 10
6.568324097200019
 20
-8.9877247123
 10
6.531176090800016
 20
-9.062187323499998
 10
6.493090206000005
 20
-9.136174526699996
 10
6.454292998000028
 20
-9.209124315499998
 10
6.414473054000012
 20
-9.281521021099997
 10
6.373966686000017
 20
-9.3526608819
 10
6.33235512760001
 20
-9.423159865899997
 10
6.290085706800027
 20
-9.492147317099998
 10
6.246618924400024
 20
-9.560386654699996
 10
6.202407934000007
 20
-9.627050819499999
 10
6.156907588400031
 20
-9.692841633899995
 10
6.11062225720002
 20
-9.756916989099998
 10
6.062965926000003
 20
-9.819979115499997
 10
6.014349569200021
 20
-9.881376280299996
 10
5.964307178800027
 20
-9.941616753899999
 10
5.913147626800025
 20
-10.00024954109999
 10
5.86054325240002
 20
-10.05758966109999
 10
5.806943082800017
 20
-10.11309761469999
 10
5.751898356400005
 20
-10.1671734787
 10
5.696064911600018
 20
-10.21911323229999
 10
5.638777753200031
 20
-10.26944444029999
 10
5.581628631600011
 20
-10.3167486595
 10
5.523076671600023
 20
-10.3623037555
 10
5.468785687600018
 20
-10.40200067869999
 10
5.413361465200011
 20
-10.44009765149999
 10
5.36477088760003
 20
-10.4715455395
 10
5.315365247600027
 20
-10.50169427229999
 10
5.273179658800017
 20
-10.5260050563
 10
5.23043292760002
 20
-10.54931370749999
 10
5.193762761200019
 20
-10.56825650109999
 10
5.156698516400012
 20
-10.58641468509999
 10
5.125009932400018
 20
-10.60115088669999
 10
5.093048346800003
 20
-10.61528445469999
 10
5.038724897200012
 20
-10.6376531219
 10
4.99329327960001
 20
-10.6547976035
 10
4.956383236400029
 20
-10.66767253789999
 10
4.927674090800024
 20
-10.67701072349999
 10
4.907118402800023
 20
-10.68340551069999
 10
4.894482270000025
 20
-10.68727996829999
  0
LWPOLYLINE
  5
4E
330
2
100
AcDbEntity
  8
0
  6
HIDDEN
 48
0.5
100
AcDbPolyline
 90
        7
 70
     0
 43
0.0
 10
26.21070490207941
 20
6.986151586900007
 10
26.07746173400002
 20
5.522833103700001
 10
26.06022363960002
 20
5.321628298900002
 10
26.04196943480002
 20
5.114937132500003
 10
26.02358079800001
 20
4.9149949277
 10
26.00619532440001
 20
4.731857756500005
 10
25.9888201308
 20
4.552236390099999
  0
LWPOLYLINE
  5
4F
330
2
100
AcDbEntity
  8
0
  6
HIDDEN
 48
0.5
100
AcDbPolyline
 90
       83
 70
     0
 43
0.0
 10
25.9888201308
 20
4.552236390099999
 10
25.948967758
 20
4.145049314899999
 10
25.92523341880001
 20
3.898303054100004
 10
25.89936490840003
 20
3.619110884500003
 10
25.87228892120001
 20
3.307880007699999
 10
25.84816146840001
 20
3.001103172500002
 10
25.82967387160002
 20
2.728702844499999
 10
25.81538257240001
 20
2.487593812500001
 10
25.80264278840002
 20
2.272646543699998
 10
25.78966445880002
 20
2.081018102100003
 10
25.77513828120001
 20
1.910267322900004
 10
25.75797797400003
 20
1.758408887699999
 10
25.73730502680001
 20
1.623764758100001
 10
25.71247899000002
 20
1.505499762900001
 10
25.68343767640001
 20
1.4032688765
 10
25.65072154520001
 20
1.316279457299998
 10
25.61518638360002
 20
1.243282940500002
 10
25.57729505240001
 20
1.1818963949
 10
25.53661904600002
 20
1.129140801300003
 10
25.49244297560003
 20
1.0829037373
 10
25.44385307640002
 20
1.041842273299998
 10
25.38894325080002
 20
1.0046544765
 10
25.32455037880001
 20
0.9701864013000047
 10
25.2474654364
 20
0.9382324733000046
 10
25.15622871640002
 20
0.9095826925000025
 10
25.05041864920002
 20
0.884885210900002
 10
24.92941386840001
 20
0.8641784973000028
 10
24.7923965308
 20
0.8470167965000001
 10
24.63800675960001
 20
0.8329157133000038
 10
24.46458114040001
 20
0.8214726381000048
 10
24.27068162200001
 20
0.8122278909000044
 10
24.05336176120002
 20
0.8044597757000033
 10
23.8190233692
 20
0.7973923069000009
 10
23.59472205720001
 20
0.7902870973000021
 10
23.39618222200002
 20
0.7822815517000024
 10
23.22067991800003
 20
0.772617777299999
 10
23.064049358
 20
0.7607075709000029
 10
22.92416541560001
 20
0.7460543820999988
 10
22.79964820120003
 20
0.7281740236999994
 10
22.6898328844
 20
0.7065638237000016
 10
22.59435387640002
 20
0.6808968973000021
 10
22.5128929324
 20
0.6514498653000019
 10
22.4442074876
 20
0.618864430100004
 10
22.38541182680001
 20
0.5831743948999986
 10
22.33310415320002
 20
0.5433332652999994
 10
22.28515941400002
 20
0.4980914604999996
 10
22.24098907480001
 20
0.4467395660999998
 10
22.20056723960002
 20
0.3885171308999986
 10
22.16364436760002
 20
0.3217930269000035
 10
22.13013121240001
 20
0.244063503700005
 10
22.10048990680002
 20
0.1523934765000021
 10
22.07592407640001
 20
0.0445846077000027
 10
22.05752539320002
 20
-0.0801474482999964
 10
22.04423930360002
 20
-0.2215382882999961
 10
22.03394339000002
 20
-0.3803891043000007
 10
22.02394042840001
 20
-0.5583914786999955
 10
22.01176324440001
 20
-0.7575697667000015
 10
21.99675904440002
 20
-0.980650032299998
 10
21.97849473720001
 20
-1.230607958699998
 10
21.95646687480001
 20
-1.510763953899996
 10
21.93018614360002
 20
-1.824572709099996
 10
21.89923911160002
 20
-2.175245355499995
 10
21.86338680600002
 20
-2.564479552299999
 10
21.8224645276
 20
-2.9940591091
 10
21.77614961400001
 20
-3.4685548339
 10
21.72803626840001
 20
-3.955814141099999
 10
21.68459054840002
 20
-4.398354472299999
 10
21.64250234040002
 20
-4.8347140515
 10
21.59642756120001
 20
-5.323947563499999
 10
21.54763008920002
 20
-5.858383264299995
 10
21.50231168760001
 20
-6.370851929899998
 10
21.46358446200002
 20
-6.819584003499997
 10
21.42968415320001
 20
-7.218143449899997
 10
21.39814526840001
 20
-7.591772157099995
 10
21.36760641880002
 20
-7.954642408299996
 10
21.33721387480002
 20
-8.315818320299996
 10
21.30644264440002
 20
-8.680891977899996
 10
21.27492928280003
 20
-9.053703235499995
 10
21.24248852760001
 20
-9.436093057899995
 10
21.20912450840001
 20
-9.827781736299996
 10
21.174711126
 20
-10.23010017149999
 10
21.13890341880002
 20
-10.64694193149999
 10
21.10129089240001
 20
-11.0829136403
  0
LWPOLYLINE
  5
50
330
2
100
AcDbEntity
  8
0
100
AcDbPolyline
 90
        3
 70
     0
 43
0.0
 10
-10.45014692039998
 20
8.831940890900007
 10
-10.45915466279998
 20
8.800788759700004
 10
-10.46404349959999
 20
8.768856438100002
  0
LINE
  5
51
330
2
100
AcDbEntity
  8
0
100
AcDbLine
 10
-10.61905682279999
 20
6.9970460541
 30
0.0
 11
-10.46404448519999
 21
8.768845180499997
 31
0.0
  0
LWPOLYLINE
  5
53
330
2
100
AcDbEntity
  8
0
100
AcDbPolyline
 90
        5
 70
     0
 43
0.0
 10
-10.37704143399997
 20
8.937437921300002
 10
-10.40031975879998
 20
8.914861033300006
 10
-10.42047988839999
 20
8.889460932500007
 10
-10.43718261959998
 20
8.861664990100003
 10
-10.45014692039998
 20
8.831940890900007
  0
LINE
  5
56
330
2
100
AcDbEntity
  8
0
100
AcDbLine
 10
-10.35103658279999
 20
8.956811727700003
 30
0.0
 11
-10.37704143399998
 21
8.937437921299999
 31
0.0
  0
LINE
  5
57
330
2
100
AcDbEntity
  8
0
100
AcDbLine
 10
-10.32274275239999
 20
8.972656473300002
 30
0.0
 11
-10.35103658279999
 21
8.956811727700003
 31
0.0
  0
LINE
  5
58
330
2
100
AcDbEntity
  8
0
100
AcDbLine
 10
-5.330594411599982
 20
1.863627396499996
 30
0.0
 11
-5.318554979599987
 21
1.727601750099996
 31
0.0
  0
LINE
  5
59
330
2
100
AcDbEntity
  8
0
100
AcDbLine
 10
-5.341760197199995
 20
2.003714497299998
 30
0.0
 11
-5.330583923599995
 21
1.863502438099995
 31
0.0
  0
LINE
  5
5A
330
2
100
AcDbEntity
  8
0
100
AcDbLine
 10
-5.352184702799981
 20
2.148454780499999
 30
0.0
 11
-5.341750592399996
 21
2.003587641299997
 31
0.0
  0
LINE
  5
5B
330
2
100
AcDbEntity
  8
0
100
AcDbLine
 10
-5.361985558799979
 20
2.298547490899995
 30
0.0
 11
-5.352175877199989
 21
2.148326017299996
 31
0.0
  0
LINE
  5
5C
330
2
100
AcDbEntity
  8
0
100
AcDbLine
 10
-5.565664109199992
 20
6.476638999700004
 30
0.0
 11
-5.553705296399989
 21
6.397639636499999
 31
0.0
  0
LINE
  5
5D
330
2
100
AcDbEntity
  8
0
100
AcDbLine
 10
-5.553710101199989
 20
6.3977182269
 30
0.0
 11
-5.542285208399995
 21
6.206793985299999
 31
0.0
  0
LINE
  5
5E
330
2
100
AcDbEntity
  8
0
100
AcDbLine
 10
-5.371279006800001
 20
2.4549793517
 30
0.0
 11
-5.361977393999985
 21
2.298416340500001
 31
0.0
  0
LINE
  5
5F
330
2
100
AcDbEntity
  8
0
100
AcDbLine
 10
-5.542290216399983
 20
6.206879462100001
 30
0.0
 11
-5.531260482
 21
6.014517617299997
 31
0.0
  0
LINE
  5
60
330
2
100
AcDbEntity
  8
0
100
AcDbLine
 10
-5.531265702799977
 20
6.014610647699999
 30
0.0
 11
-5.52053340199999
 21
5.819174522899995
 31
0.0
  0
LINE
  5
61
330
2
100
AcDbEntity
  8
0
100
AcDbLine
 10
-5.38015159719999
 20
2.618485351699998
 30
0.0
 11
-5.371271390799996
 21
2.454845114899999
 31
0.0
  0
LINE
  5
62
330
2
100
AcDbEntity
  8
0
100
AcDbLine
 10
-5.520538875599989
 20
5.819276401299998
 30
0.0
 11
-5.509920064399985
 21
5.617183801299997
 31
0.0
  0
LINE
  5
63
330
2
100
AcDbEntity
  8
0
100
AcDbLine
 10
-5.509925905999985
 20
5.6172974541
 30
0.0
 11
-5.499139833999983
 21
5.402484058899997
 31
0.0
  0
LINE
  5
64
330
2
100
AcDbEntity
  8
0
100
AcDbLine
 10
-5.388680123599989
 20
2.789576527699995
 30
0.0
 11
-5.380144432399994
 21
2.618347439699999
 31
0.0
  0
LINE
  5
65
330
2
100
AcDbEntity
  8
0
100
AcDbLine
 10
-5.499146179599996
 20
5.402613378899996
 30
0.0
 11
-5.487959502799988
 21
5.168993130899995
 31
0.0
  0
LINE
  5
66
330
2
100
AcDbEntity
  8
0
100
AcDbLine
 10
-5.396922177999989
 20
2.968022409300001
 30
0.0
 11
-5.388673337999996
 21
2.789434879699999
 31
0.0
  0
LINE
  5
67
330
2
100
AcDbEntity
  8
0
100
AcDbLine
 10
-5.487966464399995
 20
5.169142071699997
 30
0.0
 11
-5.476528133199998
 21
4.9182098285
 31
0.0
  0
LINE
  5
68
330
2
100
AcDbEntity
  8
0
100
AcDbLine
 10
-5.476535502799983
 20
4.918375542099997
 30
0.0
 11
-5.465455029199979
 21
4.663339810900001
 31
0.0
  0
LINE
  5
69
330
2
100
AcDbEntity
  8
0
100
AcDbLine
 10
-5.404958934799999
 20
3.153599663699996
 30
0.0
 11
-5.396915712399994
 21
2.967877545299995
 31
0.0
  0
LINE
  5
6A
330
2
100
AcDbEntity
  8
0
100
AcDbLine
 10
-5.465462421199994
 20
4.663513847699999
 30
0.0
 11
-5.455227321999991
 21
4.4177822573
 31
0.0
  0
LINE
  5
6B
330
2
100
AcDbEntity
  8
0
100
AcDbLine
 10
-5.412878653199989
 20
3.345848834899999
 30
0.0
 11
-5.404952725199997
 21
3.153452284500001
 31
0.0
  0
LINE
  5
6C
330
2
100
AcDbEntity
  8
0
100
AcDbLine
 10
-5.455234379599978
 20
4.417954924499998
 30
0.0
 11
-5.445858707600002
 21
4.185165417299995
 31
0.0
  0
LINE
  5
6D
330
2
100
AcDbEntity
  8
0
100
AcDbLine
 10
-5.420803611599986
 20
3.5449213437
 30
0.0
 11
-5.412872616400001
 21
3.345699377299997
 31
0.0
  0
LINE
  5
6E
330
2
100
AcDbEntity
  8
0
100
AcDbLine
 10
-5.445865352399984
 20
4.185332706899995
 30
0.0
 11
-5.437138259599983
 21
3.963589241299995
 31
0.0
  0
LINE
  5
6F
330
2
100
AcDbEntity
  8
0
100
AcDbLine
 10
-5.437144541199991
 20
3.963750038099998
 30
0.0
 11
-5.420797629200002
 21
3.5447693389
 31
0.0
  0
LINE
  5
70
330
2
100
AcDbEntity
  8
0
100
AcDbLine
 10
-5.318566435599997
 20
1.727724449300001
 30
0.0
 11
-5.305590198799997
 21
1.596145346899998
 31
0.0
  0
LWPOLYLINE
  5
71
330
2
100
AcDbEntity
  8
0
100
AcDbPolyline
 90
        4
 70
     0
 43
0.0
 10
-5.600907969341986
 20
6.9970460541
 10
-5.591050099599982
 20
6.857938844500004
 10
-5.578137941199969
 20
6.668031394900005
 10
-5.565659529999976
 20
6.476567215700008
  0
LINE
  5
72
330
2
100
AcDbEntity
  8
0
100
AcDbLine
 10
-10.292636002
 20
8.9847055629
 30
0.0
 11
-10.32274275239999
 21
8.972656473300002
 31
0.0
  0
LINE
  5
73
330
2
100
AcDbEntity
  8
0
100
AcDbLine
 10
0.1091234172000028
 20
-12.3120947699
 30
0.0
 11
0.114486902000003
 21
-12.31439706109999
 31
0.0
  0
LWPOLYLINE
  5
74
330
2
100
AcDbEntity
  8
0
100
AcDbPolyline
 90
        6
 70
     0
 43
0.0
 10
0.1147470444000191
 20
-12.3148346579
 10
0.1332935612000199
 20
-12.32301148349999
 10
0.1673563116000309
 20
-12.3378298115
 10
0.2094959964000225
 20
-12.35525474429999
 10
0.2611681676000046
 20
-12.37500558429999
 10
0.3194799500000158
 20
-12.39491400829999
  0
LWPOLYLINE
  5
75
330
2
100
AcDbEntity
  8
0
100
AcDbPolyline
 90
        9
 70
     0
 43
0.0
 10
0.1144869020000101
 20
-12.31439706109999
 10
0.1325039164000259
 20
-12.32236508989999
 10
0.1660652732000187
 20
-12.3370286627
 10
0.2078395532000172
 20
-12.3543948947
 10
0.2590533548000167
 20
-12.3740977347
 10
0.3172242220000214
 20
-12.39410870269999
 10
0.3742138924000073
 20
-12.41122881789999
 10
0.4261913340000092
 20
-12.4246596435
 10
0.4695752140000309
 20
-12.43419519389999
  0
LINE
  5
76
330
2
100
AcDbEntity
  8
0
100
AcDbLine
 10
1.344331526000011
 20
-12.9056189875
 30
0.0
 11
0.9779508716000222
 21
-12.5392383347
 31
0.0
  0
LWPOLYLINE
  5
77
330
2
100
AcDbEntity
  8
0
100
AcDbPolyline
 90
        4
 70
     0
 43
0.0
 10
-5.062066659599992
 20
0.4207563500999996
 10
-5.036758545999987
 20
0.3584246173000025
 10
-5.010582181199993
 20
0.2987742829000055
 10
-4.983831736399991
 20
0.2421445437000003
  0
LINE
  5
78
330
2
100
AcDbEntity
  8
0
100
AcDbLine
 10
-5.0863466228
 20
0.4856343692999979
 30
0.0
 11
-5.06204856839998
 21
0.4207099389
 31
0.0
  0
LWPOLYLINE
  5
79
330
2
100
AcDbEntity
  8
0
100
AcDbPolyline
 90
        4
 70
     0
 43
0.0
 10
-5.153461633999995
 20
0.6995610493000016
 10
-5.131972099599977
 20
0.6244730029000039
 10
-5.109614171599986
 20
0.5533388365000036
 10
-5.086364430799989
 20
0.4856840237000029
  0
LINE
  5
7A
330
2
100
AcDbEntity
  8
0
100
AcDbLine
 10
-5.173997600399992
 20
0.7786880845000006
 30
0.0
 11
-5.153444054799997
 21
0.6994966236999965
 31
0.0
  0
LINE
  5
7B
330
2
100
AcDbEntity
  8
0
100
AcDbLine
 10
-5.193457640399977
 20
0.8616186588999958
 30
0.0
 11
-5.173979945999981
 21
0.7786166124999987
 31
0.0
  0
LINE
  5
7C
330
2
100
AcDbEntity
  8
0
100
AcDbLine
 10
-5.211477877200003
 20
0.9466568333000004
 30
0.0
 11
-5.19344016839998
 21
0.8615403037
 31
0.0
  0
LINE
  5
7D
330
2
100
AcDbEntity
  8
0
100
AcDbLine
 10
-5.228479529999994
 20
1.035558646099996
 30
0.0
 11
-5.211460896399991
 21
0.9465724828999988
 31
0.0
  0
LINE
  5
7E
330
2
100
AcDbEntity
  8
0
100
AcDbLine
 10
-5.244902385999985
 20
1.1309130301
 30
0.0
 11
-5.2284631124
 21
1.035468228499997
 31
0.0
  0
LINE
  5
7F
330
2
100
AcDbEntity
  8
0
100
AcDbLine
 10
-5.261035117199988
 20
1.235300158099999
 30
0.0
 11
-5.244886517199979
 21
1.130815874899997
 31
0.0
  0
LINE
  5
80
330
2
100
AcDbEntity
  8
0
100
AcDbLine
 10
-5.276777249999987
 20
1.349192959700001
 30
0.0
 11
-5.261019749199995
 21
1.235195129299999
 31
0.0
  0
LINE
  5
81
330
2
100
AcDbEntity
  8
0
100
AcDbLine
 10
-5.291670339599995
 20
1.469864566099996
 30
0.0
 11
-5.276762715599979
 21
1.349081686099996
 31
0.0
  0
LINE
  5
82
330
2
100
AcDbEntity
  8
0
100
AcDbLine
 10
-5.305602685199978
 20
1.5962651645
 30
0.0
 11
-5.291656806799984
 21
1.469748494099999
 31
0.0
  0
LINE
  5
83
330
2
100
AcDbEntity
  8
0
100
AcDbLine
 10
-0.7501173011999996
 20
-11.1809746179
 30
0.0
 11
-0.7042352355999882
 21
-11.6398107491
 31
0.0
  0
LWPOLYLINE
  5
84
330
2
100
AcDbEntity
  8
0
100
AcDbPolyline
 90
       29
 70
     0
 43
0.0
 10
-1.984599272399975
 20
-9.004939934699997
 10
-1.976086805199969
 20
-9.155636670699998
 10
-1.952931181199971
 20
-9.327022696299998
 10
-1.91542503239998
 20
-9.4961891011
 10
-1.863871681999995
 20
-9.661370405100001
 10
-1.799094353999976
 20
-9.820381728299999
 10
-1.722154064399973
 20
-9.971575801899994
 10
-1.634692963599974
 20
-10.1131469619
 10
-1.538915889999969
 20
-10.24331017469999
 10
-1.437562461199973
 20
-10.36065160349999
 10
-1.33371922279997
 20
-10.46420560669999
 10
-1.229295907599976
 20
-10.55468124029999
 10
-1.125240712399971
 20
-10.63351016349999
 10
-1.022194032399994
 20
-10.70200055069999
 10
-0.9204302579999819
 20
-10.76143063549999
 10
-0.8208254675999739
 20
-10.81256171869999
 10
-0.7244851091999749
 20
-10.8560357395
 10
-0.6318926019999936
 20
-10.89278011549999
 10
-0.5430426723999915
 20
-10.92383599229999
 10
-0.458448797199992
 20
-10.94994914269999
 10
-0.3779151763999948
 20
-10.97199046589999
 10
-0.3002519683999765
 20
-10.99091601149999
 10
-0.2243309475999808
 20
-11.0074521107
 10
-0.1488971219999939
 20
-11.02218608029999
 10
-0.0733524739999894
 20
-11.03546081789999
 10
0.0000565980000147
 20
-11.04716698269999
 10
0.0693898140000044
 20
-11.05742954269999
 10
0.1356786540000314
 20
-11.0667699747
 10
0.2587265340000044
 20
-11.08360803549999
  0
LINE
  5
85
330
2
100
AcDbEntity
  8
0
100
AcDbLine
 10
-4.894644766799991
 20
9.2020668621
 30
0.0
 11
-4.935459157199979
 21
9.188011225299998
 31
0.0
  0
LWPOLYLINE
  5
86
330
2
100
AcDbEntity
  8
0
100
AcDbPolyline
 90
        3
 70
     0
 43
0.0
 10
-4.935459157199971
 20
9.188011225300002
 10
-4.950935873999981
 20
9.182682570900006
 10
-4.958506939599971
 20
9.180076615700002
  0
LINE
  5
87
330
2
100
AcDbEntity
  8
0
100
AcDbLine
 10
-4.877387376399987
 20
9.208008025299999
 30
0.0
 11
-4.894644766799991
 21
9.2020668621
 31
0.0
  0
LINE
  5
88
330
2
100
AcDbEntity
  8
0
100
AcDbLine
 10
-4.859546477199991
 20
9.214146865299998
 30
0.0
 11
-4.877387376399987
 21
9.208008025299999
 31
0.0
  0
LINE
  5
89
330
2
100
AcDbEntity
  8
0
100
AcDbLine
 10
-4.958506939599978
 20
9.180076615699999
 30
0.0
 11
-4.980592875600002
 21
9.172479050899998
 31
0.0
  0
LINE
  5
8A
330
2
100
AcDbEntity
  8
0
100
AcDbLine
 10
-4.980592875600002
 20
9.172479050899998
 30
0.0
 11
-5.054713072399984
 21
9.1470690029
 31
0.0
  0
LINE
  5
8B
330
2
100
AcDbEntity
  8
0
100
AcDbLine
 10
-4.692545072399987
 20
9.2712306781
 30
0.0
 11
-4.859546477199991
 21
9.214146865299998
 31
0.0
  0
LINE
  5
8C
330
2
100
AcDbEntity
  8
0
100
AcDbLine
 10
-5.054713072399984
 20
9.1470690029
 30
0.0
 11
-5.108882757199985
 21
9.128643881300003
 31
0.0
  0
LINE
  5
8D
330
2
100
AcDbEntity
  8
0
100
AcDbLine
 10
-5.108882757199985
 20
9.128643881300003
 30
0.0
 11
-5.15307629959998
 21
9.1137518845
 31
0.0
  0
LINE
  5
8E
330
2
100
AcDbEntity
  8
0
100
AcDbLine
 10
-4.592858670799991
 20
9.304762350100002
 30
0.0
 11
-4.692545072399987
 21
9.2712306781
 31
0.0
  0
LINE
  5
8F
330
2
100
AcDbEntity
  8
0
100
AcDbLine
 10
-5.15307629959998
 20
9.1137518845
 30
0.0
 11
-5.192858003599987
 21
9.1004828957
 31
0.0
  0
LINE
  5
90
330
2
100
AcDbEntity
  8
0
100
AcDbLine
 10
-4.510859304399993
 20
9.331924473300002
 30
0.0
 11
-4.592858670799991
 21
9.304762350100002
 31
0.0
  0
LINE
  5
91
330
2
100
AcDbEntity
  8
0
100
AcDbLine
 10
-5.192858003599987
 20
9.1004828957
 30
0.0
 11
-5.227918571599992
 21
9.0889151085
 31
0.0
  0
LINE
  5
92
330
2
100
AcDbEntity
  8
0
100
AcDbLine
 10
-5.227918571599992
 20
9.0889151085
 30
0.0
 11
-5.260531707600001
 21
9.078278807699998
 31
0.0
  0
LINE
  5
93
330
2
100
AcDbEntity
  8
0
100
AcDbLine
 10
-4.437415286799996
 20
9.355883777300004
 30
0.0
 11
-4.510859304399993
 21
9.331924473300002
 31
0.0
  0
LINE
  5
94
330
2
100
AcDbEntity
  8
0
100
AcDbLine
 10
-5.260531707600001
 20
9.078278807699998
 30
0.0
 11
-5.291852715599993
 21
9.068193466900002
 31
0.0
  0
LINE
  5
95
330
2
100
AcDbEntity
  8
0
100
AcDbLine
 10
-4.375099710799993
 20
9.375917505299998
 30
0.0
 11
-4.437415286799996
 21
9.355883777300004
 31
0.0
  0
LINE
  5
96
330
2
100
AcDbEntity
  8
0
100
AcDbLine
 10
-5.291852715599993
 20
9.068193466900002
 30
0.0
 11
-5.321995950799994
 21
9.058624250899999
 31
0.0
  0
LINE
  5
97
330
2
100
AcDbEntity
  8
0
100
AcDbLine
 10
-4.309470880399977
 20
9.396708634899997
 30
0.0
 11
-4.375099710799993
 21
9.375917505299998
 31
0.0
  0
LINE
  5
98
330
2
100
AcDbEntity
  8
0
100
AcDbLine
 10
-4.258013253199983
 20
9.412782514899998
 30
0.0
 11
-4.309470880399977
 21
9.396708634899997
 31
0.0
  0
LINE
  5
99
330
2
100
AcDbEntity
  8
0
100
AcDbLine
 10
-5.321995950799994
 20
9.058624250899999
 30
0.0
 11
-5.351056522
 21
9.049542892500003
 31
0.0
  0
LINE
  5
9A
330
2
100
AcDbEntity
  8
0
100
AcDbLine
 10
-4.204582993999999
 20
9.429255186900004
 30
0.0
 11
-4.258013253199983
 21
9.412782514899998
 31
0.0
  0
LINE
  5
9B
330
2
100
AcDbEntity
  8
0
100
AcDbLine
 10
-5.351056522
 20
9.049542892500003
 30
0.0
 11
-5.375664000399986
 21
9.041977182100001
 31
0.0
  0
LINE
  5
9C
330
2
100
AcDbEntity
  8
0
100
AcDbLine
 10
-4.149131958799991
 20
9.446111902100003
 30
0.0
 11
-4.204582993999999
 21
9.429255186900004
 31
0.0
  0
LINE
  5
9D
330
2
100
AcDbEntity
  8
0
100
AcDbLine
 10
-5.375664000399986
 20
9.041977182100001
 30
0.0
 11
-5.399561019599993
 21
9.034750750099998
 31
0.0
  0
LINE
  5
9E
330
2
100
AcDbEntity
  8
0
100
AcDbLine
 10
-4.091611565199976
 20
9.4633368205
 30
0.0
 11
-4.149131958799991
 21
9.446111902100003
 31
0.0
  0
LINE
  5
9F
330
2
100
AcDbEntity
  8
0
100
AcDbLine
 10
-5.399561019599993
 20
9.034750750099998
 30
0.0
 11
-5.4195159828
 21
9.028816262100004
 31
0.0
  0
LINE
  5
A0
330
2
100
AcDbEntity
  8
0
100
AcDbLine
 10
-4.031968577999982
 20
9.480914402900001
 30
0.0
 11
-4.091611565199976
 21
9.4633368205
 31
0.0
  0
LINE
  5
A1
330
2
100
AcDbEntity
  8
0
100
AcDbLine
 10
-5.4195159828
 20
9.028816262100004
 30
0.0
 11
-5.439014165199985
 21
9.023112970899997
 31
0.0
  0
LINE
  5
A2
330
2
100
AcDbEntity
  8
0
100
AcDbLine
 10
-3.990981144400002
 20
9.492826345299999
 30
0.0
 11
-4.031968577999982
 21
9.480914402900001
 31
0.0
  0
LINE
  5
A3
330
2
100
AcDbEntity
  8
0
100
AcDbLine
 10
-5.439014165199985
 20
9.023112970899997
 30
0.0
 11
-5.458083256399994
 21
9.017633482899999
 31
0.0
  0
LWPOLYLINE
  5
A4
330
2
100
AcDbEntity
  8
0
100
AcDbPolyline
 90
        3
 70
     0
 43
0.0
 10
-3.927567913999979
 20
9.510986874900005
 10
-3.948969736399988
 20
9.504894204500004
 10
-3.990981144399995
 20
9.492826345300002
  0
LWPOLYLINE
  5
A5
330
2
100
AcDbEntity
  8
0
100
AcDbPolyline
 90
        6
 70
     0
 43
0.0
 10
2.381266985200028
 20
-13.00295394589999
 10
2.28915643960002
 20
-12.99146549629999
 10
2.204075497200022
 20
-12.95845080829999
 10
2.130307546800025
 20
-12.90660132189999
 10
2.071546231600024
 20
-12.83937308989999
 10
2.041352775600017
 20
-12.78633111709999
  0
LWPOLYLINE
  5
A6
330
2
100
AcDbEntity
  8
0
100
AcDbPolyline
 90
        6
 70
     0
 43
0.0
 10
4.046433390000004
 20
-13.00295394589999
 10
3.962451423600015
 20
-12.99014796989999
 10
3.884235207600028
 20
-12.95262467229999
 10
3.817053943600029
 20
-12.89290538109999
 10
3.76560313080003
 20
-12.81520343069999
 10
3.733347246000022
 20
-12.7250110867
  0
LINE
  5
A7
330
2
100
AcDbEntity
  8
0
100
AcDbLine
 10
0.492910993200006
 20
-12.4386216451
 30
0.0
 11
0.4695752140000238
 21
-12.43419519389999
 31
0.0
  0
LINE
  5
A8
330
2
100
AcDbEntity
  8
0
100
AcDbLine
 10
0.4695752140000238
 20
-12.43419519389999
 30
0.0
 11
0.4676870203999997
 21
-12.4337616291
 31
0.0
  0
LINE
  5
A9
330
2
100
AcDbEntity
  8
0
100
AcDbLine
 10
0.3765887452000172
 20
-12.4119269315
 30
0.0
 11
0.4286512204000062
 21
-12.4252538531
 31
0.0
  0
LINE
  5
AA
330
2
100
AcDbEntity
  8
0
100
AcDbLine
 10
0.3194799500000087
 20
-12.3949140083
 30
0.0
 11
0.3765887452000172
 21
-12.4119269315
 31
0.0
  0
LWPOLYLINE
  5
AB
330
2
100
AcDbEntity
  8
0
100
AcDbPolyline
 90
        4
 70
     0
 43
0.0
 10
0.1084583644000077
 20
-12.3121085203
 10
0.1078345260000049
 20
-12.3118830947
 10
0.1082880812000155
 20
-12.3120691827
 10
0.1147470444000191
 20
-12.3148346579
  0
LWPOLYLINE
  5
AC
330
2
100
AcDbEntity
  8
0
100
AcDbPolyline
 90
        4
 70
     0
 43
0.0
 10
1.34328260600003
 20
-11.16908691549999
 10
1.297663348400021
 20
-11.1459178387
 10
1.271829866800004
 20
-11.12872547709999
 10
1.265719668400009
 20
-11.12152195389999
  0
LWPOLYLINE
  5
AD
330
2
100
AcDbEntity
  8
0
100
AcDbPolyline
 90
        5
 70
     0
 43
0.0
 10
0.6962714988000301
 20
-10.90283478589999
 10
0.7014775100000179
 20
-10.90640860029999
 10
0.7446142044000226
 20
-10.9135657267
 10
0.8294855548000157
 20
-10.9202515427
 10
0.9523525004000248
 20
-10.92617274269999
  0
LWPOLYLINE
  5
AE
330
2
100
AcDbEntity
  8
0
100
AcDbPolyline
 90
       10
 70
     0
 43
0.0
 10
-4.956653606799989
 20
0.1884739117000009
 10
-4.929052117199972
 20
0.1374281821000025
 10
-4.901004862799993
 20
0.0886794333000012
 10
-4.872507829199975
 20
0.0419812541000013
 10
-4.843622517199975
 20
-0.0027752258999953
 10
-4.814352849999977
 20
-0.0457697618999973
 10
-4.784641456399981
 20
-0.0872389570999985
 10
-4.754499697999989
 20
-0.1272926595000001
 10
-4.723956699599995
 20
-0.1660069122999985
 10
-4.693041758799978
 20
-0.2034514642999952
  0
LINE
  5
AF
330
2
100
AcDbEntity
  8
0
100
AcDbLine
 10
-4.983813048399987
 20
0.242106380500001
 30
0.0
 11
-4.956635069199997
 21
0.1884385164999962
 31
0.0
  0
LINE
  5
B0
330
2
100
AcDbEntity
  8
0
100
AcDbLine
 10
1.26639440760001
 20
-11.1229702115
 30
0.0
 11
2.041348391600017
 21
-12.7863217155
 31
0.0
  0
LINE
  5
B1
330
2
100
AcDbEntity
  8
0
100
AcDbLine
 10
1.34327591640001
 20
-11.16908425309999
 30
0.0
 11
2.06818084120001
 21
-12.7250110867
 31
0.0
  0
LINE
  5
B2
330
2
100
AcDbEntity
  8
0
100
AcDbLine
 10
1.309957119600021
 20
-11.0798200627
 30
0.0
 11
1.34327591640001
 21
-11.16908425309999
 31
0.0
  0
LWPOLYLINE
  5
B3
330
2
100
AcDbEntity
  8
0
100
AcDbPolyline
 90
       36
 70
     0
 43
0.0
 10
-2.203586857999994
 20
-1.577473672299994
 10
-2.188089553999986
 20
-1.652464913899997
 10
-2.170165851599989
 20
-1.747874489899999
 10
-2.152380473999983
 20
-1.852426259499999
 10
-2.13483743079999
 20
-1.966899085099996
 10
-2.117694253199971
 20
-2.0918082819
 10
-2.101129739599969
 20
-2.2274343443
 10
-2.085361792399993
 20
-2.373560806699998
 10
-2.070583446799986
 20
-2.5298288643
 10
-2.05699536199998
 20
-2.6952542131
 10
-2.044765950799984
 20
-2.868417720299994
 10
-2.033937185999974
 20
-3.048661750699999
 10
-2.024513750799968
 20
-3.235279032299999
 10
-2.016473565199987
 20
-3.427493888299999
 10
-2.009756131599971
 20
-3.624915213099995
 10
-2.004281760399976
 20
-3.827456334699995
 10
-1.999952697999987
 20
-4.035298990699999
 10
-1.996670763599979
 20
-4.248559843499997
 10
-1.99434237479997
 20
-4.467044390699996
 10
-1.992868672399993
 20
-4.690870299499998
 10
-1.992150067599993
 20
-4.9202785043
 10
-1.992076142799987
 20
-5.155624235499999
 10
-1.992531592399984
 20
-5.397237352299995
 10
-1.993398997199989
 20
-5.645279798699995
 10
-1.994557160399978
 20
-5.8998606627
 10
-1.995878341199983
 20
-6.161147278699999
 10
-1.997216168399972
 20
-6.429307365100001
 10
-1.998414046799979
 20
-6.704468269099997
 10
-1.999309557199978
 20
-6.986806237099997
 10
-1.999733630799994
 20
-7.276559629099999
 10
-1.999502765199991
 20
-7.573994633899999
 10
-1.998408189199977
 20
-7.879317376300001
 10
-1.996226993999982
 20
-8.192803881899997
 10
-1.992720413199975
 20
-8.514881025899995
 10
-1.987630125199984
 20
-8.845961030699996
 10
-1.984603899599989
 20
-9.005010251499996
  0
LWPOLYLINE
  5
B4
330
2
100
AcDbEntity
  8
0
100
AcDbPolyline
 90
        5
 70
     0
 43
0.0
 10
-0.7911994067999899
 20
-10.82593061149999
 10
-0.7871244115999901
 20
-10.85631910429999
 10
-0.7736004307999736
 20
-10.96600117469999
 10
-0.7606060531999788
 20
-11.08080546589999
 10
-0.7501477171999796
 20
-11.18105866589999
  0
LWPOLYLINE
  5
B5
330
2
100
AcDbEntity
  8
0
100
AcDbPolyline
 90
       30
 70
     0
 43
0.0
 10
-0.7042375939999772
 20
-11.63979978109999
 10
-0.7003862131999768
 20
-11.67129297949999
 10
-0.6909939091999889
 20
-11.72291027069999
 10
-0.6782105011999704
 20
-11.77262164829999
 10
-0.6623354787999745
 20
-11.82021610589999
 10
-0.6436602915999857
 20
-11.8655161059
 10
-0.6224707267999748
 20
-11.90838047229999
 10
-0.5990797187999704
 20
-11.94872101629999
 10
-0.5738075859999868
 20
-11.9864804483
 10
-0.5469539779999764
 20
-12.02162636509999
 10
-0.5187977411999896
 20
-12.05414901789999
 10
-0.4895976787999814
 20
-12.08405894109999
 10
-0.4596075091999694
 20
-12.11138296989999
 10
-0.4291237427999875
 20
-12.1361580067
 10
-0.3984402403999922
 20
-12.1584426131
 10
-0.3678259987999866
 20
-12.1783208931
 10
-0.3375031139999862
 20
-12.1959098611
 10
-0.3076646995999965
 20
-12.21134040829999
 10
-0.2784670547999894
 20
-12.22475752189999
 10
-0.2500781587999938
 20
-12.23630047389999
 10
-0.2228140771999847
 20
-12.24607297149999
 10
-0.1970447907999926
 20
-12.2541893155
 10
-0.1731757747999723
 20
-12.2607811747
 10
-0.1517316563999884
 20
-12.26597736029999
 10
-0.1329903171999831
 20
-12.2699817843
 10
-0.1168730771999833
 20
-12.27304649149999
 10
-0.1028897155999857
 20
-12.27544063229999
 10
-0.0904178147999915
 20
-12.27738657949999
 10
-0.0788386259999925
 20
-12.27905149469999
 10
-0.0675182115999746
 20
-12.2805663635
  0
LWPOLYLINE
  5
B6
330
2
100
AcDbEntity
  8
0
100
AcDbPolyline
 90
       31
 70
     0
 43
0.0
 10
-0.7043274243999918
 20
-11.63889858589999
 10
-0.7004828195999835
 20
-11.67035362109999
 10
-0.6910888451999711
 20
-11.72202477629999
 10
-0.6783017619999896
 20
-11.77179047389999
 10
-0.6624207763999835
 20
-11.81943937949999
 10
-0.6437371571999791
 20
-11.86479362429999
 10
-0.6225365283999907
 20
-11.90771170749999
 10
-0.5991316387999746
 20
-11.94810517629999
 10
-0.5738428627999781
 20
-11.98591645149999
 10
-0.5469699539999909
 20
-12.0211128691
 10
-0.5187918787999877
 20
-12.05368445629999
 10
-0.4895675699999913
 20
-12.0836415491
 10
-0.4595506611999838
 20
-12.11101085149999
 10
-0.4290376195999955
 20
-12.1358291043
 10
-0.3983225299999731
 20
-12.1581546803
 10
-0.3676746883999726
 20
-12.17807148189999
 10
-0.3373165587999836
 20
-12.19569634429999
 10
-0.3074417555999958
 20
-12.21115997789999
 10
-0.2782068563999758
 20
-12.22460736029999
 10
-0.2497793043999934
 20
-12.2361780099
 10
-0.2224735123999721
 20
-12.2459761043
 10
-0.196658709199994
 20
-12.25411596349999
 10
-0.1727399331999777
 20
-12.2607291267
 10
-0.1512454307999747
 20
-12.26594339069999
 10
-0.1324570179999966
 20
-12.2699622051
 10
-0.1162974371999894
 20
-12.27303805629999
 10
-0.1022751827999855
 20
-12.27544103709999
 10
-0.0897654499999874
 20
-12.27739440349999
 10
-0.0781474611999897
 20
-12.27906590429999
 10
-0.0667849267999827
 20
-12.28058699389999
 10
-0.0581142979999925
 20
-12.28168461149999
  0
LWPOLYLINE
  5
B7
330
2
100
AcDbEntity
  8
0
100
AcDbPolyline
 90
       14
 70
     0
 43
0.0
 10
0.292453638000012
 20
-11.76158578589999
 10
0.297941716400004
 20
-11.8240343187
 10
0.305993636400018
 20
-11.8846611859
 10
0.3165442428000063
 20
-11.9428091603
 10
0.3294780524000203
 20
-11.99787104829999
 10
0.3446432284000309
 20
-12.0492892627
 10
0.3618880252000167
 20
-12.09650831549999
 10
0.3810439132000169
 20
-12.13900066109999
 10
0.4018948764000072
 20
-12.1763564835
 10
0.4242180348000204
 20
-12.20819457469999
 10
0.4477883996000287
 20
-12.23413587869999
 10
0.472357276400004
 20
-12.2539104947
 10
0.4976599260000114
 20
-12.26735506589999
 10
0.5234314140000152
 20
-12.2743097731
  0
LWPOLYLINE
  5
B8
330
2
100
AcDbEntity
  8
0
100
AcDbPolyline
 90
        4
 70
     0
 43
0.0
 10
0.2731159436000041
 20
-11.3103230787
 10
0.279824108400021
 20
-11.44743353949999
 10
0.2862963676000163
 20
-11.59783616509999
 10
0.2924458716000231
 20
-11.76158860509999
  0
LWPOLYLINE
  5
B9
330
2
100
AcDbEntity
  8
0
100
AcDbPolyline
 90
        6
 70
     0
 43
0.0
 10
18.38061937080001
 20
-13.00295394589999
 10
18.46765103160001
 20
-12.98918299229999
 10
18.54903438200003
 20
-12.94835985789999
 10
18.61586858200001
 20
-12.88592446909999
 10
18.6641981772
 20
-12.80957423389999
 10
18.69370551320002
 20
-12.7250110867
  0
LWPOLYLINE
  5
BA
330
2
100
AcDbEntity
  8
0
100
AcDbPolyline
 90
        3
 70
     0
 43
0.0
 10
20.23723060280002
 20
-12.0544357203
 10
20.21076284600002
 20
-12.0578862515
 10
20.1674823852
 20
-12.0637905779
  0
LINE
  5
BB
330
2
100
AcDbEntity
  8
0
100
AcDbLine
 10
20.23869706200002
 20
-12.0575100323
 30
0.0
 11
20.31588692440001
 21
-12.0478411971
 31
0.0
  0
LINE
  5
BC
330
2
100
AcDbEntity
  8
0
100
AcDbLine
 10
20.27060142360002
 20
-12.05036378269999
 30
0.0
 11
20.23723060280001
 21
-12.0544357203
 31
0.0
  0
LWPOLYLINE
  5
BD
330
2
100
AcDbEntity
  8
0
100
AcDbPolyline
 90
        5
 70
     0
 43
0.0
 10
20.31588692440001
 20
-12.04784119709999
 10
20.36525909880001
 20
-12.0425896419
 10
20.431895918
 20
-12.03779073949999
 10
20.53004555960001
 20
-12.03301149789999
 10
20.64705467960001
 20
-12.0287310163
  0
LINE
  5
BE
330
2
100
AcDbEntity
  8
0
100
AcDbLine
 10
20.23251114840001
 20
-12.0582351587
 30
0.0
 11
20.17734018360001
 21
-12.0631784819
 31
0.0
  0
LWPOLYLINE
  5
BF
330
2
100
AcDbEntity
  8
0
100
AcDbPolyline
 90
        4
 70
     0
 43
0.0
 10
20.17734018360002
 20
-12.06317848189999
 10
20.18342659480001
 20
-12.06276722589999
 10
20.21099113080001
 20
-12.06048883229999
 10
20.23251114840002
 20
-12.0582351587
  0
LINE
  5
C0
330
2
100
AcDbEntity
  8
0
100
AcDbLine
 10
20.17734018360001
 20
-12.0631784819
 30
0.0
 11
20.16748103319999
 21
-12.0637742659
 31
0.0
  0
LINE
  5
C1
330
2
100
AcDbEntity
  8
0
100
AcDbLine
 10
19.02840402520001
 20
-12.1255218643
 30
0.0
 11
20.16748238519999
 21
-12.0637905779
 31
0.0
  0
LWPOLYLINE
  5
C2
330
2
100
AcDbEntity
  8
0
100
AcDbPolyline
 90
       67
 70
     0
 43
0.0
 10
20.81416483640001
 20
-12.02404790429999
 10
20.81832489880003
 20
-12.0238619987
 10
20.82335108920003
 20
-12.02360681949999
 10
20.82921894680001
 20
-12.02326501629999
 10
20.83615784760002
 20
-12.02279853789999
 10
20.8443189724
 20
-12.02216249469999
 10
20.85345714040002
 20
-12.02133737949999
 10
20.86318079800002
 20
-12.02032770909999
 10
20.8731668748
 20
-12.01914882909999
 10
20.8833325516
 20
-12.01780031229999
 10
20.89366396600002
 20
-12.01627558589999
 10
20.90416219000002
 20
-12.01456605309999
 10
20.9148250812
 20
-12.01266330109999
 10
20.9256437212
 20
-12.01056003549999
 10
20.93660307480001
 20
-12.00825046589999
 10
20.9476833436
 20
-12.00573049149999
 10
20.95886126040003
 20
-12.0029977955
 10
20.97013389400001
 20
-12.00004574429999
 10
20.9815051548
 20
-11.99686549629999
 10
20.99297090840002
 20
-11.9934499139
 10
21.00452656440001
 20
-11.98979178269999
 10
21.01616703640002
 20
-11.98588383389999
 10
21.02788673080002
 20
-11.98171876829999
 10
21.03967954200001
 20
-11.97728926269999
 10
21.05153884920003
 20
-11.97258798749999
 10
21.06345809400002
 20
-11.9676077059
 10
21.07543053560001
 20
-11.96234223709999
 10
21.08744883800003
 20
-11.9567858275
 10
21.09951098520002
 20
-11.95093000189999
 10
21.11162153400002
 20
-11.9447622227
 10
21.12378456280001
 20
-11.93826884189999
 10
21.13600315480002
 20
-11.93143531069999
 10
21.14827931960002
 20
-11.92424617469999
 10
21.16061390840002
 20
-11.9166850899
 10
21.17300651800002
 20
-11.90873481949999
 10
21.18545540120001
 20
-11.90037724989999
 10
21.19795735000002
 20
-11.89159339069999
 10
21.21050656920002
 20
-11.8823641635
 10
21.2230903708
 20
-11.87267388029999
 10
21.23569303160002
 20
-11.86250797789999
 10
21.24829751480001
 20
-11.85185180829999
 10
21.26088540440002
 20
-11.8406906723
 10
21.27343690520001
 20
-11.8290098067
 10
21.28593124440001
 20
-11.81679579869999
 10
21.29834313240002
 20
-11.80404214429999
 10
21.31064562360001
 20
-11.79074453789999
 10
21.3228111148
 20
-11.7768997011
 10
21.33481134040002
 20
-11.76250541789999
 10
21.3466173932
 20
-11.74756056029999
 10
21.35819971640001
 20
-11.73206512669999
 10
21.3695281228
 20
-11.71602025469999
 10
21.3805718028
 20
-11.69942826109999
 10
21.39129959480001
 20
-11.68229222269999
 10
21.40168467480001
 20
-11.66460764189999
 10
21.41170288440002
 20
-11.6463625139
 10
21.42132745560002
 20
-11.62754486109999
 10
21.4305293948
 20
-11.6081425235
 10
21.43928128760001
 20
-11.58814373789999
 10
21.4475542092
 20
-11.56754090909999
 10
21.45531644440001
 20
-11.54632788349999
 10
21.46253344120001
 20
-11.5244999907
 10
21.46916808120002
 20
-11.5020529859
 10
21.47517996760001
 20
-11.4789849251
 10
21.48052535000002
 20
-11.45529669949999
 10
21.48515727960003
 20
-11.43099158589999
 10
21.4890255132
 20
-11.40607555549999
 10
21.49220769400002
 20
-11.3792543155
  0
LWPOLYLINE
  5
C3
330
2
100
AcDbEntity
  8
0
100
AcDbPolyline
 90
        3
 70
     0
 43
0.0
 10
20.8055376444
 20
-12.02436805629999
 10
20.80801071480002
 20
-12.02428431389999
 10
20.81416483640001
 20
-12.02404790429999
  0
LINE
  5
C4
330
2
100
AcDbEntity
  8
0
100
AcDbLine
 10
12.59869896440002
 20
-13.1279539459
 30
0.0
 11
12.39003013880002
 21
-13.1279539459
 31
0.0
  0
LINE
  5
C5
330
2
100
AcDbEntity
  8
0
100
AcDbLine
 10
8.223698964400021
 20
-13.1279539459
 30
0.0
 11
8.015030138800021
 21
-13.1279539459
 31
0.0
  0
LINE
  5
C6
330
2
100
AcDbEntity
  8
0
100
AcDbLine
 10
16.76503013880002
 20
-13.1279539459
 30
0.0
 11
16.97369896440002
 21
-13.1279539459
 31
0.0
  0
LINE
  5
C7
330
2
100
AcDbEntity
  8
0
100
AcDbLine
 10
4.152389786800021
 20
-13.0154539459
 30
0.0
 11
1.609496567600011
 21
-13.0154539459
 31
0.0
  0
LINE
  5
C8
330
2
100
AcDbEntity
  8
0
100
AcDbLine
 10
18.38061937080001
 20
-13.00295394589999
 30
0.0
 11
2.381266985200021
 21
-13.00295394589999
 31
0.0
  0
LINE
  5
C9
330
2
100
AcDbEntity
  8
0
100
AcDbLine
 10
18.69370551320002
 20
-12.7250110867
 30
0.0
 11
17.02853910840001
 21
-12.7250110867
 31
0.0
  0
LINE
  5
CA
330
2
100
AcDbEntity
  8
0
100
AcDbLine
 10
16.715452966
 20
-12.7250110867
 30
0.0
 11
4.046433389999997
 21
-12.7250110867
 31
0.0
  0
LINE
  5
CB
330
2
100
AcDbEntity
  8
0
100
AcDbLine
 10
3.733347246000015
 20
-12.7250110867
 30
0.0
 11
2.06818084120001
 21
-12.7250110867
 31
0.0
  0
LINE
  5
CC
330
2
100
AcDbEntity
  8
0
100
AcDbLine
 10
-0.0580723283999944
 20
-12.2816898083
 30
0.0
 11
-0.0098003187999964
 21
-12.2859373987
 31
0.0
  0
LWPOLYLINE
  5
CD
330
2
100
AcDbEntity
  8
0
100
AcDbPolyline
 90
       18
 70
     0
 43
0.0
 10
0.9402929052000104
 20
-12.50786625629999
 10
0.9657827756000187
 20
-12.51077024669999
 10
0.9973335212000051
 20
-12.51417822909999
 10
1.034283679600008
 20
-12.51792215869999
 10
1.075990070000017
 20
-12.5218455603
 10
1.121941842800026
 20
-12.5258156819
 10
1.171809089200024
 20
-12.52972454589999
 10
1.225336116400029
 20
-12.5334762771
 10
1.282351914800017
 20
-12.53698649789999
 10
1.342866977200003
 20
-12.54018477629999
 10
1.406967948400023
 20
-12.54300389309999
 10
1.474822255600031
 20
-12.54537763229999
 10
1.546659628400021
 20
-12.54723814749999
 10
1.622801852400016
 20
-12.5485159475
 10
1.703656321200014
 20
-12.5491377795
 10
1.789671439600027
 20
-12.5490257939
 10
1.881455166000023
 20
-12.54809974589999
 10
1.929942174000018
 20
-12.54720080509999
  0
LWPOLYLINE
  5
CE
330
2
100
AcDbEntity
  8
0
100
AcDbPolyline
 90
       17
 70
     0
 43
0.0
 10
1.012670801200016
 20
-12.54361383229999
 10
1.038503129200023
 20
-12.5466731987
 10
1.070435889200012
 20
-12.55025482749999
 10
1.107784634800026
 20
-12.55417892829999
 10
1.149892212400004
 20
-12.5582793699
 10
1.196231143600016
 20
-12.5624143251
 10
1.246471615600029
 20
-12.5664691331
 10
1.300341063600029
 20
-12.57034089789999
 10
1.357706082800007
 20
-12.5739425955
 10
1.41858421880002
 20
-12.57719879549999
 10
1.483056700400027
 20
-12.5800364675
 10
1.551321569200013
 20
-12.58238485469999
 10
1.623634172400016
 20
-12.5841704515
 10
1.700353174000014
 20
-12.5853175843
 10
1.781888526000017
 20
-12.5857455123
 10
1.868715018800003
 20
-12.58537017629999
 10
1.947226490800005
 20
-12.58429964669999
  0
LINE
  5
CF
330
2
100
AcDbEntity
  8
0
100
AcDbLine
 10
-0.058114291599999
 20
-12.2816846131
 30
0.0
 11
-0.0580723283999944
 21
-12.2816898083
 31
0.0
  0
LINE
  5
D0
330
2
100
AcDbEntity
  8
0
100
AcDbLine
 10
-0.0591180308000006
 20
-12.2816302067
 30
0.0
 11
-0.0591590739999859
 21
-12.2816251187
 31
0.0
  0
LWPOLYLINE
  5
D1
330
2
100
AcDbEntity
  8
0
100
AcDbPolyline
 90
        3
 70
     0
 43
0.0
 10
0.9061087788000179
 20
-12.50372570589999
 10
0.9099751564000087
 20
-12.50421273789999
 10
0.9402929052000104
 20
-12.50786625629999
  0
LINE
  5
D2
330
2
100
AcDbEntity
  8
0
100
AcDbLine
 10
-0.0675182115999817
 20
-12.2805663635
 30
0.0
 11
-0.0591590739999859
 21
-12.2816251187
 31
0.0
  0
LWPOLYLINE
  5
D3
330
2
100
AcDbEntity
  8
0
100
AcDbPolyline
 90
        3
 70
     0
 43
0.0
 10
0.9779508716000293
 20
-12.53923833469999
 10
0.9818968428000118
 20
-12.53975505149999
 10
1.012670801200016
 20
-12.54361383229999
  0
LINE
  5
D4
330
2
100
AcDbEntity
  8
0
100
AcDbLine
 10
-0.0591590739999859
 20
-12.2816251187
 30
0.0
 11
-0.0667849267999898
 21
-12.2805869939
 31
0.0
  0
LWPOLYLINE
  5
D5
330
2
100
AcDbEntity
  8
0
100
AcDbPolyline
 90
        7
 70
     0
 43
0.0
 10
-0.0580723283999873
 20
-12.2816898083
 10
-0.0100488707999773
 20
-12.28828587869999
 10
0.0326019196000118
 20
-12.29535352509999
 10
0.0673156748000281
 20
-12.30211031549999
 10
0.093259543600027
 20
-12.30795770909999
 10
0.1078820092000114
 20
-12.31173926429999
 10
0.1101387740000064
 20
-12.31238554109999
  0
LWPOLYLINE
  5
D6
330
2
100
AcDbEntity
  8
0
100
AcDbPolyline
 90
        7
 70
     0
 43
0.0
 10
-0.0591180259999931
 20
-12.2816302083
 10
-0.0110720355999945
 20
-12.2882373555
 10
0.0315105644000084
 20
-12.29529907069999
 10
0.0662284316000239
 20
-12.3020584163
 10
0.0922391740000137
 20
-12.30792029949999
 10
0.1069505628000229
 20
-12.31172415389999
 10
0.1084456860000102
 20
-12.3121527491
  0
LINE
  5
D7
330
2
100
AcDbEntity
  8
0
100
AcDbLine
 10
0.2587265339999973
 20
-11.0836080355
 30
0.0
 11
0.3127313820000026
 21
-11.0910753715
 31
0.0
  0
LWPOLYLINE
  5
D8
330
2
100
AcDbEntity
  8
0
100
AcDbPolyline
 90
        5
 70
     0
 43
0.0
 10
0.9061207948000173
 20
-12.5037297187
 10
0.7871611820000055
 20
-12.4869468483
 10
0.6794746300000157
 20
-12.47031402749999
 10
0.5817640428000175
 20
-12.45416347549999
 10
0.492886639600016
 20
-12.43866173949999
  0
LWPOLYLINE
  5
D9
330
2
100
AcDbEntity
  8
0
100
AcDbPolyline
 90
        5
 70
     0
 43
0.0
 10
1.030189772400007
 20
-10.8913698355
 10
1.113390177200017
 20
-10.90546087869999
 10
1.191069790000028
 20
-10.94348509789999
 10
1.258074153200027
 20
-11.00291941469999
 10
1.309957119600028
 20
-11.0798200627
  0
LWPOLYLINE
  5
DA
330
2
100
AcDbEntity
  8
0
100
AcDbPolyline
 90
        5
 70
     0
 43
0.0
 10
3.733347246000022
 20
-12.7250110867
 10
3.792613822000021
 20
-12.73522154589999
 10
3.867815110000009
 20
-12.7386977779
 10
3.954229999600016
 20
-12.73522154589999
 10
4.046433390000004
 20
-12.7250110867
  0
LWPOLYLINE
  5
DB
330
2
100
AcDbEntity
  8
0
100
AcDbPolyline
 90
       18
 70
     0
 43
0.0
 10
-4.693041357199973
 20
-0.203451928299998
 10
-4.661778595599969
 20
-0.2396965586999968
 10
-4.63022678439998
 20
-0.2747665571000013
 10
-4.598430710799988
 20
-0.3087021539000005
 10
-4.566415608399978
 20
-0.3415616499000009
 10
-4.534169481999981
 20
-0.3734343474999946
 10
-4.501692304399995
 20
-0.4043872386999965
 10
-4.469006429199993
 20
-0.4344604610999952
 10
-4.436134137999971
 20
-0.4636914947000009
 10
-4.403096238799975
 20
-0.4921165778999992
 10
-4.369908361999989
 20
-0.5197734610999945
 10
-4.336594030799972
 20
-0.5466906770999956
 10
-4.30316584199997
 20
-0.5729035426999971
 10
-4.269569811599978
 20
-0.5984951362999951
 10
-4.235732806799973
 20
-0.6235562642999995
 10
-4.201667987599989
 20
-0.6481085475000015
 10
-4.16738004519999
 20
-0.6721782306999984
 10
-4.132870605199968
 20
-0.6957917267000014
  0
LWPOLYLINE
  5
DC
330
2
100
AcDbEntity
  8
0
100
AcDbPolyline
 90
        6
 70
     0
 43
0.0
 10
2.068180841200017
 20
-12.7250110867
 10
2.102441873200007
 20
-12.81917224349999
 10
2.155753583600017
 20
-12.89731099389999
 10
2.22415996920003
 20
-12.9559585411
 10
2.302728689200023
 20
-12.9917790435
 10
2.381266985200028
 20
-13.00295394589999
  0
LINE
  5
DD
330
2
100
AcDbEntity
  8
0
100
AcDbLine
 10
0.6962260172000115
 20
-10.9028347843
 30
0.0
 11
0.6962260172000115
 21
-10.84283478429999
 31
0.0
  0
LWPOLYLINE
  5
DE
330
2
100
AcDbEntity
  8
0
100
AcDbPolyline
 90
        6
 70
     0
 43
0.0
 10
17.6014759436
 20
-10.76108980829999
 10
17.51827344760002
 20
-10.77518152989999
 10
17.44059285880001
 20
-10.8132071363
 10
17.37358889240002
 20
-10.87264244989999
 10
17.32170727160001
 20
-10.9495426243
 10
17.28838979960002
 20
-11.03880422589999
  0
LWPOLYLINE
  5
DF
330
2
100
AcDbEntity
  8
0
100
AcDbPolyline
 90
       26
 70
     0
 43
0.0
 10
20.620215126
 20
-11.0678804243
 10
20.68670969400002
 20
-11.05857511709999
 10
20.7561437788
 20
-11.04839064989999
 10
20.82964956760002
 20
-11.0367995987
 10
20.90544594200002
 20
-11.0236437987
 10
20.98126456440002
 20
-11.00901353149999
 10
21.05739003800002
 20
-10.99262757149999
 10
21.1351586204
 20
-10.9738934115
 10
21.21571036920002
 20
-10.95209261309999
 10
21.30022302520001
 20
-10.92628672509999
 10
21.38895407480001
 20
-10.89559835069999
 10
21.48164926040001
 20
-10.8591816403
 10
21.57834582840001
 20
-10.8159451955
 10
21.67852349720001
 20
-10.76493064989999
 10
21.78088340120001
 20
-10.70556028189999
 10
21.88437743800002
 20
-10.6371764163
 10
21.98870491320002
 20
-10.55855276989999
 10
22.09323964120002
 20
-10.46842115709999
 10
22.19713232120003
 20
-10.36531324029999
 10
22.2985988316
 20
-10.24840360669999
 10
22.39457780440003
 20
-10.1185999331
 10
22.48235787160001
 20
-9.977209717099995
 10
22.55971942520003
 20
-9.8259228243
 10
22.62492347640002
 20
-9.6666031715
 10
22.67683511160001
 20
-9.500978837099999
 10
22.714586878
 20
-9.331342835499995
  0
LWPOLYLINE
  5
E0
330
2
100
AcDbEntity
  8
0
100
AcDbPolyline
 90
        3
 70
     0
 43
0.0
 10
20.4429189292
 20
-11.09215363549999
 10
20.49681819640003
 20
-11.0847041715
 10
20.620215126
 20
-11.0678804243
  0
LWPOLYLINE
  5
E1
330
2
100
AcDbEntity
  8
0
100
AcDbPolyline
 90
        4
 70
     0
 43
0.0
 10
19.77956072120002
 20
-10.91426328669999
 10
19.8256787148
 20
-10.90892385949999
 10
19.83483091480002
 20
-10.90318223549999
 10
19.80407893240001
 20
-10.89722716189999
  0
LWPOLYLINE
  5
E2
330
2
100
AcDbEntity
  8
0
100
AcDbPolyline
 90
        3
 70
     0
 43
0.0
 10
20.4429189292
 20
-11.09215363549999
 10
20.33419483320002
 20
-11.1038210803
 10
20.21719299320003
 20
-11.10846272349999
  0
LINE
  5
E3
330
2
100
AcDbEntity
  8
0
100
AcDbLine
 10
19.75356396280002
 20
-10.91580669789999
 30
0.0
 11
19.77956072120002
 21
-10.9142632867
 31
0.0
  0
LWPOLYLINE
  5
E4
330
2
100
AcDbEntity
  8
0
100
AcDbPolyline
 90
        9
 70
     0
 43
0.0
 10
20.68760091160001
 20
-12.02745716669999
 10
20.6076022972
 20
-12.02998847709999
 10
20.5328752844
 20
-12.0327885875
 10
20.46986272120002
 20
-12.03555851069999
 10
20.42097948440002
 20
-12.03808099229999
 10
20.38003570520001
 20
-12.04059515069999
 10
20.34194887800001
 20
-12.04339954909999
 10
20.30648339480001
 20
-12.04654403229999
 10
20.27060142360002
 20
-12.05036378269999
  0
LWPOLYLINE
  5
E5
330
2
100
AcDbEntity
  8
0
100
AcDbPolyline
 90
        6
 70
     0
 43
0.0
 10
19.70639320920003
 20
-10.92942187229999
 10
19.80953385560002
 20
-10.92617274269999
 10
19.9324007996
 20
-10.9202515427
 10
20.01727215160002
 20
-10.9135657267
 10
20.06040884440003
 20
-10.90640860029999
 10
20.06561485560002
 20
-10.90283478589999
  0
LWPOLYLINE
  5
E6
330
2
100
AcDbEntity
  8
0
100
AcDbPolyline
 90
       47
 70
     0
 43
0.0
 10
0.5388289692000115
 20
-11.1073905107
 10
0.5271815612000239
 20
-11.10774893789999
 10
0.5156518268000241
 20
-11.10836035389999
 10
0.5042289772000288
 20
-11.10921541629999
 10
0.4929182476000165
 20
-11.11030621789999
 10
0.4817261292000126
 20
-11.11162632029999
 10
0.4706600972000104
 20
-11.11317081629999
 10
0.4597288444000185
 20
-11.11493638269999
 10
0.4489423516000102
 20
-11.1169214019
 10
0.4383124028000225
 20
-11.11912606749999
 10
0.4278533308000192
 20
-11.12155247389999
 10
0.4175815596000234
 20
-11.12420470749999
 10
0.407480591600006
 20
-11.1270730883
 10
0.3975448188000143
 20
-11.13014781469999
 10
0.3877890348000221
 20
-11.13342678109999
 10
0.3782300876000306
 20
-11.13690867709999
 10
0.368886950000018
 20
-11.1405932499
 10
0.3597775820000209
 20
-11.14447980029999
 10
0.3509126348000109
 20
-11.1485624787
 10
0.3423227420000217
 20
-11.15283623869999
 10
0.3340478220000307
 20
-11.15729218909999
 10
0.3261159116000272
 20
-11.16192775069999
 10
0.3185519100000249
 20
-11.16674386909999
 10
0.3113589532000276
 20
-11.17172686909999
 10
0.3045462556000302
 20
-11.17686600189999
 10
0.2981381948000035
 20
-11.18216025949999
 10
0.2921579596000185
 20
-11.18761092509999
 10
0.2866301164000049
 20
-11.19321997309999
 10
0.2815721580000172
 20
-11.19898418429999
 10
0.2769690108000304
 20
-11.20487944349999
 10
0.272839849200011
 20
-11.21091199549999
 10
0.2692315292000273
 20
-11.21705411549999
 10
0.2662248220000265
 20
-11.22317066269999
 10
0.2638081340000156
 20
-11.2292243459
 10
0.2619127852000247
 20
-11.23522455709999
 10
0.2604780780000055
 20
-11.24117696509999
 10
0.2594962252000243
 20
-11.24711085149999
 10
0.2589605788000142
 20
-11.25305116349999
 10
0.2588608700000066
 20
-11.2590167603
 10
0.2591793868000138
 20
-11.26502548189999
 10
0.2598924140000065
 20
-11.2710984211
 10
0.2609994588000291
 20
-11.27726146269999
 10
0.2625278236000099
 20
-11.28354127229999
 10
0.2645008060000293
 20
-11.2899644931
 10
0.2669364140000141
 20
-11.2965594403
 10
0.2698523852000108
 20
-11.3033616963
 10
0.2731159292000314
 20
-11.31032304989999
  0
LINE
  5
E7
330
2
100
AcDbEntity
  8
0
100
AcDbLine
 10
20.793929326
 20
-12.0247059107
 30
0.0
 11
20.7876696492
 21
-12.0248425475
 31
0.0
  0
LINE
  5
E8
330
2
100
AcDbEntity
  8
0
100
AcDbLine
 10
20.79638682040001
 20
-12.0246396275
 30
0.0
 11
20.80553764439999
 21
-12.0243680563
 31
0.0
  0
LINE
  5
E9
330
2
100
AcDbEntity
  8
0
100
AcDbLine
 10
20.769067118
 20
-12.0253083027
 30
0.0
 11
20.68760091160001
 21
-12.02745716669999
 31
0.0
  0
LINE
  5
EA
330
2
100
AcDbEntity
  8
0
100
AcDbLine
 10
20.6470546796
 20
-12.0287310163
 30
0.0
 11
20.79638682040001
 21
-12.0246396275
 31
0.0
  0
LINE
  5
EB
330
2
100
AcDbEntity
  8
0
100
AcDbLine
 10
20.76906615
 20
-12.0253082979
 30
0.0
 11
20.7732372572
 21
-12.0252212691
 31
0.0
  0
LINE
  5
EC
330
2
100
AcDbEntity
  8
0
100
AcDbLine
 10
20.24127200600002
 20
-12.0306115251
 30
0.0
 11
20.27234299640002
 21
-12.0302399459
 31
0.0
  0
LWPOLYLINE
  5
ED
330
2
100
AcDbEntity
  8
0
100
AcDbPolyline
 90
        3
 70
     0
 43
0.0
 10
20.27234299640003
 20
-12.0302399459
 10
20.33174085400003
 20
-12.02953695389999
 10
20.36011234840001
 20
-12.02920442749999
  0
LWPOLYLINE
  5
EE
330
2
100
AcDbEntity
  8
0
100
AcDbPolyline
 90
        3
 70
     0
 43
0.0
 10
20.36011234840001
 20
-12.02920442749999
 10
20.41410891480001
 20
-12.02857692669999
 10
20.43971864920001
 20
-12.02828160669999
  0
LWPOLYLINE
  5
EF
330
2
100
AcDbEntity
  8
0
100
AcDbPolyline
 90
        4
 70
     0
 43
0.0
 10
20.43971864920001
 20
-12.02828160669999
 10
20.4881661212
 20
-12.02772658429999
 10
20.51101026680001
 20
-12.02746640029999
 10
20.53294172440002
 20
-12.0272174579
  0
LWPOLYLINE
  5
F0
330
2
100
AcDbEntity
  8
0
100
AcDbPolyline
 90
        6
 70
     0
 43
0.0
 10
20.53294172440002
 20
-12.0272174579
 10
20.574077278
 20
-12.0267525843
 10
20.59328307320001
 20
-12.02653639549999
 10
20.61158929720002
 20
-12.02633082909999
 10
20.62900206200001
 20
-12.02613577149999
 10
20.64552853560002
 20
-12.02595111229999
  0
LWPOLYLINE
  5
F1
330
2
100
AcDbEntity
  8
0
100
AcDbPolyline
 90
        3
 70
     0
 43
0.0
 10
20.64552853560002
 20
-12.02595111229999
 10
20.67595739320001
 20
-12.0256126051
 10
20.68987502200002
 20
-12.02545865629999
  0
LINE
  5
F2
330
2
100
AcDbEntity
  8
0
100
AcDbLine
 10
20.68987502200001
 20
-12.0254586563
 30
0.0
 11
20.7151444588
 21
-12.0251814611
 31
0.0
  0
LINE
  5
F3
330
2
100
AcDbEntity
  8
0
100
AcDbLine
 10
20.7151444588
 20
-12.0251814611
 30
0.0
 11
20.7877163932
 21
-12.0244582003
 31
0.0
  0
LWPOLYLINE
  5
F4
330
2
100
AcDbEntity
  8
0
100
AcDbPolyline
 90
        7
 70
     0
 43
0.0
 10
20.78771639320001
 20
-12.02445820029999
 10
20.7945654156
 20
-12.02442861149999
 10
20.79660336600003
 20
-12.02443568829999
 10
20.79768248120001
 20
-12.0244584835
 10
20.79777503800002
 20
-12.0244979267
 10
20.79684958360002
 20
-12.02455505469999
 10
20.7948701132
 20
-12.0246310387
  0
LINE
  5
F5
330
2
100
AcDbEntity
  8
0
100
AcDbLine
 10
0.5388292828000019
 20
-11.1073905139
 30
0.0
 11
1.3437092972
 21
-11.1059959747
 31
0.0
  0
LINE
  5
F6
330
2
100
AcDbEntity
  8
0
100
AcDbLine
 10
1.3437092972
 20
-11.1059959747
 30
0.0
 11
1.928666274800001
 21
-11.1050905843
 31
0.0
  0
LINE
  5
F7
330
2
100
AcDbEntity
  8
0
100
AcDbLine
 10
1.928666274800001
 20
-11.1050905843
 30
0.0
 11
2.879038263600016
 21
-11.1038056195
 31
0.0
  0
LINE
  5
F8
330
2
100
AcDbEntity
  8
0
100
AcDbLine
 10
2.879038263600016
 20
-11.1038056195
 30
0.0
 11
3.561239249200006
 21
-11.10302132669999
 31
0.0
  0
LINE
  5
F9
330
2
100
AcDbEntity
  8
0
100
AcDbLine
 10
3.561239249200006
 20
-11.10302132669999
 30
0.0
 11
4.281870585200003
 21
-11.1023132355
 31
0.0
  0
LINE
  5
FA
330
2
100
AcDbEntity
  8
0
100
AcDbLine
 10
4.281870585200003
 20
-11.1023132355
 30
0.0
 11
5.043213343600022
 21
-11.1016922707
 31
0.0
  0
LINE
  5
FB
330
2
100
AcDbEntity
  8
0
100
AcDbLine
 10
5.043213343600022
 20
-11.1016922707
 30
0.0
 11
5.847602436400016
 21
-11.1011662531
 31
0.0
  0
LINE
  5
FC
330
2
100
AcDbEntity
  8
0
100
AcDbLine
 10
5.847602436400016
 20
-11.1011662531
 30
0.0
 11
6.692587114799998
 21
-11.1007425907
 31
0.0
  0
LINE
  5
FD
330
2
100
AcDbEntity
  8
0
100
AcDbLine
 10
6.692587114799998
 20
-11.1007425907
 30
0.0
 11
8.029847710000005
 21
-11.1003021347
 31
0.0
  0
LWPOLYLINE
  5
FE
330
2
100
AcDbEntity
  8
0
100
AcDbPolyline
 90
        3
 70
     0
 43
0.0
 10
8.029847710000012
 20
-11.1003021347
 10
9.433626202800013
 20
-11.10009240509999
 10
10.82105434040002
 20
-11.10008042909999
  0
LINE
  5
FF
330
2
100
AcDbEntity
  8
0
100
AcDbLine
 10
3.784626404400022
 20
-11.0261095667
 30
0.0
 11
16.97725995000001
 21
-11.0261095667
 31
0.0
  0
LINE
  5
100
330
2
100
AcDbEntity
  8
0
100
AcDbLine
 10
3.784626404400022
 20
-10.7483951491
 30
0.0
 11
16.97725995000001
 21
-10.7483951491
 31
0.0
  0
LINE
  5
101
330
2
100
AcDbEntity
  8
0
100
AcDbLine
 10
11.69786461560001
 20
-11.10024125309999
 30
0.0
 11
10.82105434040001
 21
-11.1000804291
 31
0.0
  0
LINE
  5
102
330
2
100
AcDbEntity
  8
0
100
AcDbLine
 10
12.5651950604
 20
-11.1005555475
 30
0.0
 11
11.69786461560001
 21
-11.10024125309999
 31
0.0
  0
LINE
  5
103
330
2
100
AcDbEntity
  8
0
100
AcDbLine
 10
13.84251827480002
 20
-11.1012814419
 30
0.0
 11
12.5651950604
 21
-11.1005555475
 31
0.0
  0
LINE
  5
104
330
2
100
AcDbEntity
  8
0
100
AcDbLine
 10
15.077587678
 20
-11.1022481363
 30
0.0
 11
13.84251827480002
 21
-11.1012814419
 31
0.0
  0
LWPOLYLINE
  5
105
330
2
100
AcDbEntity
  8
0
100
AcDbPolyline
 90
        3
 70
     0
 43
0.0
 10
16.25248493400002
 20
-11.10338691709999
 10
15.86852310520001
 20
-11.10299251069999
 10
15.07758767800001
 20
-11.10224813629999
  0
LWPOLYLINE
  5
106
330
2
100
AcDbEntity
  8
0
100
AcDbPolyline
 90
        4
 70
     0
 43
0.0
 10
17.71032460920002
 20
-11.10506435229999
 10
17.35737914680001
 20
-11.10463392189999
 10
16.99660026040001
 20
-11.10420931549999
 10
16.25248493400002
 20
-11.10338691709999
  0
LINE
  5
107
330
2
100
AcDbEntity
  8
0
100
AcDbLine
 10
18.39126759
 20
-11.10593313309999
 30
0.0
 11
17.71032460920002
 21
-11.1050643523
 31
0.0
  0
LINE
  5
108
330
2
100
AcDbEntity
  8
0
100
AcDbLine
 10
19.50347353080001
 20
-11.1074446627
 30
0.0
 11
18.39126759
 21
-11.10593313309999
 31
0.0
  0
LINE
  5
109
330
2
100
AcDbEntity
  8
0
100
AcDbLine
 10
20.21719270679999
 20
-11.1084627251
 30
0.0
 11
19.50347353080001
 21
-11.1074446627
 31
0.0
  0
LWPOLYLINE
  5
10A
330
2
100
AcDbEntity
  8
0
100
AcDbPolyline
 90
        6
 70
     0
 43
0.0
 10
16.97725995000001
 20
-10.74839514909999
 10
17.12752471160001
 20
-10.74894309469999
 10
17.27089371800002
 20
-10.7505721459
 10
17.4003748844
 20
-10.7531996803
 10
17.51245468120001
 20
-10.75675931549999
 10
17.6014759436
 20
-10.76108980829999
  0
LWPOLYLINE
  5
10B
330
2
100
AcDbEntity
  8
0
100
AcDbPolyline
 90
       47
 70
     0
 43
0.0
 10
20.21719299480003
 20
-11.10846272349999
 10
20.2286145564
 20
-11.10874705949999
 10
20.23991993720002
 20
-11.1092332547
 10
20.25112039160001
 20
-11.10991413469999
 10
20.26221191960002
 20
-11.11078364669999
 10
20.27318927000001
 20
-11.11183690749999
 10
20.28404644760001
 20
-11.11307024509999
 10
20.29477655960002
 20
-11.11448126749999
 10
20.305371742
 20
-11.11606895549999
 10
20.3158225532
 20
-11.1178337379
 10
20.32611747320001
 20
-11.11977758429999
 10
20.33624308760002
 20
-11.12190422909999
 10
20.34620950680002
 20
-11.1242066899
 10
20.35602163640001
 20
-11.12667632189999
 10
20.36566652600001
 20
-11.1293117091
 10
20.37512956760002
 20
-11.13211208829999
 10
20.38439446040001
 20
-11.13507755069999
 10
20.393445302
 20
-11.1382079587
 10
20.4022723932
 20
-11.14149816189999
 10
20.4108479884
 20
-11.14494424989999
 10
20.41913492760002
 20
-11.14853948829999
 10
20.42710789880001
 20
-11.1522821955
 10
20.4347448972
 20
-11.15617370589999
 10
20.4420399004
 20
-11.16020315869999
 10
20.4489852412
 20
-11.16435986909999
 10
20.45555883160003
 20
-11.16864328189999
 10
20.46173951160003
 20
-11.17305456669999
 10
20.46750525240003
 20
-11.17759613789999
 10
20.47283816600003
 20
-11.18226650109999
 10
20.47775084920002
 20
-11.1870417811
 10
20.48222512600003
 20
-11.19192184189999
 10
20.4862383372
 20
-11.19691495229999
 10
20.48974231480002
 20
-11.20199320349999
 10
20.49266367800001
 20
-11.20704727549999
 10
20.49504376600001
 20
-11.21202812029999
 10
20.49695713880001
 20
-11.21693559229999
 10
20.4984200732
 20
-11.22179834909999
 10
20.49944456760002
 20
-11.22664079869999
 10
20.50004358360002
 20
-11.2314800531
 10
20.50023773560002
 20
-11.2363293171
 10
20.50005831960001
 20
-11.24120188509999
 10
20.49951970040001
 20
-11.24611720189999
 10
20.49859845240001
 20
-11.25109827069999
 10
20.49727592440001
 20
-11.2561654195
 10
20.495541798
 20
-11.26133950269999
 10
20.49338888760002
 20
-11.26664827389999
 10
20.49092677400003
 20
-11.2720444547
  0
LINE
  5
10C
330
2
100
AcDbEntity
  8
0
100
AcDbLine
 10
0.9523525004000177
 20
-10.9261727427
 30
0.0
 11
1.05612725720001
 21
-10.9294418483
 31
0.0
  0
LWPOLYLINE
  5
10D
330
2
100
AcDbEntity
  8
0
100
AcDbPolyline
 90
        3
 70
     0
 43
0.0
 10
0.5388289692000115
 20
-11.1073905107
 10
0.4215990332000104
 20
-11.10275757629999
 10
0.3127280396000174
 20
-11.0910994659
  0
LINE
  5
10E
330
2
100
AcDbEntity
  8
0
100
AcDbLine
 10
0.9817246763999989
 20
-10.9142151667
 30
0.0
 11
1.007919647599997
 21
-10.91577834909999
 31
0.0
  0
LINE
  5
10F
330
2
100
AcDbEntity
  8
0
100
AcDbLine
 10
17.28838979960001
 20
-11.03880422589999
 30
0.0
 11
19.41861043960002
 21
-11.16908425309999
 31
0.0
  0
LWPOLYLINE
  5
110
330
2
100
AcDbEntity
  8
0
100
AcDbPolyline
 90
        6
 70
     0
 43
0.0
 10
3.784674428400023
 20
-11.02611337469999
 10
3.708075055600005
 20
-11.01797809469999
 10
3.635876686000017
 20
-11.0151649811
 10
3.571422884400021
 20
-11.01777334429999
 10
3.51634956440003
 20
-11.02575783869999
 10
3.473466714800025
 20
-11.0388131555
  0
LWPOLYLINE
  5
111
330
2
100
AcDbEntity
  8
0
100
AcDbPolyline
 90
       11
 70
     0
 43
0.0
 10
1.001193770800028
 20
-10.91426482109999
 10
0.997708711600012
 20
-10.9138884675
 10
1.000725289200005
 20
-10.91434924829999
 10
1.018221529200019
 20
-10.91782473309999
 10
1.04978344600002
 20
-10.9268466627
 10
1.090332553200028
 20
-10.94343487549999
 10
1.134543278000023
 20
-10.9686581347
 10
1.178478052400009
 20
-11.00295094269999
 10
1.218739610800014
 20
-11.04582632349999
 10
1.252981879600014
 20
-11.09665132029999
 10
1.265716282800013
 20
-11.12151212189999
  0
LWPOLYLINE
  5
112
330
2
100
AcDbEntity
  8
0
100
AcDbPolyline
 90
        5
 70
     0
 43
0.0
 10
16.71545296600001
 20
-12.7250110867
 10
16.80721963800002
 20
-12.7351880083
 10
16.89356998200003
 20
-12.73869764669999
 10
16.96919238040001
 20
-12.73522969789999
 10
17.02853910840002
 20
-12.7250110867
  0
LWPOLYLINE
  5
113
330
2
100
AcDbEntity
  8
0
100
AcDbPolyline
 90
        6
 70
     0
 43
0.0
 10
3.473496554800021
 20
-11.03880422589999
 10
3.440179090800029
 20
-10.94954249629999
 10
3.388297457200025
 20
-10.8726422947
 10
3.32129349080003
 20
-10.8132070291
 10
3.243612913200024
 20
-10.7751814915
 10
3.160410410800011
 20
-10.76108980829999
  0
LINE
  5
114
330
2
100
AcDbEntity
  8
CENTER
  6
CENTER
 48
2.0
100
AcDbLine
 10
2.880943177200002
 20
-15.11816948879276
 30
0.0
 11
2.880943177200002
 21
-10.88773840300722
 31
0.0
  0
LWPOLYLINE
  5
117
330
2
100
AcDbEntity
  8
0
100
AcDbPolyline
 90
        3
 70
     0
 43
0.0
 10
2.041348270000014
 20
-12.7863214515
 10
2.042210574000023
 20
-12.76270109469999
 10
2.068180841200017
 20
-12.7250110867
  0
LINE
  5
118
330
2
100
AcDbEntity
  8
0
100
AcDbLine
 10
1.030189772399999
 20
-10.8913698355
 30
0.0
 11
0.958176687600023
 21
-10.8971844915
 31
0.0
  0
LINE
  5
119
330
2
100
AcDbEntity
  8
0
100
AcDbLine
 10
1.34327591640001
 20
-11.16908425309999
 30
0.0
 11
3.473496554800014
 21
-11.03880422589999
 31
0.0
  0
LINE
  5
11A
330
2
100
AcDbEntity
  8
0
100
AcDbLine
 10
1.030189772399999
 20
-10.8913698355
 30
0.0
 11
3.160410412400004
 21
-10.7610898083
 31
0.0
  0
LWPOLYLINE
  5
11B
330
2
100
AcDbEntity
  8
0
100
AcDbPolyline
 90
        6
 70
     0
 43
0.0
 10
3.160410412400011
 20
-10.76108980829999
 10
3.249368532400012
 20
-10.7567617427
 10
3.361465868400017
 20
-10.75320077309999
 10
3.490940418800022
 20
-10.75057302429999
 10
3.634264599600015
 20
-10.74894385309999
 10
3.784626404400029
 20
-10.74839514909999
  0
LINE
  5
11C
330
2
100
AcDbEntity
  8
0
100
AcDbLine
 10
17.6014759436
 20
-10.7610898083
 30
0.0
 11
19.7316965836
 21
-10.8913698355
 31
0.0
  0
LINE
  5
11D
330
2
100
AcDbEntity
  8
0
100
AcDbLine
 10
19.80407893240001
 20
-10.8972271619
 30
0.0
 11
19.7316965836
 21
-10.8913698355
 31
0.0
  0
LWPOLYLINE
  5
11E
330
2
100
AcDbEntity
  8
0
100
AcDbPolyline
 90
        6
 70
     0
 43
0.0
 10
17.288413606
 20
-11.0388113475
 10
17.24550695640002
 20
-11.02575170109999
 10
17.19042847960003
 20
-11.01777117469999
 10
17.1259691996
 20
-11.01516451229999
 10
17.05376340120003
 20
-11.01798134589999
 10
16.97719815480002
 20
-11.0261144691
  0
LWPOLYLINE
  5
11F
330
2
100
AcDbEntity
  8
0
100
AcDbPolyline
 90
       10
 70
     0
 43
0.0
 10
-4.098138654799981
 20
-0.718975286700001
 10
-4.063176173199991
 20
-0.7417577538999965
 10
-4.027957013199994
 20
-0.764176413099996
 10
-3.992483760399977
 20
-0.7862473090999984
 10
-3.956765248399989
 20
-0.8079817922999978
 10
-3.920809363599971
 20
-0.8293912642999998
 10
-3.884623072399989
 20
-0.8504871426999969
 10
-3.848212453199977
 20
-0.8712808163000005
 10
-3.811582717199996
 20
-0.8917836242999968
 10
-3.774738235599983
 20
-0.9120068402999947
  0
LINE
  5
120
330
2
100
AcDbEntity
  8
0
100
AcDbLine
 10
-4.132832661199991
 20
-0.6958172307000048
 30
0.0
 11
-4.098100161999987
 21
-0.7190005474999986
 31
0.0
  0
LINE
  5
121
330
2
100
AcDbEntity
  8
0
100
AcDbLine
 10
-10.21495978439998
 20
8.997056228500003
 30
0.0
 11
-10.21498244519998
 21
8.997080050899999
 31
0.0
  0
LINE
  5
122
330
2
100
AcDbEntity
  8
0
100
AcDbLine
 10
3.473496554800014
 20
-11.03880422589999
 30
0.0
 11
3.733347246000015
 21
-12.7250110867
 31
0.0
  0
LINE
  5
123
330
2
100
AcDbEntity
  8
0
100
AcDbLine
 10
3.784626404400022
 20
-11.0261095667
 30
0.0
 11
4.046433389999997
 21
-12.7250110867
 31
0.0
  0
LINE
  5
124
330
2
100
AcDbEntity
  8
0
100
AcDbLine
 10
3.784626406000022
 20
-10.7483951491
 30
0.0
 11
3.784626404400022
 21
-11.0261095667
 31
0.0
  0
LINE
  5
125
330
2
100
AcDbEntity
  8
0
100
AcDbLine
 10
4.046433389999997
 20
-12.7250110867
 30
0.0
 11
4.046433389999997
 21
-13.00295394589999
 31
0.0
  0
LWPOLYLINE
  5
126
330
2
100
AcDbEntity
  8
0
100
AcDbPolyline
 90
        4
 70
     0
 43
0.0
 10
0.9581766876000301
 20
-10.8971844915
 10
0.9271317692000309
 20
-10.90313909949999
 10
0.9359710156000176
 20
-10.9088767219
 10
0.981724676400006
 20
-10.91421516669999
  0
LWPOLYLINE
  5
127
330
2
100
AcDbEntity
  8
0
100
AcDbPolyline
 90
       15
 70
     0
 43
0.0
 10
-3.625279032399987
 20
-0.9903224930999954
 10
-3.587390481999989
 20
-1.009318443499999
 10
-3.549274857999989
 20
-1.028112995499995
 10
-3.510933445199981
 20
-1.046716134699998
 10
-3.472366896399989
 20
-1.065137723500001
 10
-3.433575206799986
 20
-1.083387541099995
 10
-3.394557694799971
 20
-1.101475304299995
 10
-3.355312981199972
 20
-1.119410709099994
 10
-3.315838957199986
 20
-1.137203449899999
 10
-3.276132784399976
 20
-1.154863246699996
 10
-3.236190853199985
 20
-1.172399870699997
 10
-3.196008811599995
 20
-1.189823161900001
 10
-3.155588190799988
 20
-1.207140211499996
 10
-3.114946723599985
 20
-1.224351208299999
 10
-3.074108720399976
 20
-1.241453955499999
  0
LINE
  5
128
330
2
100
AcDbEntity
  8
0
100
AcDbLine
 10
-3.662912459600001
 20
-0.9711285666999991
 30
0.0
 11
-3.625243430799976
 21
-0.9903405747000029
 31
0.0
  0
LWPOLYLINE
  5
129
330
2
100
AcDbEntity
  8
0
100
AcDbPolyline
 90
        3
 70
     0
 43
0.0
 10
-3.737682555599974
 20
-0.9319616514999964
 10
-3.700418409999969
 20
-0.9516591490999957
 10
-3.662948037199981
 20
-0.9711101778999946
  0
LINE
  5
12A
330
2
100
AcDbEntity
  8
0
100
AcDbLine
 10
-3.774701475599989
 20
-0.9120268883000015
 30
0.0
 11
-3.737646302799994
 21
-0.9319810659000005
 31
0.0
  0
LINE
  5
12B
330
2
100
AcDbEntity
  8
0
100
AcDbLine
 10
-0.7840297587999956
 20
-2.1763084339
 30
0.0
 11
-0.7813200067999802
 21
-2.177922707499998
 31
0.0
  0
LINE
  5
12C
330
2
100
AcDbEntity
  8
0
100
AcDbLine
 10
-2.3721597412
 20
-1.514894205100002
 30
0.0
 11
-2.009001267599991
 21
-1.649673713900003
 31
0.0
  0
LINE
  5
12D
330
2
100
AcDbEntity
  8
0
100
AcDbLine
 10
-2.009001267599991
 20
-1.649673713900003
 30
0.0
 11
-1.929291845199976
 21
-1.679429019500002
 31
0.0
  0
LINE
  5
12E
330
2
100
AcDbEntity
  8
0
100
AcDbLine
 10
-2.453908326799997
 20
-1.484360483500001
 30
0.0
 11
-2.372048621199986
 21
-1.514935600300002
 31
0.0
  0
LWPOLYLINE
  5
12F
330
2
100
AcDbEntity
  8
0
100
AcDbPolyline
 90
       37
 70
     0
 43
0.0
 10
-1.929291845199969
 20
-1.679429019499998
 10
-1.849827333199982
 20
-1.709289749099994
 10
-1.810157793999991
 20
-1.724290803499997
 10
-1.770511221199996
 20
-1.739357401900001
 10
-1.730871325199984
 20
-1.754504638699998
 10
-1.691220045199969
 20
-1.769748769899997
 10
-1.651537064399974
 20
-1.785107493099999
 10
-1.611854795599981
 20
-1.800578478699996
 10
-1.572249107599986
 20
-1.816142062699995
 10
-1.532782165199989
 20
-1.831783419499998
 10
-1.493512705999989
 20
-1.847488614699997
 10
-1.454495713999989
 20
-1.8632446979
 10
-1.415782190799973
 20
-1.879039766699996
 10
-1.377418672399983
 20
-1.894863163499998
 10
-1.339447923599976
 20
-1.910705179499998
 10
-1.301910611599993
 20
-1.9265563955
 10
-1.264850939599995
 20
-1.942405253099998
 10
-1.228373153999996
 20
-1.958212987499997
 10
-1.192588453199988
 20
-1.973935099499996
 10
-1.157590296399973
 20
-1.989532273899996
 10
-1.12345940519998
 20
-2.004968469099999
 10
-1.090252822799982
 20
-2.020216264299996
 10
-1.058037782799971
 20
-2.0352417235
 10
-1.026852717199972
 20
-2.0500224739
 10
-0.9967260691999797
 20
-2.064539555499997
 10
-0.9677171747999864
 20
-2.078757121899997
 10
-0.9400470115999723
 20
-2.092555713899997
 10
-0.9139650195999706
 20
-2.105793517099996
 10
-0.8897057827999788
 20
-2.118327267499999
 10
-0.8675566403999823
 20
-2.1299768099
 10
-0.8477452531999745
 20
-2.140583240299996
 10
-0.8306206883999891
 20
-2.149911753899999
 10
-0.8165322803999686
 20
-2.157714085099996
 10
-0.8051759955999955
 20
-2.164101121899996
 10
-0.7959390467999868
 20
-2.169373209899994
 10
-0.7887973091999925
 20
-2.173508707499998
 10
-0.7840297587999885
 20
-2.176308433899997
  0
LINE
  5
130
330
2
100
AcDbEntity
  8
0
100
AcDbLine
 10
-2.536079705999988
 20
-1.453459350700004
 30
0.0
 11
-2.453805109199983
 21
-1.484399152300003
 31
0.0
  0
LINE
  5
131
330
2
100
AcDbEntity
  8
0
100
AcDbLine
 10
-2.577308781199981
 20
-1.4378559459
 30
0.0
 11
-2.535984419599977
 21
-1.453495325100004
 31
0.0
  0
LINE
  5
132
330
2
100
AcDbEntity
  8
0
100
AcDbLine
 10
-2.61863148039999
 20
-1.422140446700002
 30
0.0
 11
-2.577217301200001
 21
-1.4378906403
 31
0.0
  0
LINE
  5
133
330
2
100
AcDbEntity
  8
0
100
AcDbLine
 10
-2.660045382799985
 20
-1.406305361899999
 30
0.0
 11
-2.618543619599996
 21
-1.422173939500002
 31
0.0
  0
LINE
  5
134
330
2
100
AcDbEntity
  8
0
100
AcDbLine
 10
-2.701535051599996
 20
-1.390348021099999
 30
0.0
 11
-2.659960904399987
 21
-1.406337742699999
 31
0.0
  0
LINE
  5
135
330
2
100
AcDbEntity
  8
0
100
AcDbLine
 10
-2.743075670799989
 20
-1.374269320299998
 30
0.0
 11
-2.701453737999976
 21
-1.3903793779
 31
0.0
  0
LINE
  5
136
330
2
100
AcDbEntity
  8
0
100
AcDbLine
 10
-2.784642577999996
 20
-1.358070125100002
 30
0.0
 11
-2.742997328399987
 21
-1.374299729899998
 31
0.0
  0
LINE
  5
137
330
2
100
AcDbEntity
  8
0
100
AcDbLine
 10
-2.826211429199993
 20
-1.3417512179
 30
0.0
 11
-2.784567035599998
 21
-1.358099653100001
 31
0.0
  0
LINE
  5
138
330
2
100
AcDbEntity
  8
0
100
AcDbLine
 10
-2.867753907599997
 20
-1.325315016299999
 30
0.0
 11
-2.826138537999987
 21
-1.341779923500002
 31
0.0
  0
LINE
  5
139
330
2
100
AcDbEntity
  8
0
100
AcDbLine
 10
-2.909237443599984
 20
-1.308765680300002
 30
0.0
 11
-2.867683645199981
 21
-1.325342907500004
 31
0.0
  0
LINE
  5
13A
330
2
100
AcDbEntity
  8
0
100
AcDbLine
 10
-2.950637945999979
 20
-1.292104126699999
 30
0.0
 11
-2.90916972679998
 21
-1.308792789099999
 31
0.0
  0
LINE
  5
13B
330
2
100
AcDbEntity
  8
0
100
AcDbLine
 10
-2.991931950800001
 20
-1.275331147500001
 30
0.0
 11
-2.950572685199979
 21
-1.292130486699999
 31
0.0
  0
LINE
  5
13C
330
2
100
AcDbEntity
  8
0
100
AcDbLine
 10
-3.033096411599991
 20
-1.258447509099998
 30
0.0
 11
-2.9918690756
 21
-1.275356787499998
 31
0.0
  0
LINE
  5
13D
330
2
100
AcDbEntity
  8
0
100
AcDbLine
 10
-3.074108720399983
 20
-1.241453955500002
 30
0.0
 11
-3.033035869199984
 21
-1.2584724467
 31
0.0
  0
LINE
  5
13E
330
2
100
AcDbEntity
  8
0
100
AcDbLine
 10
10.3809431772
 20
8.998994862100001
 30
0.0
 11
10.3809431772
 21
8.997503487699997
 31
0.0
  0
LWPOLYLINE
  5
13F
330
2
100
AcDbEntity
  8
0
100
AcDbPolyline
 90
        3
 70
     0
 43
0.0
 10
18.69370551320002
 20
-12.7250110867
 10
18.71968330840002
 20
-12.76272064189999
 10
18.72053796280002
 20
-12.7863217155
  0
LINE
  5
140
330
2
100
AcDbEntity
  8
0
100
AcDbLine
 10
16.715452966
 20
-13.00295394589999
 30
0.0
 11
16.715452966
 21
-12.7250110867
 31
0.0
  0
LINE
  5
141
330
2
100
AcDbEntity
  8
0
100
AcDbLine
 10
16.97725995000001
 20
-11.0261095667
 30
0.0
 11
16.97725994840001
 21
-10.7483951491
 31
0.0
  0
LWPOLYLINE
  5
142
330
2
100
AcDbEntity
  8
0
100
AcDbPolyline
 90
        3
 70
     0
 43
0.0
 10
23.93188220280001
 20
-1.200986808300001
 10
23.97564719000001
 20
-1.182149133099997
 10
24.0196132556
 20
-1.1629708643
  0
LINE
  5
143
330
2
100
AcDbEntity
  8
0
100
AcDbLine
 10
23.93251334520001
 20
-1.200716901099998
 30
0.0
 11
23.9762599436
 21
-1.181883656299998
 31
0.0
  0
LWPOLYLINE
  5
144
330
2
100
AcDbEntity
  8
0
100
AcDbPolyline
 90
        4
 70
     0
 43
0.0
 10
23.79823927480001
 20
-1.2570980323
 10
23.84317313240001
 20
-1.238455128299996
 10
23.88772301080001
 20
-1.219753261099995
 10
23.93251334520002
 20
-1.200716901099994
  0
LWPOLYLINE
  5
145
330
2
100
AcDbEntity
  8
0
100
AcDbPolyline
 90
        3
 70
     0
 43
0.0
 10
23.7989266108
 20
-1.256814486700001
 10
23.84384176280002
 20
-1.238176113899996
 10
23.888372806
 20
-1.219478833899998
  0
LWPOLYLINE
  5
146
330
2
100
AcDbEntity
  8
0
100
AcDbPolyline
 90
        6
 70
     0
 43
0.0
 10
23.57024872920001
 20
-1.348769134699999
 10
23.61599374200002
 20
-1.330723753899995
 10
23.66175784280002
 20
-1.312508629099994
 10
23.70744992600001
 20
-1.294147989099997
 10
23.75297209560002
 20
-1.275669808299994
 10
23.7989266108
 20
-1.256814486700001
  0
LWPOLYLINE
  5
147
330
2
100
AcDbEntity
  8
0
100
AcDbPolyline
 90
        5
 70
     0
 43
0.0
 10
23.57100970040002
 20
-1.348470224300001
 10
23.61674290360002
 20
-1.330426929899999
 10
23.66249378200001
 20
-1.312214337899995
 10
23.70817110520002
 20
-1.293856757099995
 10
23.75367698520002
 20
-1.275382184299999
  0
LINE
  5
148
330
2
100
AcDbEntity
  8
0
100
AcDbLine
 10
23.5246161276
 20
-1.366620545900001
 30
0.0
 11
23.57100970040002
 21
-1.348470224300005
 31
0.0
  0
LWPOLYLINE
  5
149
330
2
100
AcDbEntity
  8
0
100
AcDbPolyline
 90
        6
 70
     0
 43
0.0
 10
23.30129783800001
 20
-1.4522006531
 10
23.34514106680001
 20
-1.4355985523
 10
23.389379942
 20
-1.418757736299994
 10
23.43407968920002
 20
-1.401640939499998
 10
23.47919292280002
 20
-1.384253059499997
 10
23.52538744280002
 20
-1.366319997099999
  0
LWPOLYLINE
  5
14A
330
2
100
AcDbEntity
  8
0
100
AcDbPolyline
 90
        5
 70
     0
 43
0.0
 10
23.30210553720001
 20
-1.4518955363
 10
23.34594072280001
 20
-1.435294960299998
 10
23.3901731388
 20
-1.418454910699999
 10
23.43486711320002
 20
-1.401338453099995
 10
23.47997307160003
 20
-1.383951318699999
  0
LINE
  5
14B
330
2
100
AcDbEntity
  8
0
100
AcDbLine
 10
23.214464278
 20
-1.484859550700004
 30
0.0
 11
23.30210553720001
 21
-1.451895536300003
 31
0.0
  0
LINE
  5
14C
330
2
100
AcDbEntity
  8
0
100
AcDbLine
 10
22.6145157356
 20
-1.708231571500004
 30
0.0
 11
22.69989882520001
 21
-1.676164742699999
 31
0.0
  0
LINE
  5
14D
330
2
100
AcDbEntity
  8
0
100
AcDbLine
 10
23.12820047640002
 20
-1.517072896300003
 30
0.0
 11
23.25858447640001
 21
-1.468299467499999
 31
0.0
  0
LINE
  5
14E
330
2
100
AcDbEntity
  8
0
100
AcDbLine
 10
22.69989882520001
 20
-1.676164742699999
 30
0.0
 11
22.78540275799999
 21
-1.644272069100001
 31
0.0
  0
LWPOLYLINE
  5
14F
330
2
100
AcDbEntity
  8
0
100
AcDbPolyline
 90
        4
 70
     0
 43
0.0
 10
22.785402758
 20
-1.644272069099997
 10
22.91396817560002
 20
-1.596558752299998
 10
22.95691116600002
 20
-1.580648224299999
 10
23.1721482316
 20
-1.5006856675
  0
LINE
  5
150
330
2
100
AcDbEntity
  8
0
100
AcDbLine
 10
16.97725995000001
 20
-11.0261095667
 30
0.0
 11
16.715452966
 21
-12.7250110867
 31
0.0
  0
LINE
  5
151
330
2
100
AcDbEntity
  8
0
100
AcDbLine
 10
17.28838979960001
 20
-11.03880422589999
 30
0.0
 11
17.02853910840001
 21
-12.7250110867
 31
0.0
  0
LINE
  5
152
330
2
100
AcDbEntity
  8
0
100
AcDbLine
 10
30.97684614040002
 20
8.997056228500003
 30
0.0
 11
30.97686880120002
 21
8.997080050899999
 31
0.0
  0
LWPOLYLINE
  5
153
330
2
100
AcDbEntity
  8
0
100
AcDbPolyline
 90
        4
 70
     0
 43
0.0
 10
24.73243621720001
 20
-0.7996503970999953
 10
24.76875979160002
 20
-0.7773477042999986
 10
24.80495560760002
 20
-0.7546071955000003
 10
24.84138807480002
 20
-0.7311674866999951
  0
LWPOLYLINE
  5
154
330
2
100
AcDbEntity
  8
0
100
AcDbPolyline
 90
        3
 70
     0
 43
0.0
 10
24.73277138360001
 20
-0.7994468419000001
 10
24.76908684920002
 20
-0.7771445523000012
 10
24.80527530840001
 20
-0.7544039618999961
  0
LINE
  5
155
330
2
100
AcDbEntity
  8
0
100
AcDbLine
 10
24.69592624440002
 20
-0.8215725779000031
 30
0.0
 11
24.7327713836
 21
-0.7994468419000036
 31
0.0
  0
LWPOLYLINE
  5
156
330
2
100
AcDbEntity
  8
0
100
AcDbPolyline
 90
       36
 70
     0
 43
0.0
 10
21.5432329788
 20
-2.177906790699999
 10
21.54515875160001
 20
-2.176757185900001
 10
21.54925857240002
 20
-2.174341273899997
 10
21.555665446
 20
-2.1706172803
 10
21.56441719960003
 20
-2.165602793899999
 10
21.57547221080002
 20
-2.159362163499999
 10
21.5888294524
 20
-2.151936878699999
 10
21.60477783000001
 20
-2.143211769899998
 10
21.62364648760001
 20
-2.133061211499999
 10
21.64520251160002
 20
-2.121666861099996
 10
21.66896505720001
 20
-2.1093288291
 10
21.69470768120001
 20
-2.096199835499994
 10
21.72227923160002
 20
-2.082386443499999
 10
21.75150764920002
 20
-2.067999389099995
 10
21.78220253400002
 20
-2.0531515491
 10
21.81414815640002
 20
-2.037960707499998
 10
21.8472322524
 20
-2.022488963499995
 10
21.88140803480001
 20
-2.006763966699999
 10
21.91662619960002
 20
-1.990812619499997
 10
21.952810214
 20
-1.974672208299999
 10
21.98992975480001
 20
-1.958357488299995
 10
22.02798644440002
 20
-1.941868315499995
 10
22.06696879
 20
-1.925209717099995
 10
22.10684226520001
 20
-1.908395577899995
 10
22.1475021516
 20
-1.8914672163
 10
22.18882665720002
 20
-1.874470077099999
 10
22.23069499480001
 20
-1.857446576299999
 10
22.27298297720003
 20
-1.840438193899998
 10
22.31556270040002
 20
-1.823485880299998
 10
22.35830288920002
 20
-1.806630176299997
 10
22.40107121400001
 20
-1.789910584299995
 10
22.44380010360001
 20
-1.773340438699996
 10
22.48650380920003
 20
-1.756901489899995
 10
22.52918252920002
 20
-1.740581403499994
 10
22.57184854840002
 20
-1.724363619499996
 10
22.6145157356
 20
-1.7082315715
  0
LINE
  5
157
330
2
100
AcDbEntity
  8
0
100
AcDbLine
 10
24.6591641868
 20
-0.8431712019000023
 30
0.0
 11
24.69627047800002
 21
-0.8213680498999984
 31
0.0
  0
LINE
  5
158
330
2
100
AcDbEntity
  8
0
100
AcDbLine
 10
24.622077678
 20
-0.8645027186999989
 30
0.0
 11
24.6595186668
 21
-0.8429650419000047
 31
0.0
  0
LWPOLYLINE
  5
159
330
2
100
AcDbEntity
  8
0
100
AcDbPolyline
 90
        9
 70
     0
 43
0.0
 10
24.31159085080003
 20
-1.027917752299998
 10
24.35180105560002
 20
-1.008080214700001
 10
24.39161017720002
 20
-0.988092651499997
 10
24.43101577400003
 20
-0.9679473202999986
 10
24.4700056556
 20
-0.9476416898999957
 10
24.50858064280001
 20
-0.9271671427000001
 10
24.54678336600002
 20
-0.906492475499995
 10
24.5846173788
 20
-0.8856065730999986
 10
24.622443766
 20
-0.8642942162999958
  0
LWPOLYLINE
  5
15A
330
2
100
AcDbEntity
  8
0
100
AcDbPolyline
 90
        8
 70
     0
 43
0.0
 10
24.31206774680001
 20
-1.027684424299998
 10
24.35226248280002
 20
-1.007850501099994
 10
24.39205648920003
 20
-0.9878664562999972
 10
24.43144729400001
 20
-0.9677245698999996
 10
24.47042262840003
 20
-0.9474223570999953
 10
24.50898403960002
 20
-0.9269508259000005
 10
24.54717407800001
 20
-0.9062787971000005
 10
24.58499565560001
 20
-0.8853954994999995
  0
LWPOLYLINE
  5
15B
330
2
100
AcDbEntity
  8
0
100
AcDbPolyline
 90
        3
 70
     0
 43
0.0
 10
24.22997456920001
 20
-1.067173944299995
 10
24.2709814604
 20
-1.047613078699995
 10
24.31206774680001
 20
-1.027684424299998
  0
LINE
  5
15C
330
2
100
AcDbEntity
  8
0
100
AcDbLine
 10
24.23048345080001
 20
-1.066933118700003
 30
0.0
 11
24.27147417720001
 21
-1.047376046699998
 31
0.0
  0
LWPOLYLINE
  5
15D
330
2
100
AcDbEntity
  8
0
100
AcDbPolyline
 90
        4
 70
     0
 43
0.0
 10
24.10458200600001
 20
-1.125126960300001
 10
24.14677379640002
 20
-1.105923155500001
 10
24.18857161880001
 20
-1.086608065899994
 10
24.23048345080002
 20
-1.066933118699999
  0
LWPOLYLINE
  5
15E
330
2
100
AcDbEntity
  8
0
100
AcDbPolyline
 90
        3
 70
     0
 43
0.0
 10
24.10514139160003
 20
-1.1248742163
 10
24.14731602040001
 20
-1.105674475499995
 10
24.18909700440002
 20
-1.086363357099997
  0
LINE
  5
15F
330
2
100
AcDbEntity
  8
0
100
AcDbLine
 10
24.06199684760002
 20
-1.144227280300004
 30
0.0
 11
24.10514139160002
 21
-1.124874216300003
 31
0.0
  0
LINE
  5
160
330
2
100
AcDbEntity
  8
0
100
AcDbLine
 10
24.01901859640002
 20
-1.163232003500002
 30
0.0
 11
24.0625737132
 21
-1.143970384300001
 31
0.0
  0
LINE
  5
163
330
2
100
AcDbEntity
  8
0
100
AcDbLine
 10
20.06566033880002
 20
-10.84283478429999
 30
0.0
 11
20.06566033880002
 21
-10.9028347843
 31
0.0
  0
LWPOLYLINE
  5
164
330
2
100
AcDbEntity
  8
0
100
AcDbPolyline
 90
        4
 70
     0
 43
0.0
 10
20.47953096440002
 20
-11.51630418589999
 10
20.483181142
 20
-11.4305850851
 10
20.48700275000001
 20
-11.34916956349999
 10
20.49092672760002
 20
-11.27204448189999
  0
LWPOLYLINE
  5
165
330
2
100
AcDbEntity
  8
0
100
AcDbPolyline
 90
        6
 70
     0
 43
0.0
 10
17.02853910840002
 20
-12.7250110867
 10
16.996132622
 20
-12.81550543549999
 10
16.94458533720001
 20
-12.8931913843
 10
16.8773803116
 20
-12.95280557629999
 10
16.799186238
 20
-12.9902250323
 10
16.71545296600001
 20
-13.00295394589999
  0
LWPOLYLINE
  5
166
330
2
100
AcDbEntity
  8
0
100
AcDbPolyline
 90
        3
 70
     0
 43
0.0
 10
25.16444540280002
 20
-0.492562432299998
 10
25.1997564076
 20
-0.462170457900001
 10
25.23516534200001
 20
-0.4305925795000008
  0
LINE
  5
167
330
2
100
AcDbEntity
  8
0
100
AcDbLine
 10
25.16467761560002
 20
-0.4923660435000024
 30
0.0
 11
25.199977646
 21
-0.4619767075000035
 31
0.0
  0
LWPOLYLINE
  5
168
330
2
100
AcDbEntity
  8
0
100
AcDbPolyline
 90
        3
 70
     0
 43
0.0
 10
25.09345316920001
 20
-0.5506573234999977
 10
25.12901823960001
 20
-0.5220315986999964
 10
25.16467761560003
 20
-0.4923660434999988
  0
LINE
  5
169
330
2
100
AcDbEntity
  8
0
100
AcDbLine
 10
25.093707318
 20
-0.5504561395000032
 30
0.0
 11
25.1292610668
 21
-0.5218330322999983
 31
0.0
  0
LINE
  5
16A
330
2
100
AcDbEntity
  8
0
100
AcDbLine
 10
25.05767139000001
 20
-0.5785567123000029
 30
0.0
 11
25.093707318
 21
-0.5504561395000032
 31
0.0
  0
LINE
  5
16B
330
2
100
AcDbEntity
  8
0
100
AcDbLine
 10
25.02171194360002
 20
-0.605747923500001
 30
0.0
 11
25.05793683800001
 21
-0.5783530546999991
 31
0.0
  0
LWPOLYLINE
  5
16C
330
2
100
AcDbEntity
  8
0
100
AcDbPolyline
 90
        4
 70
     0
 43
0.0
 10
24.9133163692
 20
-0.6831359683000003
 10
24.9494833356
 20
-0.6580279746999978
 10
24.98563123320002
 20
-0.6322358514999991
 10
25.02198775800002
 20
-0.6055425874999969
  0
LWPOLYLINE
  5
16D
330
2
100
AcDbEntity
  8
0
100
AcDbPolyline
 90
        3
 70
     0
 43
0.0
 10
24.913616934
 20
-0.6829301506999954
 10
24.94977672280001
 20
-0.6578216226999985
 10
24.98591635160002
 20
-0.6320296514999982
  0
LINE
  5
16E
330
2
100
AcDbEntity
  8
0
100
AcDbLine
 10
24.8771769612
 20
-0.7075719635000049
 30
0.0
 11
24.913616934
 21
-0.682930150699999
 31
0.0
  0
LINE
  5
16F
330
2
100
AcDbEntity
  8
0
100
AcDbLine
 10
24.84107517720001
 20
-0.7313712051000003
 30
0.0
 11
24.877483686
 21
-0.7073672627000001
 31
0.0
  0
LINE
  5
170
330
2
100
AcDbEntity
  8
CENTER
  6
CENTER
 48
2.0
100
AcDbLine
 10
-3.345402331599991
 20
5.7821399597
 30
0.0
 11
-7.280371387599991
 21
5.437874775699999
 31
0.0
  0
LINE
  5
172
330
2
100
AcDbEntity
  8
0
100
AcDbLine
 10
30.8828458284
 20
6.9970460541
 30
0.0
 11
-10.12095947399999
 21
6.9970460541
 31
0.0
  0
LWPOLYLINE
  5
173
330
2
100
AcDbEntity
  8
0
100
AcDbPolyline
 90
       26
 70
     0
 43
0.0
 10
22.75861623800003
 20
-6.3300785427
 10
22.75601240120002
 20
-5.810738947499999
 10
22.75494942840001
 20
-5.560940360299994
 10
22.75421475160001
 20
-5.317494600299994
 10
22.7539226476
 20
-5.080298533099998
 10
22.75418389880002
 20
-4.849238699499998
 10
22.75510734040003
 20
-4.624007721899999
 10
22.7567998364
 20
-4.404263091499998
 10
22.75935747160002
 20
-4.189734675499998
 10
22.76287374680001
 20
-3.980294496299997
 10
22.76743792280001
 20
-3.776082369899995
 10
22.77313987960002
 20
-3.577115528299998
 10
22.78007693560002
 20
-3.3831463331
 10
22.7883304572
 20
-3.194174774699995
 10
22.79796214040001
 20
-3.010528043499995
 10
22.80900456600002
 20
-2.8328952723
 10
22.82145046840003
 20
-2.662088331500001
 10
22.83527203480002
 20
-2.498528528299999
 10
22.85035549080001
 20
-2.343242864299995
 10
22.86651026200002
 20
-2.197425299499997
 10
22.88348836440002
 20
-2.062071821099998
 10
22.9009643116
 20
-1.938098381099997
 10
22.91861723960002
 20
-1.825859981099995
 10
22.93628050360001
 20
-1.724521416299999
 10
22.95398102040002
 20
-1.6323685443
 10
22.96556492760001
 20
-1.5774415331
  0
LWPOLYLINE
  5
174
330
2
100
AcDbEntity
  8
0
100
AcDbPolyline
 90
       17
 70
     0
 43
0.0
 10
20.47953165080002
 20
-11.51630128989999
 10
20.475328638
 20
-11.56904779389999
 10
20.46931130040002
 20
-11.6205689027
 10
20.46152515160002
 20
-11.67047887709999
 10
20.45202815000001
 20
-11.71840749949999
 10
20.44089050520003
 20
-11.76399935709999
 10
20.42819581560002
 20
-11.8069109491
 10
20.41404004440002
 20
-11.84681816829999
 10
20.39852913400002
 20
-11.88342323229999
 10
20.38177775480002
 20
-11.9164553747
 10
20.36391130840002
 20
-11.9456664931
 10
20.34506484440001
 20
-11.9708357923
 10
20.32537999320001
 20
-11.99177493789999
 10
20.30500237400002
 20
-12.0083293379
 10
20.28408361880002
 20
-12.0203751827
 10
20.26278131640001
 20
-12.0278212419
 10
20.24125471480002
 20
-12.0306117107
  0
LINE
  5
175
330
2
100
AcDbEntity
  8
0
100
AcDbLine
 10
21.49220840120002
 20
-11.3792700339
 30
0.0
 11
21.51584795160001
 21
-11.1428155619
 31
0.0
  0
LWPOLYLINE
  5
176
330
2
100
AcDbEntity
  8
0
100
AcDbPolyline
 90
        5
 70
     0
 43
0.0
 10
21.51587782520002
 20
-11.14290193149999
 10
21.52561713560001
 20
-11.04935875389999
 10
21.53808557880001
 20
-10.93879354109999
 10
21.55107058040002
 20
-10.83300594109999
 10
21.55176065240002
 20
-10.8278323651
  0
LWPOLYLINE
  5
177
330
2
100
AcDbEntity
  8
0
100
AcDbPolyline
 90
        6
 70
     0
 43
0.0
 10
19.41861043960003
 20
-11.16908425309999
 10
19.45192926680002
 20
-11.07982011709999
 10
19.50381224440002
 20
-11.00291948829999
 10
19.57081660600002
 20
-10.94348515549999
 10
19.6484962092
 20
-10.90546090269999
 10
19.73169658360001
 20
-10.8913698355
  0
LWPOLYLINE
  5
178
330
2
100
AcDbEntity
  8
0
100
AcDbPolyline
 90
        9
 70
     0
 43
0.0
 10
25.47759806840002
 20
-0.176160512300001
 10
25.51115635000002
 20
-0.1340494115000013
 10
25.54412594520002
 20
-0.0904994194999986
 10
25.57641959480003
 20
-0.0455073058999958
 10
25.60797997240001
 20
0.0009641117000001
 10
25.63883261240002
 20
0.0490852157000035
 10
25.66894639480003
 20
0.0989615308999987
 10
25.6982309004
 20
0.1506025820999994
 10
25.72666078680001
 20
0.2041312493000049
  0
LWPOLYLINE
  5
179
330
2
100
AcDbEntity
  8
0
100
AcDbPolyline
 90
        8
 70
     0
 43
0.0
 10
25.4777173228
 20
-0.1760145267000013
 10
25.5112612572
 20
-0.1339143794999984
 10
25.54421700120002
 20
-0.0903759330999989
 10
25.57649755320003
 20
-0.0453956898999977
 10
25.60804596600002
 20
0.0010640701
 10
25.63888789240002
 20
0.0491740109000034
 10
25.66899223320001
 20
0.0990398141000029
 10
25.69826842520001
 20
0.150670908500004
  0
LINE
  5
17A
330
2
100
AcDbEntity
  8
0
100
AcDbLine
 10
25.4435561724
 20
-0.2168236627000049
 30
0.0
 11
25.47771732279999
 21
-0.1760145267000048
 31
0.0
  0
LINE
  5
17B
330
2
100
AcDbEntity
  8
0
100
AcDbLine
 10
25.4091730428
 20
-0.2559959651000021
 30
0.0
 11
25.44368968920002
 21
-0.2166679107
 31
0.0
  0
LINE
  5
17C
330
2
100
AcDbEntity
  8
0
100
AcDbLine
 10
25.37456169560001
 20
-0.2936794563000013
 30
0.0
 11
25.4093204476
 21
-0.255831792300004
 31
0.0
  0
LINE
  5
17D
330
2
100
AcDbEntity
  8
0
100
AcDbLine
 10
25.3398290812
 20
-0.329889107500005
 30
0.0
 11
25.37472248600002
 21
-0.2935081491000027
 31
0.0
  0
LINE
  5
17E
330
2
100
AcDbEntity
  8
0
100
AcDbLine
 10
25.30499892760001
 20
-0.3647248931
 30
0.0
 11
25.3400025868
 21
-0.3297119379000044
 31
0.0
  0
LINE
  5
17F
330
2
100
AcDbEntity
  8
0
100
AcDbLine
 10
25.27003870680001
 20
-0.3983272930999995
 30
0.0
 11
25.3051849308
 21
-0.364542528300003
 31
0.0
  0
LINE
  5
180
330
2
100
AcDbEntity
  8
0
100
AcDbLine
 10
25.23495543640001
 20
-0.430783184300001
 30
0.0
 11
25.27023686840001
 21
-0.3981404547000018
 31
0.0
  0
LINE
  5
181
330
2
100
AcDbEntity
  8
0
100
AcDbLine
 10
-10.21502538759998
 20
8.997067500499998
 30
0.0
 11
-10.2290319716
 21
8.996673108500001
 31
0.0
  0
LINE
  5
182
330
2
100
AcDbEntity
  8
0
100
AcDbLine
 10
30.72783888120002
 20
8.997056383700002
 30
0.0
 11
10.3809431772
 21
8.997503487699997
 31
0.0
  0
LINE
  5
183
330
2
100
AcDbEntity
  8
0
100
AcDbLine
 10
-9.965952526799988
 20
8.997056383700002
 30
0.0
 11
10.3809431772
 21
8.997503487699997
 31
0.0
  0
LINE
  5
184
330
2
100
AcDbEntity
  8
0
100
AcDbLine
 10
12.04184749560001
 20
8.998940047699999
 30
0.0
 11
15.7295105676
 21
8.999209471700002
 31
0.0
  0
LINE
  5
185
330
2
100
AcDbEntity
  8
0
100
AcDbLine
 10
4.364465860400024
 20
8.999209218900002
 30
0.0
 11
-10.21503261319998
 21
8.997080044499998
 31
0.0
  0
LINE
  5
186
330
2
100
AcDbEntity
  8
0
100
AcDbLine
 10
9.535957305200007
 20
8.998942249300004
 30
0.0
 11
5.722332838000021
 21
8.999168457299997
 31
0.0
  0
LINE
  5
187
330
2
100
AcDbEntity
  8
0
100
AcDbLine
 10
5.722332838000021
 20
8.999168457299997
 30
0.0
 11
4.364465860400024
 21
8.999209218900002
 31
0.0
  0
LINE
  5
188
330
2
100
AcDbEntity
  8
0
100
AcDbLine
 10
9.535957305200007
 20
8.998942249300004
 30
0.0
 11
12.04184749560001
 21
8.998940047699999
 31
0.0
  0
LINE
  5
189
330
2
100
AcDbEntity
  8
0
100
AcDbLine
 10
15.7295105676
 20
8.999209471700002
 30
0.0
 11
17.00442859959999
 21
8.999153487700002
 31
0.0
  0
LINE
  5
18A
330
2
100
AcDbEntity
  8
0
100
AcDbLine
 10
30.9768932892
 20
8.997056244499997
 30
0.0
 11
17.00442859959999
 21
8.999153487700002
 31
0.0
  0
LWPOLYLINE
  5
18B
330
2
100
AcDbEntity
  8
0
100
AcDbPolyline
 90
       10
 70
     0
 43
0.0
 10
22.7464166972
 20
-9.008867118699996
 10
22.75198583320002
 20
-8.698254265899997
 10
22.75630437880002
 20
-8.374070478699998
 10
22.7591841564
 20
-8.058589537899997
 10
22.76086607640002
 20
-7.751454373099996
 10
22.76157339480002
 20
-7.452263389099996
 10
22.76151530520002
 20
-7.1607499427
 10
22.76088912440002
 20
-6.876714677099997
 10
22.75986977720001
 20
-6.599903422699995
 10
22.75861623800003
 20
-6.3300785427
  0
LINE
  5
18C
330
2
100
AcDbEntity
  8
0
100
AcDbLine
 10
22.7378669116
 20
-9.159574382700004
 30
0.0
 11
22.74640947479999
 21
-9.008727769900001
 31
0.0
  0
LINE
  5
18D
330
2
100
AcDbEntity
  8
0
100
AcDbLine
 10
19.41861043960002
 20
-11.16908425309999
 30
0.0
 11
18.69370551320002
 21
-12.7250110867
 31
0.0
  0
LINE
  5
18E
330
2
100
AcDbEntity
  8
0
100
AcDbLine
 10
19.49549198199999
 20
-11.1229701363
 30
0.0
 11
18.72053796280001
 21
-12.7863217155
 31
0.0
  0
LWPOLYLINE
  5
18F
330
2
100
AcDbEntity
  8
0
100
AcDbPolyline
 90
        9
 70
     0
 43
0.0
 10
25.72662992280001
 20
0.204071150099999
 10
25.75414882520002
 20
0.2595516637000017
 10
25.78082498840001
 20
0.3173258429000043
 10
25.80662893400003
 20
0.3775650557000034
 10
25.83141649560002
 20
0.4401554605000016
 10
25.85515694200001
 20
0.505218783700002
 10
25.87795024440001
 20
0.5732627309000052
 10
25.90002390200001
 20
0.6453502509000018
 10
25.92128492760002
 20
0.7216731773000049
  0
LWPOLYLINE
  5
190
330
2
100
AcDbEntity
  8
0
100
AcDbPolyline
 90
       10
 70
     0
 43
0.0
 10
19.49616956280002
 20
-11.12151231709999
 10
19.51093679480001
 20
-11.09307020029999
 10
19.54759878200002
 20
-11.04037056669999
 10
19.58994530200001
 20
-10.99714683069999
 10
19.63486598840001
 20
-10.96377824989999
 10
19.67902414040003
 20
-10.93993851549999
 10
19.71884402360001
 20
-10.92463761149999
 10
19.74862401560002
 20
-10.9167181699
 10
19.76300780280001
 20
-10.91406420829999
 10
19.76445744760002
 20
-10.91385569949999
  0
LWPOLYLINE
  5
191
330
2
100
AcDbEntity
  8
0
100
AcDbPolyline
 90
        5
 70
     0
 43
0.0
 10
18.72053796280002
 20
-12.7863217155
 10
18.66254610200002
 20
-12.8752236739
 10
18.58259614520003
 20
-12.94391340829999
 10
18.48623568440001
 20
-12.98777361469999
 10
18.38061937080001
 20
-13.00295394589999
  0
LINE
  5
192
330
2
100
AcDbEntity
  8
0
100
AcDbLine
 10
-10.2290319716
 20
8.996673108500001
 30
0.0
 11
-10.26122289319997
 21
8.992756260499998
 31
0.0
  0
LWPOLYLINE
  5
193
330
2
100
AcDbEntity
  8
0
100
AcDbPolyline
 90
       95
 70
     0
 43
0.0
 10
6.570771799600009
 20
11.0422094093
 10
6.368274310000003
 20
11.02809306689999
 10
6.169530935600022
 20
11.0141247341
 10
5.974467676400024
 20
11.0002700077
 10
5.783007628400014
 20
10.9864972413
 10
5.595070902000003
 20
10.9727772621
 10
5.410574887600006
 20
10.95908314209999
 10
5.229434524400005
 20
10.9453899853
 10
5.051562558000028
 20
10.9316747405
 10
4.876869761200026
 20
10.9179160237
 10
4.705265698800019
 20
10.9040940093
 10
4.53667724600001
 20
10.8901918189
 10
4.371059150000007
 20
10.8761964349
 10
4.208366978800029
 20
10.8620967773
 10
4.048569009200008
 20
10.8478962637
 10
3.891624148400012
 20
10.8336127021
 10
3.737487334000007
 20
10.8192635677
 10
3.586113113200013
 20
10.8048653053
 10
3.437455713200023
 20
10.7904333581
 10
3.291469119600009
 20
10.7759822061
 10
3.148107122800013
 20
10.7615253757
 10
3.007332370800014
 20
10.7470764205
 10
2.869217801200022
 20
10.7326596829
 10
2.733908054000011
 20
10.7183071149
 10
2.601545044400012
 20
10.7040507453
 10
2.472266521200026
 20
10.6899224269
 10
2.34620605080002
 20
10.67595373889999
 10
2.223493052400016
 20
10.6621758925
 10
2.104252833200007
 20
10.6486196589
 10
1.988598516400003
 20
10.6353143501
 10
1.876419292400015
 20
10.62226292609999
 10
1.767366458800012
 20
10.60943893889999
 10
1.661085871600022
 20
10.5968129581
 10
1.557226078000013
 20
10.5843531917
 10
1.455465884400013
 20
10.5720265101
 10
1.355663609200007
 20
10.5598192813
 10
1.257745610800014
 20
10.54772583969999
 10
1.161639505200014
 20
10.53574051169999
 10
1.067274001200019
 20
10.5238575805
 10
0.9745788956000183
 20
10.5120712829
 10
0.8834850764000066
 20
10.5003758045
 10
0.7939245148000112
 20
10.4887652701
 10
0.7058302588000061
 20
10.4772337437
 10
0.6191364380000266
 20
10.46577521569999
 10
0.5337782524000261
 20
10.4543836093
 10
0.4496919756000182
 20
10.4430527741
 10
0.3668162108000104
 20
10.4317767949
 10
0.285089830000004
 20
10.42055007489999
 10
0.2044514764000098
 20
10.4093668269
 10
0.1248409164000179
 20
10.39822114849999
 10
0.0462032476000047
 20
10.3871076205
 10
-0.0314840403999881
 20
10.3760252205
 10
-0.1082290035999733
 20
10.3649749421
 10
-0.1840396211999859
 20
10.3539577917
 10
-0.2589238675999752
 20
10.3429747789
 10
-0.332889721999976
 20
10.3320269133
 10
-0.4059451619999948
 20
10.3211152077
 10
-0.4780981683999812
 20
10.3102406813
 10
-0.5493567315999713
 20
10.2994043485
 10
-0.6197298995999745
 20
10.28860707169999
 10
-0.68922634919997
 20
10.2778498077
 10
-0.7578497523999772
 20
10.2671346301
 10
-0.8256045635999953
 20
10.2564637197
 10
-0.8924955843999953
 20
10.2458391005
 10
-0.9585277347999863
 20
10.2352626813
 10
-1.023706033999985
 20
10.2247362589
 10
-1.088035611599991
 20
10.2142615117
 10
-1.151521693199981
 20
10.2038400189
 10
-1.214169723599979
 20
10.1934732301
 10
-1.275986670799994
 20
10.1831622589
 10
-1.336979774799971
 20
10.1729080797
 10
-1.39715619399999
 20
10.1627115981
 10
-1.456523128399993
 20
10.1525736253
 10
-1.515087809999982
 20
10.0299948877
 10
-1.572857504399991
 20
10.0199760301
 10
-1.629839497999995
 20
10.0100176157
 10
-1.686041105999976
 20
10.0001201325
 10
-1.741469657999971
 20
9.990283994900003
 10
-1.796132497999991
 20
9.980509550100002
 10
-1.850036979599991
 20
9.970797074900005
 10
-1.903190462799983
 20
9.961146785300002
 10
-1.955600310799979
 20
9.951558833300005
 10
-2.007273889999993
 20
9.942033316500001
 10
-2.058218557199978
 20
9.932570270100008
 10
-2.108441667599976
 20
9.923169679700002
 10
-2.157950568399996
 20
9.913831481300007
 10
-2.206751336399975
 20
9.904555882900005
 10
-2.254851510799994
 20
9.895343105300007
 10
-2.302260430799975
 20
9.886193042900004
 10
-2.34898675399998
 20
9.877105655700006
 10
-2.395029446799981
 20
9.868082742100007
 10
-2.440381152399993
 20
9.859127354900003
 10
-2.485034981199987
 20
9.850242489300008
 10
-2.528984454799996
 20
9.841431090900002
 10
-2.614746465999985
 20
9.824040266900006
  0
LINE
  5
194
330
2
100
AcDbEntity
  8
0
100
AcDbLine
 10
7.420220348400015
 20
11.1009550429
 30
0.0
 11
6.570771799600002
 21
11.04220940929999
 31
0.0
  0
LWPOLYLINE
  5
195
330
2
100
AcDbEntity
  8
0
100
AcDbPolyline
 90
       13
 70
     0
 43
0.0
 10
10.38094317720001
 20
11.2313251437
 10
10.12094973880002
 20
11.2299657997
 10
9.85149773400002
 20
11.2258126797
 10
9.587023954800031
 20
11.21921834529999
 10
9.327464833200025
 20
11.2105277709
 10
9.072760431600016
 20
11.2000705581
 10
8.82285150520002
 20
11.1881569565
 10
8.577677934000007
 20
11.1750776077
 10
8.337177724400021
 20
11.1611034717
 10
8.10127766840003
 20
11.1464848797
 10
7.869882567600029
 20
11.13145080769999
 10
7.64289533720003
 20
11.1162105789
 10
7.420220348400022
 20
11.1009550429
  0
LWPOLYLINE
  5
196
330
2
100
AcDbEntity
  8
0
100
AcDbPolyline
 90
        9
 70
     0
 43
0.0
 10
13.2518292908
 20
11.1071353389
 10
12.92518059160002
 20
11.1292495261
 10
12.58930257720001
 20
11.1509876301
 10
12.2439005276
 20
11.1717073581
 10
11.88871935160003
 20
11.1906773341
 10
11.52356642040001
 20
11.2070744349
 10
11.14825980440002
 20
11.2199884557
 10
10.76261651480001
 20
11.2284244829
 10
10.38094317720001
 20
11.2313251437
  0
LINE
  5
197
330
2
100
AcDbEntity
  8
0
100
AcDbLine
 10
26.1992559548
 20
3.9695078845
 30
0.0
 11
26.20786085880001
 21
4.188084988499998
 31
0.0
  0
LINE
  5
198
330
2
100
AcDbEntity
  8
0
100
AcDbLine
 10
26.20785995320002
 20
4.188062215699996
 30
0.0
 11
26.21711522040001
 21
4.4178332653
 31
0.0
  0
LWPOLYLINE
  5
199
330
2
100
AcDbEntity
  8
0
100
AcDbPolyline
 90
       14
 70
     0
 43
0.0
 10
26.217116102
 20
4.417854796500002
 10
26.22724965240001
 20
4.661186932500001
 10
26.23828374840002
 20
4.915267596500001
 10
26.24973012600003
 20
5.166512162900005
 10
26.26094955640002
 20
5.400916751700002
 10
26.27174663000002
 20
5.6160156221
 10
26.28235946040001
 20
5.8180506797
 10
26.29308222840001
 20
6.0133670381
 10
26.304110054
 20
6.205744188499998
 10
26.31553277080001
 20
6.396676001300001
 10
26.32748205400003
 20
6.475566468500005
 10
26.33995368280003
 20
6.666970778900001
 10
26.35286068440001
 20
6.856847118100006
 10
26.36279360291701
 20
6.9970460541
  0
LWPOLYLINE
  5
19A
330
2
100
AcDbEntity
  8
0
100
AcDbPolyline
 90
       22
 70
     0
 43
0.0
 10
25.94156189560001
 20
0.8020239197000051
 10
25.96061679320001
 20
0.8856004380999991
 10
25.97822493400002
 20
0.9711396396999987
 10
25.99489848600001
 20
1.060882132500005
 10
26.0110362956
 20
1.157297982100004
 10
26.02687772760001
 20
1.262723194900004
 10
26.04224364120003
 20
1.376967292500005
 10
26.05674861240001
 20
1.4975883245
 10
26.07030776760001
 20
1.623636202900001
 10
26.08292007640002
 20
1.754439706900001
 10
26.0946267484
 20
1.889449553300003
 10
26.10550444440002
 20
2.028469767700002
 10
26.11567323320002
 20
2.172015415700002
 10
26.1252505756
 20
2.320848823700004
 10
26.13434941400001
 20
2.4759728541
 10
26.14305223960002
 20
2.638106916499999
 10
26.15143251800001
 20
2.807727183700002
 10
26.15954490680002
 20
2.984570942099999
 10
26.16746841080001
 20
3.168420559700003
 10
26.17528691800001
 20
3.358786358100005
 10
26.18311681080001
 20
3.555770849300003
 10
26.19925494520001
 20
3.969482044500004
  0
LINE
  5
19B
330
2
100
AcDbEntity
  8
0
100
AcDbLine
 10
25.9212978204
 20
0.7217217709000004
 30
0.0
 11
25.94157254200001
 21
0.802068310100001
 31
0.0
  0
LWPOLYLINE
  5
19C
330
2
100
AcDbEntity
  8
0
100
AcDbPolyline
 90
        4
 70
     0
 43
0.0
 10
19.49616660280003
 20
-11.1215221331
 10
19.49005571
 20
-11.1287266291
 10
19.46421822840003
 20
-11.1459209155
 10
19.41859957080001
 20
-11.16908857789999
  0
LWPOLYLINE
  5
19D
330
2
100
AcDbEntity
  8
0
100
AcDbPolyline
 90
       17
 70
     0
 43
0.0
 10
21.55174306680001
 20
-10.82796540989999
 10
21.56850026680001
 20
-10.82055613789999
 10
21.66796444920001
 20
-10.77050948989999
 10
21.77084142360001
 20
-10.71155855549999
 10
21.87603907320001
 20
-10.6428367667
 10
21.98234224120003
 20
-10.56352113309999
 10
22.08841077400001
 20
-10.47282323549999
 10
22.19292632920002
 20
-10.36981116509999
 10
22.29463316440001
 20
-10.25335431069999
 10
22.39090055800002
 20
-10.12399457469999
 10
22.47923713560001
 20
-9.982698909099994
 10
22.5574437932
 20
-9.830852445099999
 10
22.62354244280001
 20
-9.670423827499995
 10
22.67620205080001
 20
-9.503342686699994
 10
22.71443220120002
 20
-9.332207046699998
 10
22.737898822
 20
-9.159229808299997
 10
22.7464094844
 20
-9.008727251499998
  0
LINE
  5
19E
330
2
100
AcDbEntity
  8
0
100
AcDbLine
 10
-3.883947057999996
 20
9.523290193300002
 30
0.0
 11
-3.927567913999986
 21
9.510986874900002
 31
0.0
  0
LINE
  5
19F
330
2
100
AcDbEntity
  8
0
100
AcDbLine
 10
-5.458083256399994
 20
9.017633482899999
 30
0.0
 11
-5.476749752400003
 21
9.012370934100001
 31
0.0
  0
LINE
  5
1A0
330
2
100
AcDbEntity
  8
0
100
AcDbLine
 10
-3.839202301199982
 20
9.5357514013
 30
0.0
 11
-3.883947057999996
 21
9.523290193300002
 31
0.0
  0
LINE
  5
1A1
330
2
100
AcDbEntity
  8
0
100
AcDbLine
 10
-5.476749752400003
 20
9.012370934100001
 30
0.0
 11
-5.492016037199995
 21
9.008146578899999
 31
0.0
  0
LINE
  5
1A2
330
2
100
AcDbEntity
  8
0
100
AcDbLine
 10
-3.793291297999992
 20
9.548371119700004
 30
0.0
 11
-3.839202301199982
 21
9.5357514013
 31
0.0
  0
LINE
  5
1A3
330
2
100
AcDbEntity
  8
0
100
AcDbLine
 10
-3.746170291599987
 20
9.561149871699999
 30
0.0
 11
-3.793291297999992
 21
9.548371119700004
 31
0.0
  0
LINE
  5
1A4
330
2
100
AcDbEntity
  8
0
100
AcDbLine
 10
-5.492016037199995
 20
9.008146578899999
 30
0.0
 11
-5.507071349199982
 21
9.004055305300003
 31
0.0
  0
LINE
  5
1A5
330
2
100
AcDbEntity
  8
0
100
AcDbLine
 10
-3.697794075599979
 20
9.574088086100001
 30
0.0
 11
-3.746170291599987
 21
9.561149871699999
 31
0.0
  0
LINE
  5
1A6
330
2
100
AcDbEntity
  8
0
100
AcDbLine
 10
-5.507071349199982
 20
9.004055305300003
 30
0.0
 11
-5.521982360399995
 21
9.000081487700004
 31
0.0
  0
LINE
  5
1A7
330
2
100
AcDbEntity
  8
0
100
AcDbLine
 10
-3.648115966799998
 20
9.587186090900001
 30
0.0
 11
-3.697794075599979
 21
9.574088086100001
 31
0.0
  0
LINE
  5
1A8
330
2
100
AcDbEntity
  8
0
100
AcDbLine
 10
-5.521982360399995
 20
9.000081487700004
 30
0.0
 11
-5.530782075599979
 21
8.997775161300001
 31
0.0
  0
LINE
  5
1A9
330
2
100
AcDbEntity
  8
0
100
AcDbLine
 10
-3.59708776999998
 20
9.600444127700004
 30
0.0
 11
-3.648115966799998
 21
9.587186090900001
 31
0.0
  0
LINE
  5
1AA
330
2
100
AcDbEntity
  8
0
100
AcDbLine
 10
-3.544659750799986
 20
9.613862345300002
 30
0.0
 11
-3.59708776999998
 21
9.600444127700004
 31
0.0
  0
LINE
  5
1AB
330
2
100
AcDbEntity
  8
0
100
AcDbLine
 10
-3.49078060679998
 20
9.627440815700001
 30
0.0
 11
-3.544659750799986
 21
9.613862345300002
 31
0.0
  0
LINE
  5
1AC
330
2
100
AcDbEntity
  8
0
100
AcDbLine
 10
-3.435397443599988
 20
9.6411795341
 30
0.0
 11
-3.49078060679998
 21
9.627440815700001
 31
0.0
  0
LINE
  5
1AD
330
2
100
AcDbEntity
  8
0
100
AcDbLine
 10
-3.378456072399991
 20
9.655078358100002
 30
0.0
 11
-3.435397443599988
 21
9.6411795341
 31
0.0
  0
LINE
  5
1AE
330
2
100
AcDbEntity
  8
0
100
AcDbLine
 10
-3.319932912399998
 20
9.669131590100004
 30
0.0
 11
-3.378456072399991
 21
9.655078358100002
 31
0.0
  0
LINE
  5
1AF
330
2
100
AcDbEntity
  8
0
100
AcDbLine
 10
-3.259801885199983
 20
9.6833402765
 30
0.0
 11
-3.319932912399998
 21
9.669131590100004
 31
0.0
  0
LINE
  5
1B0
330
2
100
AcDbEntity
  8
0
100
AcDbLine
 10
-3.197935472399997
 20
9.697729804500003
 30
0.0
 11
-3.259801885199983
 21
9.6833402765
 31
0.0
  0
LINE
  5
1B1
330
2
100
AcDbEntity
  8
0
100
AcDbLine
 10
-3.134117725199992
 20
9.712344020500001
 30
0.0
 11
-3.197935472399997
 21
9.697729804500003
 31
0.0
  0
LINE
  5
1B2
330
2
100
AcDbEntity
  8
0
100
AcDbLine
 10
-3.068118312399981
 20
9.727227238100002
 30
0.0
 11
-3.134117725199992
 21
9.712344020500001
 31
0.0
  0
LINE
  5
1B3
330
2
100
AcDbEntity
  8
0
100
AcDbLine
 10
-2.999695395599992
 20
9.742423484499997
 30
0.0
 11
-3.068118312399981
 21
9.727227238100002
 31
0.0
  0
LINE
  5
1B4
330
2
100
AcDbEntity
  8
0
100
AcDbLine
 10
-2.928595288399982
 20
9.757976508500004
 30
0.0
 11
-2.999695395599992
 21
9.742423484499997
 31
0.0
  0
LINE
  5
1B5
330
2
100
AcDbEntity
  8
0
100
AcDbLine
 10
-2.854576742799999
 20
9.773924473300002
 30
0.0
 11
-2.928595288399982
 21
9.757976508500004
 31
0.0
  0
LINE
  5
1B6
330
2
100
AcDbEntity
  8
0
100
AcDbLine
 10
-2.7775774308
 20
9.790265154900001
 30
0.0
 11
-2.854576742799999
 21
9.773924473300002
 31
0.0
  0
LINE
  5
1B7
330
2
100
AcDbEntity
  8
0
100
AcDbLine
 10
-2.69762336359998
 20
9.806977594900001
 30
0.0
 11
-2.7775774308
 21
9.790265154900001
 31
0.0
  0
LINE
  5
1B8
330
2
100
AcDbEntity
  8
0
100
AcDbLine
 10
-2.614746465999992
 20
9.824040266900002
 30
0.0
 11
-2.69762336359998
 21
9.806977594900001
 31
0.0
  0
LINE
  5
1B9
330
2
100
AcDbEntity
  8
0
100
AcDbLine
 10
26.2926693932
 20
8.997775161300001
 30
0.0
 11
26.28059419960001
 21
9.000947202900004
 31
0.0
  0
LINE
  5
1BA
330
2
100
AcDbEntity
  8
0
100
AcDbLine
 10
26.28059419960001
 20
9.000947202900004
 30
0.0
 11
26.2663001708
 21
9.004771876499997
 31
0.0
  0
LINE
  5
1BB
330
2
100
AcDbEntity
  8
0
100
AcDbLine
 10
26.2663001708
 20
9.004771876499997
 30
0.0
 11
26.25187635159999
 21
9.008702919700002
 31
0.0
  0
LWPOLYLINE
  5
1BC
330
2
100
AcDbEntity
  8
0
100
AcDbPolyline
 90
       98
 70
     0
 43
0.0
 10
24.63095224760002
 20
9.527452361300007
 10
24.60113558520001
 20
9.535738415700002
 10
24.57068027000002
 20
9.544128607700002
 10
24.53957332120001
 20
9.552622246100007
 10
24.5078014764
 20
9.561218596500005
 10
24.47535118360002
 20
9.569916884500003
 10
24.4422071804
 20
9.578716670100007
 10
24.40834129240002
 20
9.587620766100002
 10
24.37371792280001
 20
9.596633644500002
 10
24.33830025080002
 20
9.605759756500006
 10
24.30205024760002
 20
9.615003510100002
 10
24.26492862360001
 20
9.624369270100004
 10
24.22689480120002
 20
9.633861350100005
 10
24.1879068556
 20
9.643484009300003
 10
24.14792147800003
 20
9.653241449300004
 10
24.10690609560001
 20
9.663135407700004
 10
24.06483263320001
 20
9.673168516500005
 10
24.02166065240001
 20
9.683346745300006
 10
23.9773457148
 20
9.693676702100006
 10
23.93184112280002
 20
9.704165201300007
 10
23.8850988684
 20
9.714819009300008
 10
23.83706959320002
 20
9.725644858900004
 10
23.7877025724
 20
9.736649428500001
 10
23.73694567480001
 20
9.747839338900007
 10
23.68474535320001
 20
9.759221148500003
 10
23.63105191640002
 20
9.770800193300004
 10
23.57585141880002
 20
9.782573879700002
 10
23.51914604120003
 20
9.794536199700004
 10
23.46093912760002
 20
9.806681017300007
 10
23.40123519320002
 20
9.819002055700003
 10
23.3400399692
 20
9.831492886100008
 10
23.27736045400001
 20
9.844146906900007
 10
23.2132049596
 20
9.856957338900002
 10
23.1475831612
 20
9.869917207700005
 10
23.08050618680002
 20
9.883019321300004
 10
23.01198102840001
 20
9.896257346900007
 10
22.94198740120001
 20
9.909630145300006
 10
22.87049976600002
 20
9.923137410900004
 10
22.79749937560001
 20
9.936778199700007
 10
22.72296539000001
 20
9.950552314900008
 10
22.64687669880001
 20
9.964459385300003
 10
22.5692122348
 20
9.978498799700005
 10
22.48995100760001
 20
9.992669682900007
 10
22.40907211160001
 20
10.0069708813
 10
22.32655475800001
 20
10.0214009437
 10
22.24237829560002
 20
10.1484581005
 10
22.1565222396
 20
10.1631402493
 10
22.068966294
 20
10.1779449261
 10
21.97969037880003
 20
10.19286929089999
 10
21.88867429240002
 20
10.20791015809999
 10
21.79589849240002
 20
10.2230638525
 10
21.70134635800002
 20
10.2383258221
 10
21.60500183160002
 20
10.2536910237
 10
21.5068492988
 20
10.2691539181
 10
21.4068736076
 20
10.2847084445
 10
21.30506176120002
 20
10.3003481837
 10
21.20139057560001
 20
10.3160695149
 10
21.09583311160002
 20
10.3318697341
 10
20.98836447480002
 20
10.3477458445
 10
20.8789597596
 20
10.3636948557
 10
20.76759404760002
 20
10.3797137885
 10
20.6542423916
 20
10.3957996701
 10
20.53885493080002
 20
10.4119529933
 10
20.4212777852
 20
10.42818833249999
 10
20.30132625400003
 20
10.4445234589
 10
20.1788143404
 20
10.4609756077
 10
20.05355244440002
 20
10.4775630173
 10
19.92534417080003
 20
10.4943042013
 10
19.79398839640001
 20
10.5112173581
 10
19.65927924760001
 20
10.52832039329999
 10
19.52100607800002
 20
10.54563095809999
 10
19.37895344920002
 20
10.5631664765
 10
19.23290110520002
 20
10.58094419329999
 10
19.08252052120002
 20
10.5989935325
 10
18.92692720440001
 20
10.6174032093
 10
18.76504819800001
 20
10.6362673405
 10
18.5958829564
 20
10.6556605789
 10
18.4193060684
 20
10.67554918529999
 10
18.23569099640002
 20
10.6958404653
 10
18.04543420920001
 20
10.7164391933
 10
17.84895053560001
 20
10.7372487069
 10
17.64667313880002
 20
10.75817152449999
 10
17.43892601080003
 20
10.7791226925
 10
17.22564508120001
 20
10.8000557501
 10
17.0066899452
 20
10.8209282365
 10
16.78192120280002
 20
10.8416934445
 10
16.5512008924
 20
10.8623002461
 10
16.31440359800001
 20
10.8826978525
 10
16.071417174
 20
10.90288706689999
 10
15.82210084280001
 20
10.9229060141
 10
15.56622775320002
 20
10.94280703969999
 10
15.3035250636
 20
10.9626532621
 10
15.0337274796
 20
10.9825151197
 10
14.75657970680001
 20
11.0024714093
 10
14.47183809720002
 20
11.02261056289999
 10
14.17927161880001
 20
11.04303217729999
 10
13.87859741240001
 20
11.06385330369999
 10
13.2518292908
 20
11.1071353389
  0
LINE
  5
1BD
330
2
100
AcDbEntity
  8
0
100
AcDbLine
 10
26.25187635159999
 20
9.008702919700002
 30
0.0
 11
26.23430429080002
 21
9.013582873299998
 31
0.0
  0
LINE
  5
1BE
330
2
100
AcDbEntity
  8
0
100
AcDbLine
 10
24.68872010680001
 20
9.511195218900002
 30
0.0
 11
24.63095224760001
 21
9.527452361300003
 31
0.0
  0
LINE
  5
1BF
330
2
100
AcDbEntity
  8
0
100
AcDbLine
 10
26.23430429080002
 20
9.013582873299998
 30
0.0
 11
26.216395166
 21
9.018652860500001
 31
0.0
  0
LINE
  5
1C0
330
2
100
AcDbEntity
  8
0
100
AcDbLine
 10
24.74408201880001
 20
9.495361844499999
 30
0.0
 11
24.68872010680001
 21
9.511195218900002
 31
0.0
  0
LINE
  5
1C1
330
2
100
AcDbEntity
  8
0
100
AcDbLine
 10
26.216395166
 20
9.018652860500001
 30
0.0
 11
26.19812827
 21
9.023917839700001
 31
0.0
  0
LINE
  5
1C2
330
2
100
AcDbEntity
  8
0
100
AcDbLine
 10
24.79713171320002
 20
9.479956193300001
 30
0.0
 11
24.74408201880001
 21
9.495361844499999
 31
0.0
  0
LINE
  5
1C3
330
2
100
AcDbEntity
  8
0
100
AcDbLine
 10
24.84795861080001
 20
9.464981490899997
 30
0.0
 11
24.79713171320002
 21
9.479956193300001
 31
0.0
  0
LINE
  5
1C4
330
2
100
AcDbEntity
  8
0
100
AcDbLine
 10
26.19812827
 20
9.023917839700001
 30
0.0
 11
26.17633602360001
 21
9.030313902100001
 31
0.0
  0
LINE
  5
1C5
330
2
100
AcDbEntity
  8
0
100
AcDbLine
 10
24.89665051640002
 20
9.450439450900002
 30
0.0
 11
24.84795861080001
 21
9.464981490899997
 31
0.0
  0
LINE
  5
1C6
330
2
100
AcDbEntity
  8
0
100
AcDbLine
 10
26.17633602360001
 20
9.030313902100001
 30
0.0
 11
26.15399190520002
 21
9.036991786899999
 31
0.0
  0
LINE
  5
1C7
330
2
100
AcDbEntity
  8
0
100
AcDbLine
 10
24.9432945052
 20
9.436330006100003
 30
0.0
 11
24.89665051640002
 21
9.450439450900002
 31
0.0
  0
LINE
  5
1C8
330
2
100
AcDbEntity
  8
0
100
AcDbLine
 10
26.15399190520002
 20
9.036991786899999
 30
0.0
 11
26.1310582588
 21
9.043961447700002
 31
0.0
  0
LINE
  5
1C9
330
2
100
AcDbEntity
  8
0
100
AcDbLine
 10
24.98797334199999
 20
9.422652402900002
 30
0.0
 11
24.9432945052
 21
9.436330006100003
 31
0.0
  0
LINE
  5
1CA
330
2
100
AcDbEntity
  8
0
100
AcDbLine
 10
26.1310582588
 20
9.043961447700002
 30
0.0
 11
26.1040749996
 21
9.0522980189
 31
0.0
  0
LINE
  5
1CB
330
2
100
AcDbEntity
  8
0
100
AcDbLine
 10
25.051477174
 20
9.402942631700003
 30
0.0
 11
24.98797334199999
 21
9.422652402900002
 31
0.0
  0
LINE
  5
1CC
330
2
100
AcDbEntity
  8
0
100
AcDbLine
 10
26.1040749996
 20
9.0522980189
 30
0.0
 11
26.07620491000002
 21
9.0610477789
 31
0.0
  0
LINE
  5
1CD
330
2
100
AcDbEntity
  8
0
100
AcDbLine
 10
25.11101867160001
 20
9.3841823437
 30
0.0
 11
25.051477174
 21
9.402942631700003
 31
0.0
  0
LINE
  5
1CE
330
2
100
AcDbEntity
  8
0
100
AcDbLine
 10
26.07620491000002
 20
9.0610477789
 30
0.0
 11
26.04737755960001
 21
9.070230734100004
 31
0.0
  0
LINE
  5
1CF
330
2
100
AcDbEntity
  8
0
100
AcDbLine
 10
25.16701113879999
 20
9.366299618900004
 30
0.0
 11
25.11101867160001
 21
9.3841823437
 31
0.0
  0
LINE
  5
1D0
330
2
100
AcDbEntity
  8
0
100
AcDbLine
 10
26.04737755960001
 20
9.070230734100004
 30
0.0
 11
26.01370517880001
 21
9.0811076765
 31
0.0
  0
LINE
  5
1D1
330
2
100
AcDbEntity
  8
0
100
AcDbLine
 10
25.23686923640001
 20
9.343673895700003
 30
0.0
 11
25.16701113879999
 21
9.366299618900004
 31
0.0
  0
LINE
  5
1D2
330
2
100
AcDbEntity
  8
0
100
AcDbLine
 10
26.01370517880001
 20
9.0811076765
 30
0.0
 11
25.9785950028
 21
9.092599591700004
 31
0.0
  0
LINE
  5
1D3
330
2
100
AcDbEntity
  8
0
100
AcDbLine
 10
25.31766606360002
 20
9.317095716500002
 30
0.0
 11
25.23686923640001
 21
9.343673895700003
 31
0.0
  0
LINE
  5
1D4
330
2
100
AcDbEntity
  8
0
100
AcDbLine
 10
25.9785950028
 20
9.092599591700004
 30
0.0
 11
25.939083798
 21
9.1056894765
 31
0.0
  0
LINE
  5
1D5
330
2
100
AcDbEntity
  8
0
100
AcDbLine
 10
25.4058363452
 20
9.2876403357
 30
0.0
 11
25.31766606360002
 21
9.317095716500002
 31
0.0
  0
LINE
  5
1D6
330
2
100
AcDbEntity
  8
0
100
AcDbLine
 10
25.939083798
 20
9.1056894765
 30
0.0
 11
25.89801442040001
 21
9.119445590100003
 31
0.0
  0
LINE
  5
1D7
330
2
100
AcDbEntity
  8
0
100
AcDbLine
 10
25.89801442040001
 20
9.119445590100003
 30
0.0
 11
25.85393179960001
 21
9.134353302099999
 31
0.0
  0
LINE
  5
1D8
330
2
100
AcDbEntity
  8
0
100
AcDbLine
 10
25.5314415388
 20
9.245016671700003
 30
0.0
 11
25.4058363452
 21
9.2876403357
 31
0.0
  0
LINE
  5
1D9
330
2
100
AcDbEntity
  8
0
100
AcDbLine
 10
25.85393179960001
 20
9.134353302099999
 30
0.0
 11
25.8007475612
 21
9.152487974100001
 31
0.0
  0
LINE
  5
1DA
330
2
100
AcDbEntity
  8
0
100
AcDbLine
 10
25.8007475612
 20
9.152487974100001
 30
0.0
 11
25.7497318844
 21
9.169985975700004
 31
0.0
  0
LINE
  5
1DB
330
2
100
AcDbEntity
  8
0
100
AcDbLine
 10
25.7497318844
 20
9.169985975700004
 30
0.0
 11
25.7363599964
 21
9.174583292499999
 31
0.0
  0
LINE
  5
1DC
330
2
100
AcDbEntity
  8
0
100
AcDbLine
 10
25.6299113372
 20
9.211230004499999
 30
0.0
 11
25.5314415388
 21
9.245016671700003
 31
0.0
  0
LINE
  5
1DD
330
2
100
AcDbEntity
  8
0
100
AcDbLine
 10
25.7363599964
 20
9.174583292499999
 30
0.0
 11
25.72272136920002
 21
9.179275425300001
 31
0.0
  0
LWPOLYLINE
  5
1DE
330
2
100
AcDbEntity
  8
0
100
AcDbPolyline
 90
        4
 70
     0
 43
0.0
 10
25.72272136920003
 20
9.179275425300005
 10
25.70876398360002
 20
9.184079652500003
 10
25.7016257516
 20
9.186537366100004
 10
25.69435777400002
 20
9.189040082900007
  0
LWPOLYLINE
  5
1DF
330
2
100
AcDbEntity
  8
0
100
AcDbPolyline
 90
        3
 70
     0
 43
0.0
 10
25.65549223960002
 20
9.202424577300007
 10
25.647154462
 20
9.205295244500007
 10
25.62991133720001
 20
9.211230004500002
  0
LINE
  5
1E0
330
2
100
AcDbEntity
  8
0
100
AcDbLine
 10
25.69435777400002
 20
9.189040082900003
 30
0.0
 11
25.65549223960001
 21
9.202424577300003
 31
0.0
  0
LINE
  5
1E1
330
2
100
AcDbEntity
  8
0
100
AcDbLine
 10
-10.26122289319997
 20
8.992756260499998
 30
0.0
 11
-10.292636002
 21
8.9847055629
 31
0.0
  0
LINE
  5
1E3
330
2
100
AcDbEntity
  8
0
100
AcDbLine
 10
31.3809431772
 20
6.9970460541
 30
0.0
 11
31.2259308396
 21
8.768845180499997
 31
0.0
  0
LWPOLYLINE
  5
1E6
330
2
100
AcDbEntity
  8
0
100
AcDbPolyline
 90
        3
 70
     0
 43
0.0
 10
31.22592985560001
 20
8.768856438100002
 10
31.22104101880001
 20
8.800788758100004
 10
31.22084197080002
 20
8.801477140500004
  0
ARC
  5
1E7
330
2
100
AcDbEntity
  8
0
100
AcDbCircle
 10
12.59869896440002
 20
-12.6279539459
 30
0.0
 40
0.5
100
AcDbArc
 50
270.0
 51
311.404482614
  0
ARC
  5
1E8
330
2
100
AcDbEntity
  8
0
100
AcDbCircle
 10
8.223698964400021
 20
-12.6279539459
 30
0.0
 40
0.5
100
AcDbArc
 50
270.0
 51
311.3727217676
  0
ARC
  5
1E9
330
2
100
AcDbEntity
  8
0
100
AcDbCircle
 10
16.97369896440002
 20
-12.6279539459
 30
0.0
 40
0.5
100
AcDbArc
 50
270.0
 51
311.2389265217
  0
ARC
  5
1EA
330
2
100
AcDbEntity
  8
0
100
AcDbCircle
 10
16.76503013880002
 20
-12.6279539459
 30
0.0
 40
0.5
100
AcDbArc
 50
228.7610662196
 51
270.0
  0
ARC
  5
1EB
330
2
100
AcDbEntity
  8
0
100
AcDbCircle
 10
12.39003013880002
 20
-12.6279539459
 30
0.0
 40
0.5
100
AcDbArc
 50
228.7040246715999
 51
270.0
  0
ARC
  5
1EC
330
2
100
AcDbEntity
  8
0
100
AcDbCircle
 10
8.015030138800021
 20
-12.6279539459
 30
0.0
 40
0.5
100
AcDbArc
 50
228.769096781
 51
270.0
  0
ARC
  5
1ED
330
2
100
AcDbEntity
  8
0
100
AcDbCircle
 10
0.8895614636000104
 20
-12.6276256099
 30
0.0
 40
0.125
100
AcDbArc
 50
45.0000001423
 51
82.3929396407
  0
ARC
  5
1EE
330
2
100
AcDbEntity
  8
0
100
AcDbCircle
 10
1.609496567600011
 20
-12.6404539459
 30
0.0
 40
0.375
100
AcDbArc
 50
225.0
 51
270.0
  0
ARC
  5
1EF
330
2
100
AcDbEntity
  8
0
100
AcDbCircle
 10
4.152389786800021
 20
-12.6404539459
 30
0.0
 40
0.375
100
AcDbArc
 50
270.0
 51
282.8570788709
  0
ARC
  5
1F0
330
2
100
AcDbEntity
  8
0
100
AcDbCircle
 10
-10.21499482599998
 20
8.747067502099998
 30
0.0
 40
0.25
100
AcDbArc
 50
90.00700439920001
 51
175.0
  0
ARC
  5
1F1
330
2
100
AcDbEntity
  8
0
100
AcDbCircle
 10
30.97688118040002
 20
8.747067502099998
 30
0.0
 40
0.25
100
AcDbArc
 50
5.0
 51
89.9929956008
  0
LINE
  5
2A0
330
2
100
AcDbEntity
  8
0
100
AcDbLine
 10
-10.12095947399994
 20
6.9970460541
 30
0.0
 11
-10.61905682279999
 21
6.997046054100003
 31
0.0
  0
LINE
  5
2A2
330
2
100
AcDbEntity
  8
0
100
AcDbLine
 10
31.38094317720001
 20
6.997046054100001
 30
0.0
 11
30.88284582839996
 21
6.9970460541
 31
0.0
  0
ENDSEC
  0
SECTION
  2
OBJECTS
  0
DICTIONARY
  5
9
330
0
100
AcDbDictionary
  3
ACAD_COLOR
350
2E
  3
ACAD_GROUP
350
2A
  3
ACAD_LAYOUT
350
D
  3
ACAD_MATERIAL
350
2D
  3
ACAD_MLINESTYLE
350
2B
  3
ACAD_PLOTSETTINGS
350
2C
  3
ACAD_PLOTSTYLENAME
350
8
  3
ACAD_TABLESTYLE
350
2F
  3
ACDBHEADERROUNDTRIPXREC
350
2ED
  3
ACDBVARIABLEDICTIONARY
350
1F3
  0
DICTIONARY
  5
3
330
2
100
AcDbDictionary
280
     1
  3
ACAD_LAYOUTSELFREF
360
30E
  3
ACAD_SORTENTS
360
1F2
  0
DICTIONARY
  5
290
330
E
100
AcDbDictionary
280
     1
  3
ACAD_LAYOUTSELFREF
360
30F
  0
DICTIONARY
  5
2E
102
{ACAD_REACTORS
330
9
102
}
330
9
100
AcDbDictionary
  0
DICTIONARY
  5
2A
102
{ACAD_REACTORS
330
9
102
}
330
9
100
AcDbDictionary
  0
DICTIONARY
  5
D
102
{ACAD_REACTORS
330
9
102
}
330
9
100
AcDbDictionary
  0
DICTIONARY
  5
2D
102
{ACAD_REACTORS
330
9
102
}
330
9
100
AcDbDictionary
  0
DICTIONARY
  5
2B
102
{ACAD_REACTORS
330
9
102
}
330
9
100
AcDbDictionary
  3
STANDARD
350
30
  0
DICTIONARY
  5
2C
102
{ACAD_REACTORS
330
9
102
}
330
9
100
AcDbDictionary
  0
ACDBDICTIONARYWDFLT
  5
8
102
{ACAD_REACTORS
330
9
102
}
330
9
100
AcDbDictionary
281
     1
  3
Normal
350
7
100
AcDbDictionaryWithDefault
340
7
  0
DICTIONARY
  5
2F
102
{ACAD_REACTORS
330
9
102
}
330
9
100
AcDbDictionary
  3
STANDARD
350
31
  0
DICTIONARY
  5
2ED
102
{ACAD_REACTORS
330
9
102
}
330
9
100
AcDbDictionary
  3
CEPSNTYPE
350
2F7
  3
DIMSTYLEDATA
350
2FB
  3
FINGERPRINTGUID
350
2F8
  3
HYPERLINKBASE
350
2F0
  3
INSUNITS
350
2F6
  3
LAYOUTDICT
350
2F2
  3
LWETCUNION
350
2F5
  3
PLOTSETDICT
350
2F3
  3
PLOTSTYLNAMDICT
350
2F4
  3
PSVPSCALE
350
2FA
  3
PUCSBASE
350
2FE
  3
PUCSORGBACK
350
304
  3
PUCSORGBOTTOM
350
300
  3
PUCSORGFRONT
350
303
  3
PUCSORGLEFT
350
301
  3
PUCSORGRIGHT
350
302
  3
PUCSORGTOP
350
2FF
  3
PUCSORTHOREF
350
2FC
  3
PUCSORTHOVIEW
350
2FD
  3
STYLESHEET
350
2F1
  3
TSTACKALIGN
350
2EE
  3
TSTACKSIZE
350
2EF
  3
UCSBASE
350
307
  3
UCSORGBACK
350
30D
  3
UCSORGBOTTOM
350
309
  3
UCSORGFRONT
350
30C
  3
UCSORGLEFT
350
30A
  3
UCSORGRIGHT
350
30B
  3
UCSORGTOP
350
308
  3
UCSORTHOREF
350
305
  3
UCSORTHOVIEW
350
306
  3
VERSIONGUID
350
2F9
  0
DICTIONARY
  5
1F3
102
{ACAD_REACTORS
330
9
102
}
330
9
100
AcDbDictionary
  3
CTABLESTYLE
350
1F4
  3
DIMASSOC
350
228
  3
HIDETEXT
350
227
  3
PROJECTNAME
350
229
  0
XRECORD
  5
30E
102
{ACAD_REACTORS
330
3
102
}
330
3
100
AcDbXrecord
340
2
  0
SORTENTSTABLE
  5
1F2
102
{ACAD_REACTORS
330
3
102
}
330
3
100
AcDbSortentsTable
330
2
  0
XRECORD
  5
30F
102
{ACAD_REACTORS
330
290
102
}
330
290
100
AcDbXrecord
340
E
  0
MLINESTYLE
  5
30
102
{ACAD_REACTORS
330
2B
102
}
330
2B
100
AcDbMlineStyle
  2
STANDARD
 70
     0
  3

 62
   256
 51
90.0
 52
90.0
 71
     2
 49
0.5
 62
   256
  6
BYLAYER
 49
-0.5
 62
   256
  6
BYLAYER
  0
ACDBPLACEHOLDER
  5
7
102
{ACAD_REACTORS
330
8
102
}
330
8
100
AcDbPlaceHolder
280
     0
  0
ACAD_PROXY_OBJECT
  5
31
102
{ACAD_REACTORS
330
2F
102
}
330
2F
100
AcDbProxyObject
 90
      499
 91
      525
 93
     1841
310
4214DD185B99185C9928B81E85EB51B8AE3F2E07A17AD46E2B8FC02B5E8DC0F42B1CFD028000000C1008070000C3001FDFF8000000C1003FBFF000000182007F7FE00000030400FEFFC00000060801FDFF8000000C1003FBFF00000018200000000000000681FA0B0000001820100E000186003FBFF000000182007F7FE000
310
00030400FEFFC00000060801FDFF8000000C1003FBFF000000182007F7FE000000304000AD7A3703D0AC73F4160000003040201C00030C007F7FE00000030400FEFFC00000060801FDFF8000000C1003FBFF000000182007F7FE00000030400FEFFC000000608000
340
14
340
14
340
14
 94
        0
1001
ACAD
1000
AcadProxyRoundTripData
1071
      524
1071
   851991
1070
     0
  0
XRECORD
  5
2F7
102
{ACAD_REACTORS
330
2ED
102
}
330
2ED
100
AcDbXrecord
 90
        0
  0
XRECORD
  5
2FB
102
{ACAD_REACTORS
330
2ED
102
}
330
2ED
100
AcDbXrecord
1000
DSTYLE
1002
{
1070
   276
 70
     1
1070
   277
 70
     5
1070
   341
340
21
1070
   342
340
21
1002
}
  0
XRECORD
  5
2F8
102
{ACAD_REACTORS
330
2ED
102
}
330
2ED
100
AcDbXrecord
  1
{500EA9DD-2B74-49D8-8594-D9E2BDB6AF09}
  0
XRECORD
  5
2F0
102
{ACAD_REACTORS
330
2ED
102
}
330
2ED
100
AcDbXrecord
  1

  0
XRECORD
  5
2F6
102
{ACAD_REACTORS
330
2ED
102
}
330
2ED
100
AcDbXrecord
 90
        1
  0
XRECORD
  5
2F2
102
{ACAD_REACTORS
330
2ED
102
}
330
2ED
100
AcDbXrecord
340
D
  0
XRECORD
  5
2F5
102
{ACAD_REACTORS
330
2ED
102
}
330
2ED
100
AcDbXrecord
 90
    10781
  0
XRECORD
  5
2F3
102
{ACAD_REACTORS
330
2ED
102
}
330
2ED
100
AcDbXrecord
340
2C
  0
XRECORD
  5
2F4
102
{ACAD_REACTORS
330
2ED
102
}
330
2ED
100
AcDbXrecord
340
8
  0
XRECORD
  5
2FA
102
{ACAD_REACTORS
330
2ED
102
}
330
2ED
100
AcDbXrecord
 40
0.0
  0
XRECORD
  5
2FE
102
{ACAD_REACTORS
330
2ED
102
}
330
2ED
100
AcDbXrecord
340
0
  0
XRECORD
  5
304
102
{ACAD_REACTORS
330
2ED
102
}
330
2ED
100
AcDbXrecord
 10
0.0
 20
0.0
 30
0.0
  0
XRECORD
  5
300
102
{ACAD_REACTORS
330
2ED
102
}
330
2ED
100
AcDbXrecord
 10
0.0
 20
0.0
 30
0.0
  0
XRECORD
  5
303
102
{ACAD_REACTORS
330
2ED
102
}
330
2ED
100
AcDbXrecord
 10
0.0
 20
0.0
 30
0.0
  0
XRECORD
  5
301
102
{ACAD_REACTORS
330
2ED
102
}
330
2ED
100
AcDbXrecord
 10
0.0
 20
0.0
 30
0.0
  0
XRECORD
  5
302
102
{ACAD_REACTORS
330
2ED
102
}
330
2ED
100
AcDbXrecord
 10
0.0
 20
0.0
 30
0.0
  0
XRECORD
  5
2FF
102
{ACAD_REACTORS
330
2ED
102
}
330
2ED
100
AcDbXrecord
 10
0.0
 20
0.0
 30
0.0
  0
XRECORD
  5
2FC
102
{ACAD_REACTORS
330
2ED
102
}
330
2ED
100
AcDbXrecord
340
0
  0
XRECORD
  5
2FD
102
{ACAD_REACTORS
330
2ED
102
}
330
2ED
100
AcDbXrecord
 70
     0
  0
XRECORD
  5
2F1
102
{ACAD_REACTORS
330
2ED
102
}
330
2ED
100
AcDbXrecord
  1

  0
XRECORD
  5
2EE
102
{ACAD_REACTORS
330
2ED
102
}
330
2ED
100
AcDbXrecord
 90
        1
  0
XRECORD
  5
2EF
102
{ACAD_REACTORS
330
2ED
102
}
330
2ED
100
AcDbXrecord
 90
       70
  0
XRECORD
  5
307
102
{ACAD_REACTORS
330
2ED
102
}
330
2ED
100
AcDbXrecord
340
0
  0
XRECORD
  5
30D
102
{ACAD_REACTORS
330
2ED
102
}
330
2ED
100
AcDbXrecord
 10
0.0
 20
0.0
 30
0.0
  0
XRECORD
  5
309
102
{ACAD_REACTORS
330
2ED
102
}
330
2ED
100
AcDbXrecord
 10
0.0
 20
0.0
 30
0.0
  0
XRECORD
  5
30C
102
{ACAD_REACTORS
330
2ED
102
}
330
2ED
100
AcDbXrecord
 10
0.0
 20
0.0
 30
0.0
  0
XRECORD
  5
30A
102
{ACAD_REACTORS
330
2ED
102
}
330
2ED
100
AcDbXrecord
 10
0.0
 20
0.0
 30
0.0
  0
XRECORD
  5
30B
102
{ACAD_REACTORS
330
2ED
102
}
330
2ED
100
AcDbXrecord
 10
0.0
 20
0.0
 30
0.0
  0
XRECORD
  5
308
102
{ACAD_REACTORS
330
2ED
102
}
330
2ED
100
AcDbXrecord
 10
0.0
 20
0.0
 30
0.0
  0
XRECORD
  5
305
102
{ACAD_REACTORS
330
2ED
102
}
330
2ED
100
AcDbXrecord
340
0
  0
XRECORD
  5
306
102
{ACAD_REACTORS
330
2ED
102
}
330
2ED
100
AcDbXrecord
 70
     0
  0
XRECORD
  5
2F9
102
{ACAD_REACTORS
330
2ED
102
}
330
2ED
100
AcDbXrecord
  1
{0D975010-C2E7-41CC-A5A6-35EF9726ACD8}
  0
DICTIONARYVAR
  5
1F4
102
{ACAD_REACTORS
330
1F3
102
}
330
1F3
100
DictionaryVariables
280
     0
  1
STANDARD
  0
DICTIONARYVAR
  5
228
102
{ACAD_REACTORS
330
1F3
102
}
330
1F3
100
DictionaryVariables
280
     0
  1
1
  0
DICTIONARYVAR
  5
227
102
{ACAD_REACTORS
330
1F3
102
}
330
1F3
100
DictionaryVariables
280
     0
  1
1
  0
DICTIONARYVAR
  5
229
102
{ACAD_REACTORS
330
1F3
102
}
330
1F3
100
DictionaryVariables
280
     0
  1

  0
ENDSEC
  0
EOF
