  0
SECTION
  2
HEADER
  9
$ACADVER
  1
AC1014
  9
$ACADMAINTVER
 70
     9
  9
$DWGCODEPAGE
  3
ANSI_1252
  9
$INSBASE
 10
4.1659915087
 20
7.200873084999999
 30
0.0
  9
$EXTMIN
 10
-31.96121321810199
 20
-6.300408555493874
 30
-0.0015258207003583
  9
$EXTMAX
 10
40.29319657194221
 20
35.70215492107162
 30
0.0000000349246037
  9
$LIMMIN
 10
0.0
 20
0.0
  9
$LIMMAX
 10
17.0
 20
11.0
  9
$ORTHOMODE
 70
     1
  9
$REGENMODE
 70
     1
  9
$FILLMODE
 70
     1
  9
$QTEXTMODE
 70
     0
  9
$MIRRTEXT
 70
     1
  9
$DRAGMODE
 70
     2
  9
$LTSCALE
 40
2.0
  9
$OSMODE
 70
    55
  9
$ATTMODE
 70
     1
  9
$TEXTSIZE
 40
0.2
  9
$TRACEWID
 40
0.05
  9
$TEXTSTYLE
  7
STANDARD
  9
$CLAYER
  8
0
  9
$CELTYPE
  6
BYLAYER
  9
$CECOLOR
 62
   256
  9
$CELTSCALE
 40
1.0
  9
$DELOBJ
 70
     1
  9
$DISPSILH
 70
     0
  9
$DIMSCALE
 40
1.0
  9
$DIMASZ
 40
0.1875
  9
$DIMEXO
 40
0.0625
  9
$DIMDLI
 40
0.38
  9
$DIMRND
 40
0.0
  9
$DIMDLE
 40
0.0
  9
$DIMEXE
 40
0.18
  9
$DIMTP
 40
0.0
  9
$DIMTM
 40
0.0
  9
$DIMTXT
 40
0.125
  9
$DIMCEN
 40
0.09
  9
$DIMTSZ
 40
0.0
  9
$DIMTOL
 70
     0
  9
$DIMLIM
 70
     0
  9
$DIMTIH
 70
     1
  9
$DIMTOH
 70
     1
  9
$DIMSE1
 70
     0
  9
$DIMSE2
 70
     0
  9
$DIMTAD
 70
     0
  9
$DIMZIN
 70
     4
  9
$DIMBLK
  1
_FILLED
  9
$DIMASO
 70
     1
  9
$DIMSHO
 70
     1
  9
$DIMPOST
  1

  9
$DIMAPOST
  1
cm
  9
$DIMALT
 70
     1
  9
$DIMALTD
 70
     2
  9
$DIMALTF
 40
2.54
  9
$DIMLFAC
 40
1.0
  9
$DIMTOFL
 70
     0
  9
$DIMTVP
 40
0.0
  9
$DIMTIX
 70
     0
  9
$DIMSOXD
 70
     0
  9
$DIMSAH
 70
     0
  9
$DIMBLK1
  1

  9
$DIMBLK2
  1

  9
$DIMSTYLE
  2
STANDARD
  9
$DIMCLRD
 70
     0
  9
$DIMCLRE
 70
     0
  9
$DIMCLRT
 70
     0
  9
$DIMTFAC
 40
1.0
  9
$DIMGAP
 40
0.09
  9
$DIMJUST
 70
     0
  9
$DIMSD1
 70
     0
  9
$DIMSD2
 70
     0
  9
$DIMTOLJ
 70
     1
  9
$DIMTZIN
 70
     4
  9
$DIMALTZ
 70
     0
  9
$DIMALTTZ
 70
     0
  9
$DIMFIT
 70
     3
  9
$DIMUPT
 70
     0
  9
$DIMUNIT
 70
     5
  9
$DIMDEC
 70
     4
  9
$DIMTDEC
 70
     4
  9
$DIMALTU
 70
     2
  9
$DIMALTTD
 70
     2
  9
$DIMTXSTY
  7
STANDARD
  9
$DIMAUNIT
 70
     0
  9
$LUNITS
 70
     2
  9
$LUPREC
 70
     4
  9
$SKETCHINC
 40
0.1
  9
$FILLETRAD
 40
0.0
  9
$AUNITS
 70
     0
  9
$AUPREC
 70
     0
  9
$MENU
  1
acad
  9
$ELEVATION
 40
0.0
  9
$PELEVATION
 40
0.0
  9
$THICKNESS
 40
0.0
  9
$LIMCHECK
 70
     0
  9
$BLIPMODE
 70
     0
  9
$CHAMFERA
 40
0.0
  9
$CHAMFERB
 40
0.0
  9
$CHAMFERC
 40
0.0
  9
$CHAMFERD
 40
0.0
  9
$SKPOLY
 70
     0
  9
$TDCREATE
 40
2453675.440412859
  9
$TDUPDATE
 40
2453685.506222164
  9
$TDINDWG
 40
0.0098011574
  9
$TDUSRTIMER
 40
0.0098011574
  9
$USRTIMER
 70
     1
  9
$ANGBASE
 50
0.0
  9
$ANGDIR
 70
     0
  9
$PDMODE
 70
     3
  9
$PDSIZE
 40
0.3125
  9
$PLINEWID
 40
0.0
  9
$COORDS
 70
     1
  9
$SPLFRAME
 70
     0
  9
$SPLINETYPE
 70
     6
  9
$SPLINESEGS
 70
     8
  9
$ATTDIA
 70
     0
  9
$ATTREQ
 70
     1
  9
$HANDLING
 70
 22529
  9
$HANDSEED
  5
24F
  9
$SURFTAB1
 70
     6
  9
$SURFTAB2
 70
     6
  9
$SURFTYPE
 70
     6
  9
$SURFU
 70
     6
  9
$SURFV
 70
     6
  9
$UCSNAME
  2

  9
$UCSORG
 10
0.0
 20
0.0
 30
0.0
  9
$UCSXDIR
 10
1.0
 20
0.0
 30
0.0
  9
$UCSYDIR
 10
0.0
 20
1.0
 30
0.0
  9
$PUCSNAME
  2

  9
$PUCSORG
 10
0.0
 20
0.0
 30
0.0
  9
$PUCSXDIR
 10
1.0
 20
0.0
 30
0.0
  9
$PUCSYDIR
 10
0.0
 20
1.0
 30
0.0
  9
$USERI1
 70
     0
  9
$USERI2
 70
     0
  9
$USERI3
 70
     0
  9
$USERI4
 70
     0
  9
$USERI5
 70
     0
  9
$USERR1
 40
0.0
  9
$USERR2
 40
0.0
  9
$USERR3
 40
0.0
  9
$USERR4
 40
0.0
  9
$USERR5
 40
0.0
  9
$WORLDVIEW
 70
     1
  9
$SHADEDGE
 70
     3
  9
$SHADEDIF
 70
    70
  9
$TILEMODE
 70
     1
  9
$MAXACTVP
 70
    16
  9
$PINSBASE
 10
0.0
 20
0.0
 30
0.0
  9
$PLIMCHECK
 70
     0
  9
$PEXTMIN
 10
1.000000000000000E+20
 20
1.000000000000000E+20
 30
1.000000000000000E+20
  9
$PEXTMAX
 10
-1.000000000000000E+20
 20
-1.000000000000000E+20
 30
-1.000000000000000E+20
  9
$PLIMMIN
 10
0.0
 20
0.0
  9
$PLIMMAX
 10
12.0
 20
9.0
  9
$UNITMODE
 70
     0
  9
$VISRETAIN
 70
     0
  9
$PLINEGEN
 70
     1
  9
$PSLTSCALE
 70
     0
  9
$TREEDEPTH
 70
  3020
  9
$PICKSTYLE
 70
     1
  9
$CMLSTYLE
  2
STANDARD
  9
$CMLJUST
 70
     0
  9
$CMLSCALE
 40
1.0
  9
$PROXYGRAPHICS
 70
     0
  9
$MEASUREMENT
 70
     0
  0
ENDSEC
  0
SECTION
  2
CLASSES
  0
CLASS
  1
ACDBDICTIONARYWDFLT
  2
AcDbDictionaryWithDefault
  3
AutoCAD 2000
 90
        0
280
     0
281
     0
  0
CLASS
  1
ACDBPLACEHOLDER
  2
AcDbPlaceHolder
  3
AutoCAD 2000
 90
        0
280
     0
281
     0
  0
CLASS
  1
LAYOUT
  2
AcDbLayout
  3
AutoCAD 2000
 90
        0
280
     0
281
     0
  0
CLASS
  1
LWPOLYLINE
  2
AcDbPolyline
  3
AutoCAD 2000
 90
        0
280
     0
281
     1
  0
CLASS
  1
IMAGE
  2
AcDbRasterImage
  3
ISM
 90
      127
280
     1
281
     1
  0
CLASS
  1
OLE2FRAME
  2
AcDbOle2Frame
  3
AutoCAD 2000
 90
        0
280
     0
281
     1
  0
CLASS
  1
HATCH
  2
AcDbHatch
  3
AutoCAD 2000
 90
        0
280
     0
281
     1
  0
CLASS
  1
DICTIONARYVAR
  2
AcDbDictionaryVar
  3
AutoCAD 2000
 90
        0
280
     0
281
     0
  0
CLASS
  1
RASTERVARIABLES
  2
AcDbRasterVariables
  3
ISM
 90
        0
280
     1
281
     0
  0
CLASS
  1
IMAGEDEF
  2
AcDbRasterImageDef
  3
ISM
 90
        0
280
     1
281
     0
  0
CLASS
  1
IMAGEDEF_REACTOR
  2
AcDbRasterImageDefReactor
  3
ISM
 90
        1
280
     1
281
     0
  0
CLASS
  1
IDBUFFER
  2
AcDbIdBuffer
  3
AutoCAD 2000
 90
        0
280
     0
281
     0
  0
CLASS
  1
SPATIAL_FILTER
  2
AcDbSpatialFilter
  3
AutoCAD 2000
 90
        0
280
     0
281
     0
  0
CLASS
  1
XRECORD
  2
AcDbXrecord
  3
AutoCAD 2000
 90
        0
280
     0
281
     0
  0
CLASS
  1
SORTENTSTABLE
  2
AcDbSortentsTable
  3
AutoCAD 2000
 90
        0
280
     0
281
     0
  0
CLASS
  1
LAYER_INDEX
  2
AcDbLayerIndex
  3
AutoCAD 2000
 90
        0
280
     0
281
     0
  0
CLASS
  1
SPATIAL_INDEX
  2
AcDbSpatialIndex
  3
AutoCAD 2000
 90
        0
280
     0
281
     0
  0
CLASS
  1
OBJECT_PTR
  2
CAseDLPNTableRecord
  3
ASE-LPNTableRecord
 90
        1
280
     1
281
     0
  0
CLASS
  1
PLOTSETTINGS
  2
AcDbPlotSettings
  3
AutoCAD 2000
 90
        0
280
     0
281
     0
  0
CLASS
  1
VBA_PROJECT
  2
AcDbVbaProject
  3
acadvba
 90
        0
280
     0
281
     0
  0
CLASS
  1
WIPEOUT
  2
AcDbWipeout
  3
"WipeOut|Product Desc: Object Enabler for WipeOut entity^I^I^I^I^I^I|Company: Autodesk, Inc.^I^I^I^I^I^I|WEB Address: www.autodesk.com"
 90
      127
280
     1
281
     1
  0
CLASS
  1
WIPEOUTVARIABLES
  2
AcDbWipeoutVariables
  3
"WipeOut|Product Desc:     WipeOut Dbx Application|Company:          Autodesk, Inc.|WEB Address:      www.autodesk.com"
 90
        0
280
     1
281
     0
  0
CLASS
  1
RTEXT
  2
RText
  3
RText|AutoCAD Express Tool|expresstools@autodesk.com
 90
        0
280
     1
281
     1
  0
CLASS
  1
ARCALIGNEDTEXT
  2
AcDbArcAlignedText
  3
ATEXT|AutoCAD Express Tool|expresstools@autodesk.com
 90
        0
280
     1
281
     1
  0
CLASS
  1
TABLESTYLE
  2
AcDbTableStyle
  3
ObjectDBX Classes
 90
     2047
280
     0
281
     0
  0
CLASS
  1
ACAD_PROXY_OBJECT_WRAPPER
  2
AcDbProxyObjectWrapper
  3
AutoCAD 2000
 90
        0
280
     0
281
     0
  0
CLASS
  1
LONG_TRANSACTION
  2
AcDbLongTransaction
  3
AutoCAD 2000
 90
        0
280
     0
281
     0
  0
CLASS
  1
LWPOLYLINE
  2
AcDbPolyline
  3
AutoCAD 2000
 90
        0
280
     0
281
     1
  0
CLASS
  1
HATCH
  2
AcDbHatch
  3
AutoCAD 2000
 90
        0
280
     0
281
     1
  0
CLASS
  1
XRECORD
  2
AcDbXrecord
  3
AutoCAD 2000
 90
        0
280
     0
281
     0
  0
CLASS
  1
LONG_TRANSACTION
  2
AcDbLongTransaction
  3
AutoCAD 2000
 90
        0
280
     0
281
     0
  0
CLASS
  1
LWPOLYLINE
  2
AcDbPolyline
  3
AutoCAD 2000
 90
        0
280
     0
281
     1
  0
CLASS
  1
HATCH
  2
AcDbHatch
  3
AutoCAD 2000
 90
        0
280
     0
281
     1
  0
CLASS
  1
XRECORD
  2
AcDbXrecord
  3
AutoCAD 2000
 90
        0
280
     0
281
     0
  0
ENDSEC
  0
SECTION
  2
TABLES
  0
TABLE
  2
VPORT
  5
1B
330
0
100
AcDbSymbolTable
 70
     3
  0
VPORT
  5
22B
330
1B
100
AcDbSymbolTableRecord
100
AcDbViewportTableRecord
  2
*ACTIVE
 70
     0
 10
0.0
 20
0.0
 11
1.0
 21
1.0
 12
4.16599150535869
 22
14.70087316830865
 13
0.0
 23
0.0
 14
1.0
 24
1.0
 15
0.0
 25
0.0
 16
0.0
 26
0.0
 36
1.0
 17
0.0
 27
0.0
 37
0.0
 40
49.69828733081874
 41
1.786792452830188
 42
50.0
 43
0.0
 44
0.0
 50
0.0
 51
0.0
 71
     0
 72
   100
 73
     1
 74
     1
 75
     0
 76
     0
 77
     0
 78
     0
  0
ENDTAB
  0
TABLE
  2
LTYPE
  5
16
330
0
100
AcDbSymbolTable
 70
     2
  0
LTYPE
  5
17
330
16
100
AcDbSymbolTableRecord
100
AcDbLinetypeTableRecord
  2
BYBLOCK
 70
     0
  3

 72
    65
 73
     0
 40
0.0
  0
LTYPE
  5
18
330
16
100
AcDbSymbolTableRecord
100
AcDbLinetypeTableRecord
  2
BYLAYER
 70
     0
  3

 72
    65
 73
     0
 40
0.0
  0
LTYPE
  5
A
330
16
100
AcDbSymbolTableRecord
100
AcDbLinetypeTableRecord
  2
CONTINUOUS
 70
     0
  3
Solid line
 72
    65
 73
     0
 40
0.0
  0
LTYPE
  5
BB
330
16
100
AcDbSymbolTableRecord
100
AcDbLinetypeTableRecord
  2
CENTER
 70
     0
  3
____ _ ____ _ ____ _ ____ _ ____ _ ____ _ ____
 72
    65
 73
     4
 40
0.6
 49
0.375
 74
     0
 49
-0.075
 74
     0
 49
0.075
 74
     0
 49
-0.075
 74
     0
  0
ENDTAB
  0
TABLE
  2
LAYER
  5
12
330
0
100
AcDbSymbolTable
 70
     3
  0
LAYER
  5
6
330
12
100
AcDbSymbolTableRecord
100
AcDbLayerTableRecord
  2
0
 70
     0
 62
     7
  6
CONTINUOUS
  0
LAYER
  5
BA
330
12
100
AcDbSymbolTableRecord
100
AcDbLayerTableRecord
  2
CENTER
 70
     0
 62
     1
  6
CENTER
  0
LAYER
  5
1A3
330
12
100
AcDbSymbolTableRecord
100
AcDbLayerTableRecord
  2
DEFPOINTS
 70
     0
 62
     7
  6
CONTINUOUS
  0
ENDTAB
  0
TABLE
  2
STYLE
  5
13
330
0
100
AcDbSymbolTable
 70
     1
  0
STYLE
  5
14
330
13
100
AcDbSymbolTableRecord
100
AcDbTextStyleTableRecord
  2
STANDARD
 70
     0
 40
0.0
 41
0.8
 50
0.0
 71
     0
 42
0.2
  3
txt
  4

  0
ENDTAB
  0
TABLE
  2
VIEW
  5
19
330
0
100
AcDbSymbolTable
 70
     0
  0
ENDTAB
  0
TABLE
  2
UCS
  5
1A
330
0
100
AcDbSymbolTable
 70
     0
  0
ENDTAB
  0
TABLE
  2
APPID
  5
1D
330
0
100
AcDbSymbolTable
 70
     2
  0
APPID
  5
1E
330
1D
100
AcDbSymbolTableRecord
100
AcDbRegAppTableRecord
  2
ACAD
 70
     0
  0
APPID
  5
16E
330
1D
100
AcDbSymbolTableRecord
100
AcDbRegAppTableRecord
  2
ACAD_DSTYLE_DIMTEXT_FILL
 70
     0
  0
ENDTAB
  0
TABLE
  2
DIMSTYLE
  5
1F
330
0
100
AcDbSymbolTable
 70
     1
  0
DIMSTYLE
105
20
330
1F
100
AcDbSymbolTableRecord
100
AcDbDimStyleTableRecord
  2
STANDARD
 70
     0
  3

  4
cm
  5
_FILLED
  6

  7

 40
1.0
 41
0.1875
 42
0.0625
 43
0.38
 44
0.18
 45
0.0
 46
0.0
 47
0.0
 48
0.0
140
0.125
141
0.09
142
0.0
143
2.54
144
1.0
145
0.0
146
1.0
147
0.09
 71
     0
 72
     0
 73
     1
 74
     1
 75
     0
 76
     0
 77
     0
 78
     4
170
     1
171
     2
172
     0
173
     0
174
     0
175
     0
176
     0
177
     0
178
     0
270
     5
271
     4
272
     4
273
     2
274
     2
340
14
275
     0
280
     0
281
     0
282
     0
283
     1
284
     4
285
     0
286
     0
287
     3
288
     0
  0
ENDTAB
  0
TABLE
  2
BLOCK_RECORD
  5
1
330
0
100
AcDbSymbolTable
 70
     2
  0
BLOCK_RECORD
  5
2
102
{ACAD_XDICTIONARY
360
3
102
}
330
1
100
AcDbSymbolTableRecord
100
AcDbBlockTableRecord
  2
*MODEL_SPACE
  0
BLOCK_RECORD
  5
E
102
{ACAD_XDICTIONARY
360
1E0
102
}
330
1
100
AcDbSymbolTableRecord
100
AcDbBlockTableRecord
  2
*PAPER_SPACE
  0
BLOCK_RECORD
  5
21
330
1
100
AcDbSymbolTableRecord
100
AcDbBlockTableRecord
  2
_FILLED
  0
ENDTAB
  0
ENDSEC
  0
SECTION
  2
BLOCKS
  0
BLOCK
  5
5
330
2
100
AcDbEntity
  8
0
100
AcDbBlockBegin
  2
*MODEL_SPACE
 70
     0
 10
0.0
 20
0.0
 30
0.0
  3
*MODEL_SPACE
  1

  0
ENDBLK
  5
B
330
2
100
AcDbEntity
  8
0
100
AcDbBlockEnd
  0
BLOCK
  5
F
330
E
100
AcDbEntity
 67
     1
  8
0
100
AcDbBlockBegin
  2
*PAPER_SPACE
 70
     0
 10
0.0
 20
0.0
 30
0.0
  3
*PAPER_SPACE
  1

  0
ENDBLK
  5
10
330
E
100
AcDbEntity
 67
     1
  8
0
100
AcDbBlockEnd
  0
BLOCK
  5
22
330
21
100
AcDbEntity
  8
0
100
AcDbBlockBegin
  2
_FILLED
 70
     0
 10
0.0
 20
0.0
 30
0.0
  3
_FILLED
  1

  0
SOLID
  5
23
330
21
100
AcDbEntity
  8
0
  6
BYBLOCK
 62
     0
100
AcDbTrace
 10
0.0
 20
0.0
 30
0.0
 11
-1.0
 21
0.1666666667
 31
0.0
 12
-1.0
 22
-0.1666666667
 32
0.0
 13
-1.0
 23
-0.1666666667
 33
0.0
  0
ENDBLK
  5
24
330
21
100
AcDbEntity
  8
0
  6
BYBLOCK
 62
     0
100
AcDbBlockEnd
  0
ENDSEC
  0
SECTION
  2
ENTITIES
  0
LWPOLYLINE
  5
32
330
2
100
AcDbEntity
  8
0
100
AcDbPolyline
 90
       24
 70
     0
 43
0.0
 10
-13.2823951009
 20
-1.131105441399995
 10
-13.5710098833
 20
-1.092863214199994
 10
-13.8590177137
 20
-1.049806159799999
 10
-14.1463311425
 20
-1.001962042999991
 10
-14.4328627201
 20
-0.9493586333999957
 10
-14.7185249969
 20
-0.8920236973999919
 10
-15.0032305249
 20
-0.82998500139999
 10
-15.2868918545
 20
-0.7632703165999999
 10
-15.5694215361
 20
-0.6919074078000023
 10
-15.8212934449
 20
-0.6240974429999966
 10
-16.0721090161
 20
-0.5525478253999978
 10
-16.3217887665
 20
-0.4772212429999883
 10
-16.5702532081
 20
-0.3980803741999921
 10
-16.8174228577
 20
-0.3150879053999915
 10
-17.0632182305
 20
-0.2282065181999968
 10
-17.3075598401
 20
-0.1373988941999897
 10
-17.5503682033
 20
-0.0426277197999951
 10
-17.79269168969999
 20
0.0566172914000021
 10
-18.0333066625
 20
0.1599386514000116
 10
-18.2721325153
 20
0.2673742050000101
 10
-18.5090886369
 20
0.3789617986000024
 10
-18.7440944193
 20
0.4947392770000079
 10
-18.9770692545
 20
0.6147444818000026
 10
-19.2079325313
 20
0.739015262600006
  0
LWPOLYLINE
  5
33
330
2
100
AcDbEntity
  8
0
100
AcDbPolyline
 90
       28
 70
     0
 43
0.0
 10
20.96769454069999
 20
-1.131105441399995
 10
21.27009396789999
 20
-1.090943951799999
 10
21.57188501429999
 20
-1.045534834999997
 10
21.87295166709999
 20
-0.9948893645999987
 10
22.17317791989999
 20
-0.9390188157999972
 10
22.47244776149999
 20
-0.8779344605999881
 10
22.7706451823
 20
-0.8116475725999947
 10
23.0676541711
 20
-0.7401694269999979
 10
23.36335871989999
 20
-0.6635112957999923
 10
23.65764281909999
 20
-0.5816844542000013
 10
23.95039045749999
 20
-0.4947001741999913
 10
24.2037085167
 20
-0.4148389837999958
 10
24.4556908367
 20
-0.3310412877999909
 10
24.7062521247
 20
-0.2432647645999992
 10
24.95530709269999
 20
-0.1514670894000005
 10
25.20277044789999
 20
-0.0556059389999888
 10
25.44855690069999
 20
0.0443610065999991
 10
25.6925811615
 20
0.1484760737999977
 10
25.93866874069999
 20
0.2585723346000037
 10
26.18275893749999
 20
0.3730404354000001
 10
26.42476224469999
 20
0.4919247954000099
 10
26.6645891535
 20
0.6152698273999988
 10
26.9021501599
 20
0.7431199458000038
 10
27.1373557551
 20
0.8755195682000049
 10
27.3701164335
 20
1.01251310740001
 10
27.60034268949999
 20
1.154144981000001
 10
27.8279450127
 20
1.3004596018
 10
28.05283390069999
 20
1.4515013858
  0
LWPOLYLINE
  5
34
330
2
100
AcDbEntity
  8
0
100
AcDbPolyline
 90
       24
 70
     0
 43
0.0
 10
26.74939568949999
 20
28.74079202899999
 10
26.5235884927
 20
28.85897760179999
 10
26.2958008911
 20
28.9732259762
 10
26.0661094399
 20
29.08356090420001
 10
25.8345906943
 20
29.19000613300001
 10
25.6013212079
 20
29.29258541619999
 10
25.3663775375
 20
29.3913225042
 10
25.1298362367
 20
29.48624114420001
 10
24.8869970879
 20
29.5791492274
 10
24.6426566463
 20
29.66813449460001
 10
24.39689615349999
 20
29.75322215219999
 10
24.14979685109999
 20
29.8344374066
 10
23.9014399791
 20
29.91180545780001
 10
23.6519067775
 20
29.98535151380001
 10
23.4012784911
 20
30.0551007778
 10
23.1496363567
 20
30.121078453
 10
22.8970616191
 20
30.1833097458
 10
22.6436355183
 20
30.24181985779999
 10
22.3894392927
 20
30.296633997
 10
22.1065880207
 20
30.3531419458
 10
21.8229383023
 20
30.405074325
 10
21.5385397455
 20
30.45237449139999
 10
21.2534419551
 20
30.49498580180001
 10
20.96769454069999
 20
30.532851613
  0
LWPOLYLINE
  5
35
330
2
100
AcDbEntity
  8
0
100
AcDbPolyline
 90
       28
 70
     0
 43
0.0
 10
-13.2823951009
 20
30.532851613
 10
-13.5805659633
 20
30.49330469940001
 10
-13.8780999553
 20
30.4486866978
 10
-14.1749050113
 20
30.39899486419999
 10
-14.4708890625
 20
30.34422645619999
 10
-14.7659600417
 20
30.28437872659999
 10
-15.0600258833
 20
30.21944893300001
 10
-15.3529945169
 20
30.1494343314
 10
-15.6447738753
 20
30.0743321778
 10
-15.9352718945
 20
29.99413972820001
 10
-16.2243965025
 20
29.9088542386
 10
-16.49547747529999
 20
29.8238258594
 10
-16.7651292769
 20
29.73424128500001
 10
-17.0332238449
 20
29.64006857779999
 10
-17.2996331201
 20
29.54127579700001
 10
-17.5642290449
 20
29.43783100340001
 10
-17.8268835569
 20
29.3297022578
 10
-18.0874685969
 20
29.21685762260001
 10
-18.3458561057
 20
29.0992651554
 10
-18.6019180225
 20
28.976892917
 10
-18.8555262881
 20
28.8497089698
 10
-19.1065528433
 20
28.71768137299999
 10
-19.3548696257
 20
28.58077818740001
 10
-19.5675605121
 20
28.45829312179999
 10
-19.7780413249
 20
28.33210909619999
 10
-19.9862289665
 20
28.20220538740001
 10
-20.19204034409999
 20
28.0685612706
 10
-20.3953923617
 20
27.9311560194
  0
LWPOLYLINE
  5
36
330
2
100
AcDbEntity
  8
0
100
AcDbPolyline
 90
       34
 70
     0
 43
0.0
 10
-30.7345082945
 20
14.70087308499999
 10
-30.7160886513
 20
13.855887213
 10
-30.6621111233
 20
13.03996876659999
 10
-30.5743668209
 20
12.252081853
 10
-30.4544044785
 20
11.4908267762
 10
-30.3035149873
 20
10.7547828226
 10
-30.1226741441
 20
10.0422627474
 10
-29.9127931345
 20
9.352305694600005
 10
-29.6747529425
 20
8.684395768200005
 10
-29.4091754081
 20
8.037704011400009
 10
-29.1168150657
 20
7.412118032199998
 10
-28.7980689121
 20
6.807092308999997
 10
-28.4526292209
 20
6.22115754100001
 10
-28.0797622273
 20
5.652755051400006
 10
-27.6790033313
 20
5.101269371400007
 10
-27.2505308977
 20
4.567266331400006
 10
-26.7940271425
 20
4.050849216200006
 10
-26.3094454449
 20
3.552561611400008
 10
-25.7961838257
 20
3.072580003400005
 10
-25.2510601169
 20
2.609055011400002
 10
-24.6730245025
 20
2.162433414600002
 10
-24.0659208753
 20
1.736933974600006
 10
-23.4278453041
 20
1.332527598600009
 10
-22.7529679953
 20
0.9471035314000033
 10
-22.0417547889
 20
0.5827899378000013
 10
-21.2936013169
 20
0.2412237202000114
 10
-20.5004521185
 20
-0.0789503597999897
 10
-19.6516535889
 20
-0.3789925165999932
 10
-18.7440091889
 20
-0.6565323453999952
 10
-17.7704894961
 20
-0.9096993901999894
 10
-16.7168336705
 20
-1.137633399799995
 10
-15.5734749777
 20
-1.33702822219999
 10
-14.3277719601
 20
-1.504046945399991
 10
-12.9590084913
 20
-1.634497057399997
  0
LINE
  5
37
330
2
100
AcDbEntity
  8
0
100
AcDbLine
 10
-31.9590084913
 20
-5.801029564599998
 30
0.0
 11
-31.9590084913
 21
35.20277573619999
 31
0.0
  0
LWPOLYLINE
  5
38
330
2
100
AcDbEntity
  8
0
100
AcDbPolyline
 90
       34
 70
     0
 43
0.0
 10
-30.7345082945
 20
14.70087308499999
 10
-30.7160886513
 20
15.5458589586
 10
-30.6621111233
 20
16.36177740499999
 10
-30.5743668209
 20
17.149664317
 10
-30.4544044785
 20
17.9109193954
 10
-30.3035149873
 20
18.646963349
 10
-30.1226741441
 20
19.3594834242
 10
-29.9127931345
 20
20.049440477
 10
-29.6747529425
 20
20.7173504034
 10
-29.4091754081
 20
21.36404216020001
 10
-29.1168150657
 20
21.98962813940001
 10
-28.7980689121
 20
22.5946538626
 10
-28.4526292209
 20
23.18058863060001
 10
-28.0797622273
 20
23.74899112020001
 10
-27.6790033313
 20
24.3004768002
 10
-27.2505308977
 20
24.83447984020001
 10
-26.7940271425
 20
25.35089695540001
 10
-26.3094454449
 20
25.84918456020001
 10
-25.7961838257
 20
26.32916616820001
 10
-25.2510601169
 20
26.79269116019999
 10
-24.6730245025
 20
27.239312757
 10
-24.0659208753
 20
27.66481219700001
 10
-23.4278453041
 20
28.06921857300001
 10
-22.7529679953
 20
28.45464263859999
 10
-22.0417547889
 20
28.81895623379999
 10
-21.2936013169
 20
29.16052245140001
 10
-20.5004521185
 20
29.4806965314
 10
-19.6516535889
 20
29.7807386882
 10
-18.7440091889
 20
30.058278517
 10
-17.7704894961
 20
30.3114455618
 10
-16.7168336705
 20
30.5393795714
 10
-15.5734749777
 20
30.7387743938
 10
-14.3277719601
 20
30.90579311700001
 10
-12.9590084913
 20
31.03624322899999
  0
LWPOLYLINE
  5
39
330
2
100
AcDbEntity
  8
0
100
AcDbPolyline
 90
       22
 70
     0
 43
0.0
 10
-24.5162718145
 20
14.70087308499999
 10
-24.5143935505
 20
14.59678445299999
 10
-24.5089285473
 20
14.4968459522
 10
-24.5002093793
 20
14.40254796820001
 10
-24.4884192689
 20
14.3134897842
 10
-24.4732588129
 20
14.226819093
 10
-24.4544438817
 20
14.1412800898
 10
-24.4321979921
 20
14.0585545602
 10
-24.4064592769
 20
13.9790098562
 10
-24.3766333665
 20
13.9016529442
 10
-24.3422994641
 20
13.8265149746
 10
-24.3035876481
 20
13.7549833746
 10
-24.2639764209
 20
13.6933233202
 10
-24.2276065489
 20
13.6459651602
 10
-24.1932215521
 20
13.61026769939999
 10
-24.1567503713
 20
13.58214597780001
 10
-24.1152281105
 20
13.5599848402
 10
-24.0682196161
 20
13.5431097858
 10
-24.0163412625
 20
13.52895239220001
 10
-23.9596039297
 20
13.5164178546
 10
-23.8978178817
 20
13.5041861762
 10
-23.7569933009
 20
13.477611197
  0
LINE
  5
3A
330
2
100
AcDbEntity
  8
0
100
AcDbLine
 10
-24.3229884753
 20
14.6951621986
 30
0.0
 11
-24.3230125409
 21
14.700873085
 31
0.0
  0
LINE
  5
3B
330
2
100
AcDbEntity
  8
0
100
AcDbLine
 10
-24.3229884753
 20
14.70658397300001
 30
0.0
 11
-24.3230125409
 21
14.700873085
 31
0.0
  0
LWPOLYLINE
  5
3C
330
2
100
AcDbEntity
  8
0
100
AcDbPolyline
 90
       21
 70
     0
 43
0.0
 10
-24.5162718145
 20
14.70087308499999
 10
-24.5143935217
 20
14.80496253940001
 10
-24.5089284321
 20
14.9049017794
 10
-24.5002091313
 20
14.99920041300001
 10
-24.4884188353
 20
15.0882592114
 10
-24.47325813129999
 20
15.174930541
 10
-24.4544428913
 20
15.2604701426
 10
-24.4321966433
 20
15.34319618100001
 10
-24.4064574929
 20
15.422741365
 10
-24.3766310481
 20
15.5000987522
 10
-24.3422965297
 20
15.57523710259999
 10
-24.3035841841
 20
15.64676866900001
 10
-24.2639727505
 20
15.7084280786
 10
-24.2276028529
 20
15.7557853458
 10
-24.1932175649
 20
15.79148206580001
 10
-24.1567456673
 20
15.81960325300001
 10
-24.1152224177
 20
15.84176379219999
 10
-24.0682128625
 20
15.85863846259999
 10
-24.0163334081
 20
15.8727956866
 10
-23.95959488169999
 20
15.8853301714
 10
-23.8978075057
 20
15.89756199380001
  0
LWPOLYLINE
  5
3D
330
2
100
AcDbEntity
  8
0
100
AcDbPolyline
 90
       21
 70
     0
 43
0.0
 10
-22.1060194929
 20
14.7008729954
 10
-22.1056902977
 20
14.64166624660001
 10
-22.1047952977
 20
14.5827946434
 10
-22.1033554945
 20
14.52426678900001
 10
-22.1013918929
 20
14.4660912818
 10
-22.0989244289
 20
14.408270973
 10
-22.0959687713
 20
14.3507856914
 10
-22.0925395265
 20
14.2936095122
 10
-22.0886512961
 20
14.2367165122
 10
-22.0827761489
 20
14.1612574114
 10
-22.0761329505
 20
14.0862094338
 10
-22.0687436609
 20
14.0115263634
 10
-22.0606284641
 20
13.9371616402
 10
-22.0518004449
 20
13.863067349
 10
-22.0422709137
 20
13.7891952354
 10
-22.0320508913
 20
13.7155028738
 10
-22.02115024969999
 20
13.6419711762
 10
-22.0095785697
 20
13.5685868818
 10
-21.9973447889
 20
13.49533939700001
 10
-21.9844552513
 20
13.4222287842
 10
-21.9709156577
 20
13.3492577666
  0
LWPOLYLINE
  5
3E
330
2
100
AcDbEntity
  8
0
100
AcDbPolyline
 90
       20
 70
     0
 43
0.0
 10
-21.9709155281
 20
16.052489085
 10
-21.98430464009999
 20
15.98034785299999
 10
-21.99707787529999
 20
15.90795747540001
 10
-22.0092251041
 20
15.83533405780001
 10
-22.0207366353
 20
15.7624817698
 10
-22.0316045361
 20
15.6893570082
 10
-22.0418213137
 20
15.61590423380001
 10
-22.0513772465
 20
15.542075573
 10
-22.0602537009
 20
15.4678538162
 10
-22.06842981129999
 20
15.3932294242
 10
-22.0758838097
 20
15.31819109140001
 10
-22.0825903057
 20
15.2427204562
 10
-22.0885229985
 20
15.16679740020001
 10
-22.0936540513
 20
15.09040247060001
 10
-22.0979494561
 20
15.01351891859999
 10
-22.1013736689
 20
14.9361306658
 10
-22.1033480337
 20
14.877750093
 10
-22.10479321769999
 20
14.8190788066
 10
-22.1056900833
 20
14.7601190322
 10
-22.1060194929
 20
14.7008729954
  0
LWPOLYLINE
  5
3F
330
2
100
AcDbEntity
  8
0
100
AcDbPolyline
 90
       49
 70
     0
 43
0.0
 10
-20.7323393409
 20
23.55784039539999
 10
-20.7125148097
 20
23.6467755986
 10
-20.6911806593
 20
23.73660642419999
 10
-20.6682834081
 20
23.82732806580001
 10
-20.6437766161
 20
23.9189138258
 10
-20.6176420257
 20
24.01124944340002
 10
-20.5898684241
 20
24.10419876979999
 10
-20.5604422241
 20
24.19763952980001
 10
-20.5293403377
 20
24.29150495380001
 10
-20.4965373073
 20
24.38574215059999
 10
-20.4620143665
 20
24.48028516980001
 10
-20.4257795393
 20
24.5750158434
 10
-20.3878475505
 20
24.66980293940001
 10
-20.3482275521
 20
24.76453330260001
 10
-20.3069064273
 20
24.85916606740001
 10
-20.2638654865
 20
24.95367843379999
 10
-20.2190873057
 20
25.048044509
 10
-20.1725595121
 20
25.14222598900001
 10
-20.1242709937
 20
25.23618147380001
 10
-20.0742068033
 20
25.32987612980001
 10
-20.0223366785
 20
25.4233013858
 10
-19.9686265137
 20
25.51645523700001
 10
-19.9130416465
 20
25.6093339858
 10
-19.8555451265
 20
25.70192715380001
 10
-19.7960994449
 20
25.7942225698
 10
-19.7346668497
 20
25.88620641780001
 10
-19.6712086577
 20
25.97785830900001
 10
-19.6056859457
 20
26.069156213
 10
-19.5380620369
 20
26.16007348180001
 10
-19.4683092193
 20
26.25056500980001
 10
-19.3964020257
 20
26.34058107380001
 10
-19.3223235729
 20
26.4300633026
 10
-19.24609131529999
 20
26.5189187282
 10
-19.1677312865
 20
26.60704573139999
 10
-19.08726580329999
 20
26.6943486018
 10
-19.0047022881
 20
26.78075526260001
 10
-18.9200444385
 20
26.8661995474
 10
-18.8333112113
 20
26.950604125
 10
-18.7445825777
 20
27.033847005
 10
-18.6539537681
 20
27.11579503700001
 10
-18.5615108145
 20
27.196327261
 10
-18.4673029697
 20
27.2753714722
 10
-18.3713702945
 20
27.35286765780001
 10
-18.2737672113
 20
27.42874845460001
 10
-18.1746056273
 20
27.50291710899999
 10
-18.0740118113
 20
27.57526951379999
 10
-17.9720924513
 20
27.64571837780001
 10
-17.86887588649999
 20
27.71424365779999
 10
-17.7643708641
 20
27.7808421266
  0
LWPOLYLINE
  5
40
330
2
100
AcDbEntity
  8
0
100
AcDbPolyline
 90
       11
 70
     0
 43
0.0
 10
-21.22378087369999
 20
11.19012104020001
 10
-21.2851382049
 20
11.4313845922
 10
-21.3613176641
 20
11.66775472500001
 10
-21.4578724353
 20
11.9139626706
 10
-21.56664126249999
 20
12.1543333154
 10
-21.6693496241
 20
12.3677697266
 10
-21.7569458689
 20
12.5557282834
 10
-21.8293898801
 20
12.7324237954
 10
-21.8900690481
 20
12.916495021
 10
-21.9440418465
 20
13.1251846146
 10
-21.9925301841
 20
13.36213757939999
  0
LWPOLYLINE
  5
41
330
2
100
AcDbEntity
  8
0
100
AcDbPolyline
 90
       93
 70
     0
 43
0.0
 10
-21.22380964009999
 20
11.1901795186
 10
-21.1866705969
 20
11.03024432979999
 10
-21.1473775857
 20
10.8692762242
 10
-21.1058925457
 20
10.707501453
 10
-21.0621815441
 20
10.54514898580001
 10
-21.0162186769
 20
10.3824630098
 10
-20.9680255409
 20
10.2198296194
 10
-20.9176562369
 20
10.0576967538
 10
-20.8651775233
 20
9.896497790600008
 10
-20.8105935265
 20
9.736431547400002
 10
-20.7537663617
 20
9.577270088200009
 10
-20.6945369377
 20
9.418756352200006
 10
-20.6331970577
 20
9.261816533000001
 10
-20.5703792129
 20
9.108043440200006
 10
-20.5063443841
 20
8.957913104200002
 10
-20.4411039633
 20
8.811268085000008
 10
-20.3746862897
 20
8.668003638599998
 10
-20.3071117777
 20
8.528007596999998
 10
-20.2384354417
 20
8.391246584200004
 10
-20.1686262129
 20
8.257524958600001
 10
-20.0987355809
 20
8.1286299522
 10
-20.0301141041
 20
8.00661048660001
 10
-19.9626720929
 20
7.890798057799997
 10
-19.8959830321
 20
7.7800535314
 10
-19.8298343073
 20
7.673709419399997
 10
-19.7640443697
 20
7.571217152200006
 10
-19.6984762801
 20
7.472154864200007
 10
-19.63300647209999
 20
7.376164361800007
 10
-19.5675324145
 20
7.2829539202
 10
-19.5019615889
 20
7.192274845
 10
-19.4362142929
 20
7.103920190600007
 10
-19.3701974865
 20
7.0176863378
 10
-19.3038628401
 20
6.933445992200006
 10
-19.2370512641
 20
6.850950041800004
 10
-19.1698336177
 20
6.770246857800003
 10
-19.1019991825
 20
6.691058059400006
 10
-19.0302407841
 20
6.609662793799998
 10
-18.9500251873
 20
6.521402504200011
 10
-18.8623304833
 20
6.427981809800002
 10
-18.7707565329
 20
6.333601416200011
 10
-18.6757304401
 20
6.23883565940001
 10
-18.5767366897
 20
6.143287897800007
 10
-18.4733933921
 20
6.046728142600002
 10
-18.36514834409999
 20
5.948795096200001
 10
-18.2512687713
 20
5.849004259400004
 10
-18.13036027689999
 20
5.746354745800005
 10
-18.0032476817
 20
5.641730854599998
 10
-17.8804413281
 20
5.543513153800006
 10
-17.7702974785
 20
5.457555201800005
 10
-17.6703832881
 20
5.381140185800006
 10
-17.5771749777
 20
5.311054561800006
 10
-17.4896454785
 20
5.246186253000004
 10
-17.4043357457
 20
5.183757739400007
 10
-17.3155899265
 20
5.119583675400008
 10
-17.2215066657
 20
5.052406285000003
 10
-17.1222654401
 20
4.982514038600001
 10
-17.0170250673
 20
4.909500408200003
 10
-16.9049812561
 20
4.833035934600005
 10
-16.7850572353
 20
4.752668358600004
 10
-16.6558714209
 20
4.667828997
 10
-16.5155754689
 20
4.577765638599998
 10
-16.3613970769
 20
4.481321352199998
 10
-16.1940811297
 20
4.379693585799998
 10
-16.0209222705
 20
4.27782036180001
 10
-15.8473711473
 20
4.179036310600011
 10
-15.6740633777
 20
4.08366272500001
 10
-15.50102816649999
 20
3.991661349000011
 10
-15.3284453441
 20
3.903073270600003
 10
-15.1560638321
 20
3.817718513800002
 10
-14.9831918961
 20
3.735217144200007
 10
-14.8095957745
 20
3.655431494600009
 10
-14.6354064801
 20
3.578403293000008
 10
-14.4606398881
 20
3.504119803400001
 10
-14.28533785609999
 20
3.432580203400007
 10
-14.1095515857
 20
3.363786236999999
 10
-13.9333735489
 20
3.297755126600009
 10
-13.7569360145
 20
3.234521281799999
 10
-13.5801046497
 20
3.174021726600003
 10
-13.4025818385
 20
3.116146451399998
 10
-13.22410143529999
 20
3.060809992200006
 10
-13.0443820993
 20
3.007935187400008
 10
-12.8631638081
 20
2.957463309000004
 10
-12.6804688337
 20
2.90942200340001
 10
-12.4965878289
 20
2.863910400199998
 10
-12.3114834881
 20
2.820939777800006
 10
-12.1249527169
 20
2.780484699400005
 10
-11.9363421665
 20
2.742439448200002
 10
-11.7441555377
 20
2.706567822600007
 10
-11.5472386401
 20
2.672738472200009
 10
-11.3453835441
 20
2.64102664660001
 10
-11.1386154177
 20
2.611548457799997
 10
-10.9268877969
 20
2.584408680199999
 10
-10.7102245665
 20
2.559720652999999
  0
LWPOLYLINE
  5
42
330
2
100
AcDbEntity
  8
0
100
AcDbPolyline
 90
       29
 70
     0
 43
0.0
 10
-21.1997093121
 20
11.14639116660001
 10
-21.1687922689
 20
11.01202033940001
 10
-21.1370837281
 20
10.8798682914
 10
-21.1046195521
 20
10.7499465922
 10
-21.0714356049
 20
10.6222668082
 10
-21.0375677521
 20
10.4968405074
 10
-21.0030474481
 20
10.373666861
 10
-20.9678885041
 20
10.2526954418
 10
-20.9321003281
 20
10.1338634306
 10
-20.8956923217
 20
10.01710800340001
 10
-20.8586738881
 20
9.902366341000004
 10
-20.8210553217
 20
9.789580278599999
 10
-20.7828504657
 20
9.678710286600008
 10
-20.7440740497
 20
9.569721499400003
 10
-20.7047408081
 20
9.462579043399998
 10
-20.6648654689
 20
9.357248051400006
 10
-20.6244614705
 20
9.253691568200011
 10
-20.5835370673
 20
9.151864310600004
 10
-20.5420992161
 20
9.051718904200001
 10
-20.5001548785
 20
8.953207979400005
 10
-20.4577110097
 20
8.856284166600005
 10
-20.4039602961
 20
8.737287709
 10
-20.3494294337
 20
8.62059617780001
 10
-20.2941079185
 20
8.506108651399998
 10
-20.2379852433
 20
8.393724211399998
 10
-20.18105925289999
 20
8.283360893000008
 10
-20.1233611857
 20
8.175012549000001
 10
-20.0649306321
 20
8.068691987400001
 10
-20.0058071809
 20
7.9644120178
  0
LWPOLYLINE
  5
43
330
2
100
AcDbEntity
  8
0
100
AcDbPolyline
 90
       49
 70
     0
 43
0.0
 10
-20.7323393409
 20
5.843905776200003
 10
-20.7125148097
 20
5.754970573000008
 10
-20.6911806593
 20
5.665139747400004
 10
-20.6682834081
 20
5.574418105800006
 10
-20.6437766161
 20
5.482832345800005
 10
-20.6176420257
 20
5.390496728200005
 10
-20.5898684241
 20
5.297547403400002
 10
-20.5604422241
 20
5.20410664340001
 10
-20.5293403393
 20
5.110241219400009
 10
-20.4965373089
 20
5.0160040242
 10
-20.4620143665
 20
4.921461003400011
 10
-20.4257795409
 20
4.8267303314
 10
-20.3878475521
 20
4.731943235400009
 10
-20.3482275537
 20
4.637212872200009
 10
-20.3069064289
 20
4.542580107399999
 10
-20.2638654881
 20
4.448067741000002
 10
-20.2190873089
 20
4.353701667400002
 10
-20.1725595153
 20
4.259520185799999
 10
-20.1242709953
 20
4.165564701000008
 10
-20.0742068065
 20
4.071870045000011
 10
-20.0223366801
 20
3.978444789000008
 10
-19.9686265169
 20
3.885290937800007
 10
-19.9130416481
 20
3.792412189000003
 10
-19.8555451297
 20
3.69981902100001
 10
-19.7960994465
 20
3.607523605000011
 10
-19.7346668513
 20
3.515539756999999
 10
-19.6712086593
 20
3.423887864200011
 10
-19.6056859473
 20
3.33258996180001
 10
-19.5380620385
 20
3.241672692999998
 10
-19.4683092225
 20
3.151181165000011
 10
-19.39640203049999
 20
3.0611651026
 10
-19.3223235777
 20
2.971682872200005
 10
-19.24609131849999
 20
2.882827446600003
 10
-19.1677312897
 20
2.794700443400003
 10
-19.08726580649999
 20
2.707397573000008
 10
-19.00470228969999
 20
2.620990910599999
 10
-18.9200444417
 20
2.535546625800009
 10
-18.8333112129
 20
2.451142048199997
 10
-18.7445825793
 20
2.367899168200011
 10
-18.6539537681
 20
2.285951134600011
 10
-18.5615108129
 20
2.205418910600002
 10
-18.4673029697
 20
2.126374697800002
 10
-18.3713702913
 20
2.048878512200005
 10
-18.2737672081
 20
1.972997713799998
 10
-18.1746056241
 20
1.898829061
 10
-18.0740118081
 20
1.8264766562
 10
-17.9720924497
 20
1.756027792200001
 10
-17.86887588489999
 20
1.687502512199998
 10
-17.7643708641
 20
1.620904045000003
  0
LWPOLYLINE
  5
44
330
2
100
AcDbEntity
  8
0
100
AcDbPolyline
 90
       22
 70
     0
 43
0.0
 10
-21.9709156577
 20
13.3492577666
 10
-21.9586601153
 20
13.2861951634
 10
-21.94614787849999
 20
13.2247915282
 10
-21.9332953377
 20
13.16496770740001
 10
-21.9200188801
 20
13.10664454580001
 10
-21.9090517857
 20
13.06104278100001
 10
-21.8978099489
 20
13.01648714579999
 10
-21.8863434417
 20
12.97311400179999
 10
-21.8747023409
 20
12.93105971700001
 10
-21.8629367201
 20
12.8904606562
 10
-21.8510729857
 20
12.8513797266
 10
-21.8390428721
 20
12.813586021
 10
-21.8267544449
 20
12.7767751778
 10
-21.8141157665
 20
12.74064283060001
 10
-21.8010349057
 20
12.7048846162
 10
-21.7781067089
 20
12.645530197
 10
-21.7539026593
 20
12.5863876642
 10
-21.7286305697
 20
12.5274750978
 10
-21.7025156001
 20
12.468829173
 10
-21.6758523121
 20
12.4105609314
 10
-21.6489526193
 20
12.3528000082
 10
-21.5956478193
 20
12.23947287700001
  0
LWPOLYLINE
  5
45
330
2
100
AcDbEntity
  8
0
100
AcDbPolyline
 90
       25
 70
     0
 43
0.0
 10
-21.1997125345
 20
18.25535433619999
 10
-21.2142435329
 20
18.1929162642
 10
-21.2298054401
 20
18.13021880179999
 10
-21.24644632649999
 20
18.0672271266
 10
-21.2641056417
 20
18.004247093
 10
-21.2826941553
 20
17.9416462738
 10
-21.3021165425
 20
17.879698445
 10
-21.32227826409999
 20
17.8186240114
 10
-21.3430940289
 20
17.7585236946
 10
-21.3573193793
 20
17.7189689634
 10
-21.3719287185
 20
17.67951565940001
 10
-21.3870522289
 20
17.6398008034
 10
-21.4028215873
 20
17.5994722418
 10
-21.4193744481
 20
17.5582211442
 10
-21.4368499569
 20
17.5157495026
 10
-21.4506475697
 20
17.4829142434
 10
-21.4651118689
 20
17.4490914066
 10
-21.4803122801
 20
17.41414760180001
 10
-21.4963182321
 20
17.37794943539999
 10
-21.5131743457
 20
17.34040828820001
 10
-21.5308260225
 20
17.3016146434
 10
-21.5491938641
 20
17.2617037618
 10
-21.56819846889999
 20
17.2208109026
 10
-21.5943732705
 20
17.16498455060001
 10
-21.6485117969
 20
17.049887381
  0
LWPOLYLINE
  5
46
330
2
100
AcDbEntity
  8
0
100
AcDbPolyline
 90
       11
 70
     0
 43
0.0
 10
-21.22378087369999
 20
18.21162513139999
 10
-21.2851382049
 20
17.9703615794
 10
-21.3613176641
 20
17.7339914466
 10
-21.4578724353
 20
17.48778350100001
 10
-21.56664126249999
 20
17.2474128562
 10
-21.6693496241
 20
17.033976445
 10
-21.7569458689
 20
16.84601788820001
 10
-21.8293898801
 20
16.6693223762
 10
-21.8900690481
 20
16.4852511506
 10
-21.9440418465
 20
16.276561557
 10
-21.9925301841
 20
16.03960859220001
  0
LWPOLYLINE
  5
47
330
2
100
AcDbEntity
  8
0
100
AcDbPolyline
 90
       21
 70
     0
 43
0.0
 10
-21.6485117969
 20
17.049887381
 10
-21.6758724385
 20
16.9911431042
 10
-21.7029728033
 20
16.9319100386
 10
-21.7294495041
 20
16.87240114899999
 10
-21.7549652481
 20
16.8128055234
 10
-21.7792871201
 20
16.7532167762
 10
-21.8022083025
 20
16.69370464500001
 10
-21.8152275937
 20
16.6580045058
 10
-21.8277732129
 20
16.6220202274
 10
-21.8399501937
 20
16.58541497779999
 10
-21.8518635665
 20
16.5478519298
 10
-21.8636183649
 20
16.50899425460001
 10
-21.8752929025
 20
16.4685866242
 10
-21.8868586305
 20
16.4266997282
 10
-21.8982602833
 20
16.3834857538
 10
-21.9094425969
 20
16.3390968946
 10
-21.9203503041
 20
16.2936853378
 10
-21.9335470801
 20
16.2356501314
 10
-21.9463154977
 20
16.17616531699999
 10
-21.9587426241
 20
16.1151414482
 10
-21.9709155281
 20
16.052489085
  0
LWPOLYLINE
  5
48
330
2
100
AcDbEntity
  8
0
100
AcDbPolyline
 90
       29
 70
     0
 43
0.0
 10
-20.0211429505
 20
21.41059525940001
 10
-20.0794485857
 20
21.3069498786
 10
-20.1370745345
 20
21.20129578900001
 10
-20.1939820241
 20
21.09364555380001
 10
-20.2501322833
 20
20.984011741
 10
-20.3054946737
 20
20.87238839219999
 10
-20.3600710785
 20
20.75869545780001
 10
-20.4138715137
 20
20.64283436500001
 10
-20.4669059969
 20
20.52470654420001
 10
-20.5087868433
 20
20.42850668660001
 10
-20.5501771233
 20
20.33074668179999
 10
-20.5910700657
 20
20.2313801778
 10
-20.63145890409999
 20
20.13036081779999
 10
-20.6713368689
 20
20.02764225139999
 10
-20.7106959505
 20
19.9231801906
 10
-20.7495231729
 20
19.8169386194
 10
-20.7878043153
 20
19.70888359220001
 10
-20.8255251585
 20
19.59898116020001
 10
-20.8626714865
 20
19.4871973746
 10
-20.8992299137
 20
19.3734937106
 10
-20.9351904049
 20
19.2578133298
 10
-20.9705437617
 20
19.1400948178
 10
-21.0052807857
 20
19.020276757
 10
-21.0393922753
 20
18.898297733
 10
-21.0728647761
 20
18.77410845620001
 10
-21.1056677969
 20
18.6477081378
 10
-21.1377665953
 20
18.5191081202
 10
-21.16912642249999
 20
18.3883197394
 10
-21.1997125345
 20
18.25535433619999
  0
LWPOLYLINE
  5
49
330
2
100
AcDbEntity
  8
0
100
AcDbPolyline
 90
       16
 70
     0
 43
0.0
 10
39.7928941599
 20
-6.299126915000002
 10
39.84470727829999
 20
-6.296031308599992
 10
39.89597678069999
 20
-6.287561174199993
 10
39.94614557909999
 20
-6.273802497399998
 10
39.9946674719
 20
-6.254898724599996
 10
40.0409044063
 20
-6.231112586999998
 10
40.08444994709999
 20
-6.202672639799999
 10
40.12485472149999
 20
-6.169869654199999
 10
40.1616770863
 20
-6.133053527800001
 10
40.1945136655
 20
-6.092617658999998
 10
40.22300346709999
 20
-6.048994618999998
 10
40.24681941269999
 20
-6.0026783566
 10
40.2656728239
 20
-5.954263665399992
 10
40.2794158879
 20
-5.904157268599988
 10
40.2878899551
 20
-5.852895670199998
 10
40.2909915087
 20
-5.8010295646
  0
LINE
  5
4A
330
2
100
AcDbEntity
  8
0
100
AcDbLine
 10
39.7928941599
 20
-6.299126915
 30
0.0
 11
-31.4609111425
 21
-6.299126915
 31
0.0
  0
LWPOLYLINE
  5
4B
330
2
100
AcDbEntity
  8
0
100
AcDbPolyline
 90
       16
 70
     0
 43
0.0
 10
-31.4609111425
 20
-6.299126915000002
 10
-31.5127242609
 20
-6.296031308599992
 10
-31.5639937633
 20
-6.287561174199993
 10
-31.6141625617
 20
-6.273802497399998
 10
-31.6626844545
 20
-6.254898724599996
 10
-31.7089213889
 20
-6.231112586999998
 10
-31.7524669297
 20
-6.202672639799999
 10
-31.7928717025
 20
-6.169869654199999
 10
-31.8296940689
 20
-6.133053527800001
 10
-31.8625306465
 20
-6.092617658999998
 10
-31.8910204497
 20
-6.048994618999998
 10
-31.9148363937
 20
-6.0026783566
 10
-31.9336898065
 20
-5.954263665399992
 10
-31.9474328705
 20
-5.904157268599988
 10
-31.9559069377
 20
-5.852895670199998
 10
-31.9590084913
 20
-5.8010295646
  0
LINE
  5
4C
330
2
100
AcDbEntity
  8
0
100
AcDbLine
 10
-17.1983567377
 20
-0.0499358333999975
 30
0.0
 11
-17.43794755050001
 21
0.0434689538000033
 31
0.0
  0
LWPOLYLINE
  5
4D
330
2
100
AcDbEntity
  8
0
100
AcDbPolyline
 90
       29
 70
     0
 43
0.0
 10
-17.4379475505
 20
0.0434689538000015
 10
-18.0835602817
 20
0.3301342242000089
 10
-18.6974195953
 20
0.6378471634000107
 10
-19.2835120577
 20
0.966880113800002
 10
-19.8441074961
 20
1.317285745800006
 10
-20.3799169009
 20
1.688354219400011
 10
-20.8875935185
 20
2.076656470599999
 10
-21.3595987041
 20
2.474465929800004
 10
-21.7910002417
 20
2.874874113800004
 10
-22.1839610593
 20
3.276941320200009
 10
-22.5447815041
 20
3.684765510600001
 10
-22.8793962561
 20
4.103095067400005
 10
-23.1901321457
 20
4.5337298978
 10
-23.4770419057
 20
4.97578969460001
 10
-23.7407598961
 20
5.42970510740001
 10
-23.9822495905
 20
5.897211598600009
 10
-24.2037925985
 20
6.383301158600005
 10
-24.4084704193
 20
6.897147349000007
 10
-24.5972937521
 20
7.446105244999998
 10
-24.7703906609
 20
8.03804494900001
 10
-24.9277654417
 20
8.684977881800008
 10
-25.0692076273
 20
9.404715172999999
 10
-25.1906367313
 20
10.19893571699999
 10
-25.2835193185
 20
11.00906964820001
 10
-25.3484505729
 20
11.78804962579999
 10
-25.3922476081
 20
12.5415026498
 10
-25.4198728305
 20
13.2774578594
 10
-25.4346222929
 20
13.9969272178
 10
-25.4390684145
 20
14.70087308499999
  0
LWPOLYLINE
  5
4E
330
2
100
AcDbEntity
  8
0
100
AcDbPolyline
 90
       33
 70
     0
 43
0.0
 10
-17.7643708641
 20
1.620904045000003
 10
-17.6650442721
 20
1.559598705799999
 10
-17.5631291569
 20
1.498131907400008
 10
-17.4585321745
 20
1.436539270600007
 10
-17.3511599793
 20
1.374856417800003
 10
-17.2409637041
 20
1.313142275400011
 10
-17.1280724001
 20
1.251548985799999
 10
-17.0126595905
 20
1.190252001800004
 10
-16.8948988033
 20
1.129426769800005
 10
-16.7345087073
 20
1.049337129800008
 10
-16.5705248881
 20
0.9706554690000075
 10
-16.40321931369999
 20
0.8936391857999979
 10
-16.2328764865
 20
0.8185401122000115
 10
-16.0598310417
 20
0.7455878130000002
 10
-15.8844301489
 20
0.6750062914000097
 10
-15.7070069681
 20
0.6070030417999988
 10
-15.5278386081
 20
0.5417195234000048
 10
-15.3471881697
 20
0.4792806914000068
 10
-15.1653232129
 20
0.4198038370000035
 10
-14.9825291345
 20
0.363375597000001
 10
-14.7990957889
 20
0.3100749458000109
 10
-14.6152759329
 20
0.2599654050000026
 10
-14.4311739457
 20
0.2130486898000043
 10
-14.2468571041
 20
0.1693110642000022
 10
-14.0623921729
 20
0.1287386210000108
 10
-13.8778438545
 20
0.0913167490000007
 10
-13.6932763377
 20
0.0570306657999993
 10
-13.50875745289999
 20
0.0258649218000073
 10
-13.3243696177
 20
-0.0021985981999961
 10
-13.1401988945
 20
-0.0271786734000017
 10
-12.9563232097
 20
-0.0490958142000011
 10
-12.7727879553
 20
-0.0679774397999893
 10
-12.5896303873
 20
-0.0838526957999903
  0
LWPOLYLINE
  5
4F
330
2
100
AcDbEntity
  8
0
100
AcDbPolyline
 90
      135
 70
     0
 43
0.0
 10
-20.0058071841
 20
7.964412046600003
 10
-19.9515312577
 20
7.871461102600008
 10
-19.8973213217
 20
7.781138605000009
 10
-19.8433080353
 20
7.6935204018
 10
-19.7895727201
 20
7.608609956999998
 10
-19.7359993761
 20
7.526121224200011
 10
-19.6824226753
 20
7.445695773000011
 10
-19.6016991009
 20
7.328210016200003
 10
-19.52009457129999
 20
7.213757422600011
 10
-19.4371053697
 20
7.101562944200011
 10
-19.3522185601
 20
6.990962390600003
 10
-19.26481516169999
 20
6.881241325000004
 10
-19.1738612337
 20
6.771373492999998
 10
-19.11064731849999
 20
6.697469491399999
 10
-19.0447508833
 20
6.622490581000008
 10
-18.9755730561
 20
6.545917845000005
 10
-18.9211625185
 20
6.487130033799999
 10
-18.8642357073
 20
6.426934001800006
 10
-18.8044589921
 20
6.3651099474
 10
-18.74149874569999
 20
6.301438070599999
 10
-18.6751685409
 20
6.235843896200009
 10
-18.6058707409
 20
6.1688342642
 10
-18.5340092673
 20
6.100921768200009
 10
-18.4594054897
 20
6.032060678600004
 10
-18.3555750033
 20
5.938808928200003
 10
-18.2483291409
 20
5.845255520199998
 10
-18.1397042161
 20
5.753114606600007
 10
-18.0584002465
 20
5.685812910600006
 10
-17.9773936321
 20
5.620068333000006
 10
-17.9236224881
 20
5.577084958600011
 10
-17.87055269609999
 20
5.535129363400002
 10
-17.8187856065
 20
5.494626888200002
 10
-17.7687269761
 20
5.455851779400006
 10
-17.7200001873
 20
5.418473913799999
 10
-17.6720330305
 20
5.382012076999998
 10
-17.5295193009
 20
5.275358105800009
 10
-17.4350916369
 20
5.205906112200011
 10
-17.3395851697
 20
5.136625446600007
 10
-17.2412324545
 20
5.066262694599998
 10
-17.1646337857
 20
5.012110472200006
 10
-17.0852759377
 20
4.95661955860001
 10
-17.0029949393
 20
4.899764979400003
 10
-16.9176268097
 20
4.841521761800009
 10
-16.8290120881
 20
4.781873821000004
 10
-16.7370093521
 20
4.720840616200007
 10
-16.6414816929
 20
4.658450496200003
 10
-16.5422922017
 20
4.594731809800009
 10
-16.4392918641
 20
4.52971290260001
 10
-16.3322832305
 20
4.463422117000007
 10
-16.2210567505
 20
4.395887797
 10
-16.1054028673
 20
4.327138280200003
 10
-15.9851807025
 20
4.257243832200003
 10
-15.8605240785
 20
4.186442406600008
 10
-15.7316354865
 20
4.115013875400009
 10
-15.5987174225
 20
4.043238115400001
 10
-15.4620269969
 20
3.971410165000008
 10
-15.3220397841
 20
3.899885707400002
 10
-15.1792859777
 20
3.8290355906
 10
-15.0342957665
 20
3.759230662600003
 10
-14.8383485553
 20
3.668342813000009
 10
-14.6402380497
 20
3.580362803400007
 10
-14.4408342257
 20
3.4956810786
 10
-14.2408491377
 20
3.414613240199997
 10
-14.0403631729
 20
3.337175502600004
 10
-13.8392987969
 20
3.263309241800001
 10
-13.6375706673
 20
3.192956649800009
 10
-13.4350621889
 20
3.126063200200007
 10
-13.2316489521
 20
3.062575179399999
 10
-13.0271518673
 20
3.002430693000007
 10
-12.8211731265
 20
2.945535075400002
 10
-12.6132602369
 20
2.891785478599999
 10
-12.4029854977
 20
2.841098478600002
 10
-12.1900203617
 20
2.793468365000009
 10
-11.97406106729999
 20
2.748908849800002
 10
-11.8099195521
 20
2.717508248200005
 10
-11.6436484033
 20
2.687822573000005
 10
-11.47497307209999
 20
2.659831819400011
 10
-11.3036190033
 20
2.633515985800002
 10
-11.1294490369
 20
2.608874262600011
 10
-10.9528755985
 20
2.585982611399998
 10
-10.7742141921
 20
2.564918198600011
 10
-10.5928430913
 20
2.545686246599998
 10
-10.4083006817
 20
2.528286531399999
 10
-10.2217030753
 20
2.512768990600008
 10
-10.0345608097
 20
2.499196104200009
 10
-9.848384420900003
 20
2.487630350599999
 10
-9.664412763299999
 20
2.478095465800009
 10
-9.4827979585
 20
2.47046021780001
 10
-9.303708873700003
 20
2.4645676194
 10
-9.1284680945
 20
2.460312662600003
 10
-8.958289787300003
 20
2.457591893
 10
-8.792800728100004
 20
2.456256115400009
 10
-8.631428577699999
 20
2.456151955400002
 10
-8.474391939300005
 20
2.45715508180001
 10
-8.322015180900002
 20
2.459151854600008
 10
-8.174254825700003
 20
2.4620423506
 10
-8.0309754353
 20
2.465730080200003
 10
-7.892041564900004
 20
2.470118555400006
 10
-7.757306476900005
 20
2.475118008199999
 10
-7.626578230500001
 20
2.480665582600011
 10
-7.499653584100002
 20
2.486705144200001
 10
-7.376329296100003
 20
2.493180557000002
 10
-7.2564066097
 20
2.500039664200002
 10
-7.139704692900004
 20
2.507246201800001
 10
-7.026047196900002
 20
2.514767886599997
 10
-6.915257769700005
 20
2.522572427400007
 10
-6.771738136100005
 20
2.533365182600007
 10
-6.632843537700004
 20
2.544541885000001
 10
-6.498413731300004
 20
2.556041022599998
 10
-6.368283395300004
 20
2.567804648200009
 10
-6.242266900900006
 20
2.579789059399999
 10
-6.120173539300004
 20
2.5919541234
 10
-6.001817092900004
 20
2.604262024200011
 10
-5.887029273700001
 20
2.616684240200001
 10
-5.775646278500005
 20
2.629194577800006
 10
-5.667529187300004
 20
2.641765473800006
 10
-5.562638603300001
 20
2.654363912200011
 10
-5.460960009700002
 20
2.666955513800004
 10
-5.362479016100003
 20
2.679506529800008
 10
-5.267181734499999
 20
2.691985747400011
 10
-5.175054403300002
 20
2.704362584199998
 10
-5.086074766500004
 20
2.716608305800008
 10
-5.0001865905
 20
2.728701571400009
 10
-4.917325155300005
 20
2.740622889800008
 10
-4.837380264100005
 20
2.752361028999999
 10
-4.7600598609
 20
2.763937805000011
 10
-4.685026420900001
 20
2.775383294600004
 10
-4.576050680100003
 20
2.792373923400006
 10
-4.470470240099999
 20
2.809254907400003
 10
-4.367265427300004
 20
2.826155296199999
 10
-4.265301608100003
 20
2.843248025800008
 10
-4.061768452900004
 20
2.878537573000002
 10
-3.857614484900004
 20
2.915432243400005
 10
-3.653568265700002
 20
2.95355996020001
 10
-3.450391496100003
 20
2.992493966600008
  0
LWPOLYLINE
  5
50
330
2
100
AcDbEntity
  8
0
100
AcDbPolyline
 90
       24
 70
     0
 43
0.0
 10
-21.5956478193
 20
12.23947287700001
 10
-21.5698062577
 20
12.18437798580001
 10
-21.5510021329
 20
12.143948549
 10
-21.5327895217
 20
12.104420125
 10
-21.5152466033
 20
12.0659215042
 10
-21.49845155209999
 20
12.0285814738
 10
-21.4824592769
 20
11.9924873746
 10
-21.4672315953
 20
11.95756077140001
 10
-21.4527070609
 20
11.92368178099999
 10
-21.4388242241
 20
11.89073051860001
 10
-21.4212084289
 20
11.8480323394
 10
-21.4044945265
 20
11.8064915954
 10
-21.3885528545
 20
11.7658295522
 10
-21.3732550385
 20
11.725757373
 10
-21.3584778545
 20
11.6859458162
 10
-21.3440993633
 20
11.64605553780001
 10
-21.3230923425
 20
11.5855271762
 10
-21.3027759185
 20
11.52409471220001
 10
-21.2832220049
 20
11.4618278082
 10
-21.2645185553
 20
11.398928605
 10
-21.2467552769
 20
11.33565266899999
 10
-21.2300128321
 20
11.2723367858
 10
-21.2143452817
 20
11.20926024660001
 10
-21.1997093121
 20
11.14639116660001
  0
LWPOLYLINE
  5
51
330
2
100
AcDbEntity
  8
0
100
AcDbPolyline
 90
       33
 70
     0
 43
0.0
 10
-17.7643708641
 20
27.7808421266
 10
-17.6650440721
 20
27.84214758739999
 10
-17.5631287873
 20
27.9036144834
 10
-17.4585316689
 20
27.9652071938
 10
-17.3511593761
 20
28.0268900962
 10
-17.2409630433
 20
28.08860426420001
 10
-17.1280717121
 20
28.15019755699999
 10
-17.0126589025
 20
28.21149453139999
 10
-16.8948981297
 20
28.2723197442
 10
-16.7345080689
 20
28.35240935380001
 10
-16.5705243009
 20
28.43109097779999
 10
-16.4032187969
 20
28.5081072178
 10
-16.2328760609
 20
28.583206245
 10
-16.0598307105
 20
28.65615849620001
 10
-15.8844299009
 20
28.72673997779999
 10
-15.7070067729
 20
28.79474320180001
 10
-15.5278384465
 20
28.86002670579999
 10
-15.3471880273
 20
28.92246552819999
 10
-15.1653230849
 20
28.98194237619999
 10
-14.9825290161
 20
29.03837060979999
 10
-14.7990956785
 20
29.0916712562
 10
-14.6152758337
 20
29.1417807938
 10
-14.4311738561
 20
29.18869750419999
 10
-14.2468570241
 20
29.232435125
 10
-14.0623921041
 20
29.27300756500001
 10
-13.8778437953
 20
29.31042943379999
 10
-13.6932762865
 20
29.34471551540001
 10
-13.5087574097
 20
29.3758812562
 10
-13.3243695825
 20
29.40394477459999
 10
-13.1401988657
 20
29.42892484819999
 10
-12.9563231889
 20
29.45084198900001
 10
-12.7727879441
 20
29.4697236114
 10
-12.5896303873
 20
29.48559886740001
  0
LWPOLYLINE
  5
52
330
2
100
AcDbEntity
  8
0
100
AcDbPolyline
 90
       29
 70
     0
 43
0.0
 10
-17.4379475505
 20
29.35827721779999
 10
-18.0835602817
 20
29.0716119474
 10
-18.6974195953
 20
28.76389900819999
 10
-19.2835120577
 20
28.43486605779999
 10
-19.8441074961
 20
28.0844604258
 10
-20.3799169009
 20
27.71339195220001
 10
-20.8875935185
 20
27.32508970100001
 10
-21.3595987041
 20
26.9272802418
 10
-21.7910002417
 20
26.52687205779999
 10
-22.1839610593
 20
26.12480485140001
 10
-22.5447815041
 20
25.71698066099999
 10
-22.8793962561
 20
25.2986511042
 10
-23.1901321457
 20
24.86801627379999
 10
-23.4770419057
 20
24.42595647700001
 10
-23.7407598961
 20
23.97204106420001
 10
-23.9822495905
 20
23.50453457300001
 10
-24.2037925985
 20
23.018445013
 10
-24.4084704193
 20
22.50459882260001
 10
-24.5972937521
 20
21.95564092659999
 10
-24.7703906609
 20
21.3637012226
 10
-24.9277654417
 20
20.71676828980001
 10
-25.0692076273
 20
19.99703099860001
 10
-25.1906367313
 20
19.20281045459999
 10
-25.2835193185
 20
18.3926765234
 10
-25.3484505729
 20
17.61369654580001
 10
-25.3922476081
 20
16.8602435218
 10
-25.4198728305
 20
16.1242883122
 10
-25.4346222929
 20
15.4048189538
 10
-25.4390684145
 20
14.70087308499999
  0
LINE
  5
53
330
2
100
AcDbEntity
  8
0
100
AcDbLine
 10
-17.1987378145
 20
29.45153344180001
 30
0.0
 11
-17.43794755050001
 21
29.35827721779999
 31
0.0
  0
LWPOLYLINE
  5
54
330
2
100
AcDbEntity
  8
0
100
AcDbPolyline
 90
        3
 70
     0
 43
0.0
 10
21.2910363295
 20
-1.131105441399995
 10
22.07332375989999
 20
-1.015943463799999
 10
22.55535054709999
 20
-0.9226768205999889
  0
LWPOLYLINE
  5
55
330
2
100
AcDbEntity
  8
0
100
AcDbPolyline
 90
        3
 70
     0
 43
0.0
 10
-12.9590533121
 20
-1.131105441399995
 10
-13.7413407409
 20
-1.015943463799999
 10
-14.2240157937
 20
-0.9225513885999987
  0
LWPOLYLINE
  5
56
330
2
100
AcDbEntity
  8
0
100
AcDbPolyline
 90
       67
 70
     0
 43
0.0
 10
22.7848008063
 20
2.340214001800006
 10
22.4906156783
 20
2.276088440199998
 10
22.19419140789999
 20
2.215053811400011
 10
21.89739529749999
 20
2.157516353800005
 10
21.6020625215
 20
2.103788385800001
 10
21.45458002709999
 20
2.078264189000009
 10
21.30544740949999
 20
2.053344960200007
 10
21.2041637727
 20
2.036923472200001
 10
21.1007935695
 20
2.020584812999999
 10
20.99484717109999
 20
2.004279440200008
 10
20.88582255029999
 20
1.987960997000001
 10
20.7731680847
 20
1.971595875399998
 10
20.6563197535
 20
1.95515365460001
 10
20.53476849429999
 20
1.938616569800004
 10
20.40822509109999
 20
1.922017492999998
 10
20.27645528309999
 20
1.905401957000009
 10
20.13925143189999
 20
1.888821833800008
 10
19.99651236949999
 20
1.872354365000006
 10
19.8481635487
 20
1.856083136199998
 10
19.73317356789999
 20
1.844059557000008
 10
19.61494202229999
 20
1.832233321800003
 10
19.49342477109999
 20
1.820644377800007
 10
19.3685776703
 20
1.809332667399999
 10
19.24033804309999
 20
1.798338897800007
 10
19.10856906229999
 20
1.787706832200001
 10
18.97311536949999
 20
1.777480992200011
 10
18.83382160309999
 20
1.767705904199999
 10
18.6905398799
 20
1.758429153800008
 10
18.54315224789999
 20
1.749710579400002
 10
18.3915482271
 20
1.741613081800011
 10
18.2356173455
 20
1.734199560200011
 10
18.10765061909999
 20
1.728805704199999
 10
17.9765927903
 20
1.723935417800007
 10
17.84219265269999
 20
1.719634272200011
 10
17.7041989983
 20
1.715947832200001
 10
17.56236062229999
 20
1.71292166900001
 10
17.4410823103
 20
1.710939673799998
 10
17.31704527029999
 20
1.709489545800011
 10
17.1903351759
 20
1.708612982600001
 10
17.06098323989999
 20
1.708352224199998
 10
16.9288028591
 20
1.708751678600009
 10
16.79355298069999
 20
1.709856299400001
 10
16.65506913909999
 20
1.711711409800003
 10
16.5134932543
 20
1.714363838600007
 10
16.3690438383
 20
1.717860784199999
 10
16.25899379669999
 20
1.721063206600007
 10
16.14779045109999
 20
1.724769747400003
 10
16.0356578863
 20
1.728987299400003
 10
15.9223559775
 20
1.733740206600003
 10
15.80757715989999
 20
1.739056789000002
 10
15.6912083647
 20
1.744963822599999
 10
15.57328202229999
 20
1.751481285000011
 10
15.4542180815
 20
1.758603489800009
 10
15.21490076469999
 20
1.774571384200001
 10
14.97680809109999
 20
1.792649693000001
 10
14.7383468415
 20
1.812952149000011
 10
14.49852545429999
 20
1.835592307400006
 10
14.3794446719
 20
1.84766431540001
 10
14.2618506127
 20
1.860125654600011
 10
14.14629952949999
 20
1.872895838600001
 10
14.0328605871
 20
1.885939184199997
 10
13.88476851029999
 20
1.903721008200008
 10
13.74000445909999
 20
1.921935513800008
 10
13.59823506549999
 20
1.940573288199999
 10
13.45918725909999
 20
1.959619128200003
 10
13.32282915189999
 20
1.979034638599998
 10
13.18918914869999
 20
1.998775625800007
  0
LWPOLYLINE
  5
57
330
2
100
AcDbEntity
  8
0
100
AcDbPolyline
 90
       18
 70
     0
 43
0.0
 10
21.2910363295
 20
-1.131105441399995
 10
21.08151066389999
 20
-1.151784870199989
 10
20.8611188463
 20
-1.170711758199999
 10
20.62646448469999
 20
-1.187934324599993
 10
20.3754960575
 20
-1.203356802999991
 10
20.09586835029999
 20
-1.217362098999998
 10
19.77556082389999
 20
-1.229973873399998
 10
19.41005680309999
 20
-1.240830484599996
 10
18.99510005109999
 20
-1.249859158199996
 10
18.52653707989999
 20
-1.257501719799989
 10
18.00011383349999
 20
-1.264044684599994
 10
17.4090417039
 20
-1.269334586999988
 10
16.74527491349999
 20
-1.273220522999991
 10
16.0004383375
 20
-1.275570006199998
 10
15.16600032469999
 20
-1.276322967799998
 10
14.23328249269999
 20
-1.275505852599991
 10
13.19439052949999
 20
-1.273199113399996
 10
12.04391857269999
 20
-1.269646769399997
  0
LWPOLYLINE
  5
58
330
2
100
AcDbEntity
  8
0
100
AcDbPolyline
 90
       33
 70
     0
 43
0.0
 10
20.92161340469999
 20
-0.0838526957999903
 10
21.10477097269999
 20
-0.0679774397999893
 10
21.28830622869999
 20
-0.0490958142000011
 10
21.47218191349999
 20
-0.0271786734000017
 10
21.65635263829999
 20
-0.0021985981999961
 10
21.84074047349999
 20
0.0258649218000073
 10
22.02525935669999
 20
0.0570306657999993
 10
22.20982687509999
 20
0.0913167490000007
 10
22.39437519349999
 20
0.1287386210000108
 10
22.57884012469999
 20
0.1693110658000023
 10
22.7631569663
 20
0.2130486898000043
 10
22.94725895509999
 20
0.2599654050000026
 10
23.13107881109999
 20
0.3100749474000111
 10
23.31451215669999
 20
0.3633755986000011
 10
23.49730623669999
 20
0.4198038386000036
 10
23.67917119349999
 20
0.4792806930000069
 10
23.8598216319
 20
0.5417195250000049
 10
24.03898999349999
 20
0.6070030449999991
 10
24.2164131775
 20
0.6750062962000101
 10
24.3918140719
 20
0.7455878178000006
 10
24.56485951989999
 20
0.8185401185999978
 10
24.7352023503
 20
0.8936391937999985
 10
24.9025079263
 20
0.9706554786000083
 10
25.0664917471
 20
1.049337141000009
 10
25.2268818431
 20
1.129426781000006
 10
25.3446426303
 20
1.190252013000005
 10
25.4600554399
 20
1.2515489986
 10
25.57294674389999
 20
1.313142286599997
 10
25.6831430159
 20
1.374856429000004
 10
25.7905152079
 20
1.436539280200008
 10
25.89511218709999
 20
1.498131915400009
 10
25.99702729589999
 20
1.559598710599999
 10
26.09635388149999
 20
1.620904045000003
  0
LWPOLYLINE
  5
59
330
2
100
AcDbEntity
  8
0
100
AcDbPolyline
 90
       22
 70
     0
 43
0.0
 10
21.2909915087
 20
-1.634497057399997
 10
21.06478631509999
 20
-1.652736234999991
 10
20.82583376149999
 20
-1.669662385399988
 10
20.5709940447
 20
-1.685368799799988
 10
20.2964721119
 20
-1.700008095800001
 10
19.98576525589999
 20
-1.713943671799995
 10
19.62843358869999
 20
-1.72619281899999
 10
19.2221888559
 20
-1.736341842999991
 10
18.76126417589999
 20
-1.7446188718
 10
18.2418196623
 20
-1.751591092599994
 10
17.65662200629999
 20
-1.757240569399996
 10
16.99699069749999
 20
-1.761392694199997
 10
16.25379588149999
 20
-1.763893206199995
 10
15.4176540383
 20
-1.764643972599998
 10
14.47897816149999
 20
-1.763670282999996
 10
13.4282479407
 20
-1.761051409399996
 10
12.25911741589999
 20
-1.757049372599993
 10
10.9647144079
 20
-1.752116502199996
 10
9.528051289499998
 20
-1.746704322999988
 10
7.798025508699993
 20
-1.741249302199989
 10
5.984304905499996
 20
-1.736466249399995
 10
4.165991508700003
 20
-1.734504754999989
  0
LWPOLYLINE
  5
5A
330
2
100
AcDbEntity
  8
0
100
AcDbPolyline
 90
       21
 70
     0
 43
0.0
 10
14.77105405269999
 20
-0.9375441309999956
 10
14.8185882799
 20
-0.9367049709999974
 10
14.86349186229999
 20
-0.935624519800001
 10
14.9057629775
 20
-0.9343219965999907
 10
14.9454772783
 20
-0.932812553399998
 10
14.9825920959
 20
-0.9311142589999974
 10
15.01723132469999
 20
-0.9292363582000007
 10
15.04937338709999
 20
-0.9271931517999973
 10
15.07908319509999
 20
-0.9249924301999925
 10
15.10640002869999
 20
-0.9226407725999905
 10
15.13128731349999
 20
-0.9201496749999904
 10
15.1538058095
 20
-0.9175191997999974
 10
15.1739137423
 20
-0.9147573949999951
 10
15.19158713429999
 20
-0.9118687949999895
 10
15.20680666389999
 20
-0.9088534077999952
 10
15.21949157269999
 20
-0.9057197309999907
 10
15.22958784789999
 20
-0.902467505399997
 10
15.2370031855
 20
-0.8991015933999904
 10
15.24163172469999
 20
-0.8956298029999913
 10
15.24336519989999
 20
-0.8920546397999942
 10
15.2424592239
 20
-0.8889239917999987
  0
LWPOLYLINE
  5
5B
330
2
100
AcDbEntity
  8
0
100
AcDbPolyline
 90
        4
 70
     0
 43
0.0
 10
14.77105405269999
 20
-0.9375441309999956
 10
13.88485678229999
 20
-0.9499008253999932
 10
12.9973248511
 20
-0.9611633389999951
 10
12.10859054709999
 20
-0.9713306685999896
  0
LWPOLYLINE
  5
5C
330
2
100
AcDbEntity
  8
0
100
AcDbPolyline
 90
       13
 70
     0
 43
0.0
 10
4.165991508700003
 20
-1.013663586999996
 10
4.061433068699997
 20
-1.014137343800001
 10
3.957529302300002
 20
-1.015556423799992
 10
3.855357132699992
 20
-1.017903428599993
 10
3.7559026463
 20
-1.021143459000001
 10
3.660683459099999
 20
-1.025196483000001
 10
3.572074169499998
 20
-1.02988518539999
 10
3.491341276699998
 20
-1.035020324599997
 10
3.418499361499996
 20
-1.040461119799999
 10
3.352617062299998
 20
-1.046150409399999
 10
3.2924257855
 20
-1.0521069726
 10
3.236232081499991
 20
-1.058461969399999
 10
3.226840931099999
 20
-1.059681281399988
  0
LWPOLYLINE
  5
5D
330
2
100
AcDbEntity
  8
0
100
AcDbPolyline
 90
       20
 70
     0
 43
0.0
 10
4.165991508700003
 20
-0.8892612829999961
 10
4.062524284700003
 20
-0.8897248269999948
 10
3.959657547099993
 20
-0.8911139117999908
 10
3.858058673499996
 20
-0.8934221245999935
 10
3.758967318299994
 20
-0.8966164526
 10
3.664667331099991
 20
-0.9005858749999902
 10
3.576565491099998
 20
-0.9051934749999901
 10
3.495911259099997
 20
-0.9102642414000001
 10
3.422845731099997
 20
-0.915660614199993
 10
3.356739897499991
 20
-0.9213067117999997
 10
3.296129820700002
 20
-0.9272386413999953
 10
3.238639161500003
 20
-0.9336766798000013
 10
3.18455418709999
 20
-0.940642327799992
 10
3.134480958300002
 20
-0.9481357357999939
 10
3.089187878299995
 20
-0.9561555133999917
 10
3.050070942299996
 20
-0.9646042413999964
 10
3.018889993499996
 20
-0.9732364173999883
 10
2.996465769499991
 20
-0.9818986221999921
 10
2.9829919071
 20
-0.9905454989999924
 10
2.978491508700003
 20
-0.9991791277999908
  0
LWPOLYLINE
  5
5E
330
2
100
AcDbEntity
  8
0
100
AcDbPolyline
 90
        5
 70
     0
 43
0.0
 10
-3.927134398500001
 20
-1.757049372599993
 10
-1.196068272099999
 20
-1.746704322999988
 10
0.4089575086999986
 20
-1.741249302199989
 10
2.347678111899995
 20
-1.736466249399995
 10
4.165991508700003
 20
-1.734504754999989
  0
LWPOLYLINE
  5
5F
330
2
100
AcDbEntity
  8
0
100
AcDbPolyline
 90
        5
 70
     0
 43
0.0
 10
-3.711935555300001
 20
-1.269646769399997
 10
-1.037202020900004
 20
-1.260377788599996
 10
0.5287490575000007
 20
-1.255427396599998
 10
2.410454979099995
 20
-1.251104406199999
 10
4.165991508700003
 20
-1.249341739000001
  0
LWPOLYLINE
  5
60
330
2
100
AcDbEntity
  8
0
100
AcDbPolyline
 90
       21
 70
     0
 43
0.0
 10
4.165991508700003
 20
-1.098453526199989
 10
4.266265611099996
 20
-1.098095983799993
 10
4.366003038299993
 20
-1.097023287799999
 10
4.464632684699992
 20
-1.09523609739999
 10
4.561072225499998
 20
-1.092751081399995
 10
4.6531148559
 20
-1.089645012600001
 10
4.739702308700003
 20
-1.086000259000002
 10
4.820283521500002
 20
-1.081898207799994
 10
4.894301964699991
 20
-1.0774351198
 10
4.961460711900002
 20
-1.072708023799989
 10
5.022489211099994
 20
-1.067740487799994
 10
5.078534951899996
 20
-1.062484918199999
 10
5.129908292699994
 20
-1.056928356599996
 10
5.176696107099999
 20
-1.051059215799995
 10
5.219085593499997
 20
-1.044824566199991
 10
5.256899819099999
 20
-1.03818168139999
 10
5.289721212700001
 20
-1.031086770999991
 10
5.316691553499993
 20
-1.023556583800001
 10
5.336796775899998
 20
-1.015673737399993
 10
5.349242619099996
 20
-1.007529684600001
 10
5.353491508700003
 20
-0.9991791277999908
  0
LWPOLYLINE
  5
61
330
2
100
AcDbEntity
  8
0
100
AcDbPolyline
 90
       34
 70
     0
 43
0.0
 10
15.43599150869999
 20
-0.2991269150000022
 10
15.59181999989999
 20
-0.298954695799992
 10
15.74938970229999
 20
-0.2984273566000013
 10
15.9089872559
 20
-0.2975288605999964
 10
16.07070768309999
 20
-0.2962459565999893
 10
16.2338795279
 20
-0.2945764990000015
 10
16.39763971189999
 20
-0.2925211214000001
 10
16.5611718783
 20
-0.2900834398000001
 10
16.72384654069999
 20
-0.287278993399994
 10
16.88508093429999
 20
-0.2841263053999938
 10
17.04429886389999
 20
-0.2806464029999915
 10
17.20095043829999
 20
-0.2768703341999981
 10
17.35449233909999
 20
-0.27283165099999
 10
17.5045707007
 20
-0.2685584349999885
 10
17.65158946069999
 20
-0.2640568701999939
 10
17.7961420111
 20
-0.2593276685999939
 10
18.00959696149999
 20
-0.2518010317999995
 10
18.2205541231
 20
-0.2437207806000003
 10
18.43073105589999
 20
-0.235037639799998
 10
18.6418513551
 20
-0.2256773981999913
 10
18.78398619669999
 20
-0.2190181981999899
 10
18.92789007509999
 20
-0.2119796061999892
 10
19.0741460431
 20
-0.2045189213999947
 10
19.2231661199
 20
-0.19660193899999
 10
19.3746781791
 20
-0.1882284526000006
 10
19.5282390639
 20
-0.1794067502000018
 10
19.76143436789999
 20
-0.1653601582000022
 10
19.99663778389999
 20
-0.1504011005999928
 10
20.1537259839
 20
-0.1399649485999959
 10
20.31029434549999
 20
-0.1292121869999931
 10
20.4656437135
 20
-0.1181973661999933
 10
20.61923148789999
 20
-0.1069649085999913
 10
20.77114131509999
 20
-0.0955187486
 10
20.92161340469999
 20
-0.0838526957999903
  0
LINE
  5
62
330
2
100
AcDbEntity
  8
0
100
AcDbLine
 10
-7.104008491300002
 20
-0.2991269150000004
 30
0.0
 11
-6.478039241700005
 21
-0.2991269150000004
 31
0.0
  0
LINE
  5
63
330
2
100
AcDbEntity
  8
0
100
AcDbLine
 10
-2.717413430500005
 20
-0.2991269150000004
 30
0.0
 11
11.04943124309999
 21
-0.2991269150000004
 31
0.0
  0
LINE
  5
64
330
2
100
AcDbEntity
  8
0
100
AcDbLine
 10
14.80965922069999
 20
-0.2991269150000004
 30
0.0
 11
15.43599150869999
 21
-0.2991269150000004
 31
0.0
  0
LWPOLYLINE
  5
65
330
2
100
AcDbEntity
  8
0
100
AcDbPolyline
 90
        5
 70
     0
 43
0.0
 10
12.04391857269999
 20
-1.269646769399997
 10
9.369185039900003
 20
-1.260377788599996
 10
7.678233959899998
 20
-1.255427396599998
 10
5.921528038299996
 20
-1.251104406199999
 10
4.165991508700003
 20
-1.249341739000001
  0
LWPOLYLINE
  5
66
330
2
100
AcDbEntity
  8
0
100
AcDbPolyline
 90
       23
 70
     0
 43
0.0
 10
-3.776607529700001
 20
-0.9713306685999896
 10
-3.733796772899999
 20
-0.9716486653999965
 10
-3.690944643299999
 20
-0.9716803437999885
 10
-3.648073758500004
 20
-0.9714280365999883
 10
-3.6051752945
 20
-0.9708903821999967
 10
-3.562248337700005
 20
-0.9700621581999939
 10
-3.5192691425
 20
-0.9689333837999924
 10
-3.476446286499999
 20
-0.9674974205999973
 10
-3.434016633700004
 20
-0.9657499101999889
 10
-3.392060529700003
 20
-0.9636797917999899
 10
-3.350706835300002
 20
-0.9612748766000009
 10
-3.3103581521
 20
-0.9585390877999913
 10
-3.2714118385
 20
-0.9554824589999952
 10
-3.234040800100004
 20
-0.9521005373999997
 10
-3.198585108900005
 20
-0.9484031757999957
 10
-3.165472683300002
 20
-0.9444155006000016
 10
-3.135039027300003
 20
-0.9401602829999973
 10
-3.107572726500002
 20
-0.9356587549999915
 10
-3.083509302500004
 20
-0.9309667197999971
 10
-3.063177846500003
 20
-0.9261449197999951
 10
-3.046718982500003
 20
-0.9212305629999946
 10
-3.034293147300004
 20
-0.9162839501999968
 10
-3.0259711793
 20
-0.9113758909999916
  0
LWPOLYLINE
  5
67
330
2
100
AcDbEntity
  8
0
100
AcDbPolyline
 90
        4
 70
     0
 43
0.0
 10
-3.776607529700001
 20
-0.9713306685999896
 10
-4.665341832100004
 20
-0.9611633389999951
 10
-5.552873763299999
 20
-0.9499008253999932
 10
-6.439071035300003
 20
-0.9375441309999956
  0
LWPOLYLINE
  5
68
330
2
100
AcDbEntity
  8
0
100
AcDbPolyline
 90
       34
 70
     0
 43
0.0
 10
-12.5896303873
 20
-0.0838526957999903
 10
-12.4381881473
 20
-0.0955929486000002
 10
-12.2852446673
 20
-0.1071137453999995
 10
-12.1305492481
 20
-0.1184214398000023
 10
-11.9740146801
 20
-0.1295118349999882
 10
-11.8162077089
 20
-0.140338511799996
 10
-11.6578585681
 20
-0.1508444990000015
 10
-11.4207839633
 20
-0.1658962157999895
 10
-11.1858067729
 20
-0.1800178845999909
 10
-11.0311420545
 20
-0.1888785181999992
 10
-10.8786179953
 20
-0.1972815310000015
 10
-10.7286989505
 20
-0.2052183437999986
 10
-10.5816746337
 20
-0.2126890669999994
 10
-10.43713620169999
 20
-0.2197285374000017
 10
-10.2945001665
 20
-0.2263802765999969
 10
-10.0828783457
 20
-0.2357153757999981
 10
-9.872504491299999
 20
-0.2443585597999913
 10
-9.6616598401
 20
-0.2523861917999994
 10
-9.448628907300005
 20
-0.2598498605999993
 10
-9.3045332481
 20
-0.2645325165999992
 10
-9.158113643300005
 20
-0.2689847789999931
 10
-9.008779902500002
 20
-0.2732067294000018
 10
-8.8561269729
 20
-0.2771930990000015
 10
-8.700490374499999
 20
-0.2809172477999908
 10
-8.542390771299999
 20
-0.2843471853999944
 10
-8.382355315300003
 20
-0.2874533149999934
 10
-8.220937112100003
 20
-0.2902156045999931
 10
-8.058695761700001
 20
-0.2926164125999975
 10
-7.896235652900003
 20
-0.2946409373999899
 10
-7.734340342500004
 20
-0.2962857309999975
 10
-7.573838182500004
 20
-0.2975501821999984
 10
-7.415373611300005
 20
-0.2984363325999908
 10
-7.258855419300004
 20
-0.2989568157999969
 10
-7.1040084913
 20
-0.2991269150000022
  0
LWPOLYLINE
  5
69
330
2
100
AcDbEntity
  8
0
100
AcDbPolyline
 90
       17
 70
     0
 43
0.0
 10
-12.9590084913
 20
-1.634497057399997
 10
-12.7328032961
 20
-1.652736234999991
 10
-12.4938507441
 20
-1.669662385399988
 10
-12.2390110273
 20
-1.685368799799988
 10
-11.9644890929
 20
-1.700008095800001
 10
-11.6537822385
 20
-1.713943671799995
 10
-11.2964505697
 20
-1.72619281899999
 10
-10.8902058385
 20
-1.736341842999991
 10
-10.4292811585
 20
-1.7446188718
 10
-9.909836643300003
 20
-1.751591092599994
 10
-9.324638987300005
 20
-1.757240569399996
 10
-8.665007678500003
 20
-1.761392694199997
 10
-7.921812864100004
 20
-1.763893206199995
 10
-7.085671019300001
 20
-1.764643972599998
 10
-6.146995142500003
 20
-1.763670282999996
 10
-5.096264923300005
 20
-1.761051409399996
 10
-3.927134398500001
 20
-1.757049372599993
  0
LWPOLYLINE
  5
6A
330
2
100
AcDbEntity
  8
0
100
AcDbPolyline
 90
       18
 70
     0
 43
0.0
 10
-12.9590533121
 20
-1.131105441399995
 10
-12.7495276449
 20
-1.151784870199989
 10
-12.5291358289
 20
-1.170711758199999
 10
-12.2944814657
 20
-1.187934324599993
 10
-12.0435130401
 20
-1.203356802999991
 10
-11.7638853329
 20
-1.217362098999998
 10
-11.4435778065
 20
-1.229973873399998
 10
-11.0780737857
 20
-1.240830484599996
 10
-10.6631170321
 20
-1.249859158199996
 10
-10.1945540609
 20
-1.257501719799989
 10
-9.668130816100003
 20
-1.264044684599994
 10
-9.077058686500002
 20
-1.269334586999988
 10
-8.413291896100005
 20
-1.273220522999991
 10
-7.668455320100001
 20
-1.275570006199998
 10
-6.834017307300001
 20
-1.276322967799998
 10
-5.9012994753
 20
-1.275505852599991
 10
-4.862407510500005
 20
-1.273199113399996
 10
-3.711935555300001
 20
-1.269646769399997
  0
LWPOLYLINE
  5
6B
330
2
100
AcDbEntity
  8
0
100
AcDbPolyline
 90
       13
 70
     0
 43
0.0
 10
5.10481281909999
 20
-1.059642692599993
 10
5.095050315099996
 20
-1.058377246199995
 10
5.038705638300001
 20
-1.052017038199991
 10
4.978458103899995
 20
-1.046066407799997
 10
4.912623393499998
 20
-1.040391935799988
 10
4.839873673499994
 20
-1.034967230199995
 10
4.759233663899991
 20
-1.02984585739999
 10
4.67071969909999
 20
-1.025168798199999
 10
4.5756000959
 20
-1.021125450999988
 10
4.476244340699992
 20
-1.017892844599998
 10
4.374173241500002
 20
-1.015551306999995
 10
4.270392836699997
 20
-1.014135918199997
 10
4.165991508700003
 20
-1.013663586999996
  0
LWPOLYLINE
  5
6C
330
2
100
AcDbEntity
  8
0
100
AcDbPolyline
 90
       60
 70
     0
 43
0.0
 10
-14.4528177889
 20
2.340214001800006
 10
-14.6463651793
 20
2.385170285
 10
-14.8390003361
 20
2.433119232199999
 10
-15.0307964721
 20
2.484079934600003
 10
-15.2217476833
 20
2.538044749000007
 10
-15.4115316369
 20
2.594899117000011
 10
-15.5997468849
 20
2.654501747400004
 10
-15.7860147153
 20
2.716706992200002
 10
-15.9700473505
 20
2.781351780999997
 10
-16.1515797425
 20
2.848268688200008
 10
-16.3303458545
 20
2.917282041800007
 10
-16.5060756737
 20
2.988183187400011
 10
-16.6784981921
 20
3.060755225800008
 10
-16.84730962569999
 20
3.134754628999999
 10
-17.0120750577
 20
3.209831356999998
 10
-17.1723267921
 20
3.285608737800004
 10
-17.2892768481
 20
3.3426704994
 10
-17.4032558769
 20
3.399728673799998
 10
-17.5140948881
 20
3.456597427399998
 10
-17.6216248897
 20
3.5130909346
 10
-17.7257219185
 20
3.56904694100001
 10
-17.8264421217
 20
3.624397521800005
 10
-17.9238866769
 20
3.679098323399998
 10
-18.0181567569
 20
3.733105000199998
 10
-18.13908486249999
 20
3.803966214600009
 10
-18.2547763313
 20
3.873461782600003
 10
-18.3654581665
 20
3.941538899400001
 10
-18.4713596481
 20
4.008153718599999
 10
-18.5727191473
 20
4.073298221000001
 10
-18.6697773089
 20
4.1369733394
 10
-18.7627669297
 20
4.199181665800011
 10
-18.85188940489999
 20
4.259932417800001
 10
-18.9373382785
 20
4.319236475400003
 10
-19.01930295849999
 20
4.377106885000003
 10
-19.0979563153
 20
4.433565389000008
 10
-19.1734670897
 20
4.488635901000009
 10
-19.2460067121
 20
4.542348857800007
 10
-19.3157574161
 20
4.594760773000004
 10
-19.3829041297
 20
4.645934685
 10
-19.4476398897
 20
4.695944611400008
 10
-19.5101901473
 20
4.744908507399998
 10
-19.5707884641
 20
4.792955307400006
 10
-19.6296701009
 20
4.840220313800003
 10
-19.6870771329
 20
4.886864291400002
 10
-19.7432533313
 20
4.933054373000004
 10
-19.8256995969
 20
5.001831347399999
 10
-19.9064868273
 20
5.070391043400007
 10
-19.9861705473
 20
5.139165985800005
 10
-20.0652810081
 20
5.208607029000006
 10
-20.1443353377
 20
5.279174409800006
 10
-20.2238234449
 20
5.35134754900001
 10
-20.27728764969999
 20
5.400590056200002
 10
-20.3312579441
 20
5.4508801618
 10
-20.3858329121
 20
5.502336589000009
 10
-20.4411208673
 20
5.555091393799997
 10
-20.4972690417
 20
5.609329982600002
 10
-20.55443439209999
 20
5.665251093000009
 10
-20.6127270721
 20
5.723009349000008
 10
-20.6720700145
 20
5.782582899399997
 10
-20.7323393409
 20
5.843905776200003
  0
LWPOLYLINE
  5
6D
330
2
100
AcDbEntity
  8
0
100
AcDbPolyline
 90
       18
 70
     0
 43
0.0
 10
-1.228860497700004
 20
0.6491789330000018
 10
-0.6151836400999997
 20
0.7603952497999984
 10
0.002764817500001
 20
0.8582141810000081
 10
0.6219582638999981
 20
0.942078629000008
 10
1.242203796699996
 20
1.011979211400003
 10
1.988305548699997
 20
1.067907845000007
 10
2.610068915100001
 20
1.109858387400009
 10
3.232301926299996
 20
1.137826593799999
 10
3.854816537499999
 20
1.151809888200006
 10
4.477424996699994
 20
1.151806984200007
 10
5.099939561499994
 20
1.137817881800003
 10
5.722172497499997
 20
1.109843862600001
 10
6.343935779099993
 20
1.067887502600001
 10
6.965037406299998
 20
1.011953040199998
 10
7.585282711899992
 20
0.9420466258000033
 10
8.204475755099991
 20
0.8581763570000049
 10
8.947423596699991
 20
0.7603516289999988
 10
9.560843515100003
 20
0.6491789330000018
  0
LWPOLYLINE
  5
6E
330
2
100
AcDbEntity
  8
0
100
AcDbPolyline
 90
        4
 70
     0
 43
0.0
 10
19.04220758549999
 20
2.559720652999999
 10
18.82040808949999
 20
2.537575161800006
 10
18.59233528789999
 20
2.517991731400002
 10
18.35638233749999
 20
2.500983784200002
  0
LWPOLYLINE
  5
6F
330
2
100
AcDbEntity
  8
0
100
AcDbPolyline
 90
       26
 70
     0
 43
0.0
 10
18.35638233749999
 20
2.500983784200002
 10
18.11191739349999
 20
2.486683616200011
 10
17.85891502709999
 20
2.4752777602
 10
17.59753468629999
 20
2.466955800200011
 10
17.3283114207
 20
2.46190197620001
 10
17.05163941589999
 20
2.460273097799998
 10
16.76797003349999
 20
2.462208195400009
 10
16.47769056469999
 20
2.467830315400007
 10
16.18110337589999
 20
2.477252947400003
 10
15.8788840399
 20
2.490563905800001
 10
15.5717399743
 20
2.507825645000011
 10
15.26048969109999
 20
2.529070070599999
 10
14.94616740149999
 20
2.554285501000009
 10
14.62951373749999
 20
2.583454398600011
 10
14.3112630655
 20
2.616540376200006
 10
13.9925944143
 20
2.653434534600009
 10
13.6745674527
 20
2.694007651399999
 10
13.35803653749999
 20
2.738133669000006
 10
13.04383751349999
 20
2.785667966600001
 10
12.73432670389999
 20
2.836186875400002
 10
12.42909903989999
 20
2.8896700194
 10
12.10617210549999
 20
2.950096275399999
 10
11.74298424789999
 20
3.021621062600004
 10
11.33993255029999
 20
3.103474123400005
 10
10.88682940149999
 20
3.195885189000009
 10
10.41873123509999
 20
3.2888232082
  0
LWPOLYLINE
  5
71
330
2
100
AcDbEntity
  8
0
100
AcDbPolyline
 90
       29
 70
     0
 43
0.0
 10
-10.7102245665
 20
2.559720652999999
 10
-10.4884250721
 20
2.537575161800006
 10
-10.2603522705
 20
2.517991731400002
 10
-10.0243993201
 20
2.500983784200002
 10
-9.779934376100001
 20
2.486683616200011
 10
-9.526932009700004
 20
2.4752777602
 10
-9.265551667300002
 20
2.466955800200011
 10
-8.996328401700004
 20
2.46190197620001
 10
-8.719656396899999
 20
2.460273097799998
 10
-8.4359870161
 20
2.462208195400009
 10
-8.145707547300006
 20
2.467830315400007
 10
-7.849120358500002
 20
2.477252947400003
 10
-7.546901022500001
 20
2.490563905800001
 10
-7.239756955300002
 20
2.507825645000011
 10
-6.928506673699999
 20
2.529070070599999
 10
-6.614184382499999
 20
2.554285501000009
 10
-6.297530718499999
 20
2.583454398600011
 10
-5.979280046500001
 20
2.616540376200006
 10
-5.660611396900002
 20
2.653434534600009
 10
-5.342584433700004
 20
2.694007651399999
 10
-5.026053520099999
 20
2.738133669000006
 10
-4.711854496100002
 20
2.785667966600001
 10
-4.402343684900003
 20
2.836186875400002
 10
-4.097116020900003
 20
2.8896700194
 10
-3.774189086500001
 20
2.950096275399999
 10
-3.411001228900005
 20
3.021621062600004
 10
-3.007949532899999
 20
3.103474123400005
 10
-2.554846382500002
 20
3.195885189000009
 10
-2.086748216100005
 20
3.2888232082
  0
LWPOLYLINE
  5
72
330
2
100
AcDbEntity
  8
0
100
AcDbPolyline
 90
       22
 70
     0
 43
0.0
 10
9.560843513500003
 20
0.6491789186000006
 10
9.677550657499992
 20
0.6237085858000029
 10
9.795521769499998
 20
0.5917694258000097
 10
9.911678395099997
 20
0.5539828626000088
 10
10.02567723349999
 20
0.510464385800006
 10
10.13718166229999
 20
0.461347513800007
 10
10.24586259989999
 20
0.4067833314000069
 10
10.35139932469999
 20
0.346940046600011
 10
10.45348047669999
 20
0.2820024082000003
 10
10.55180474389999
 20
0.2121712882000111
 10
10.6460819615
 20
0.1376629666000042
 10
10.7360343551
 20
0.058708155399998
 10
10.8213995567
 20
-0.0244510718000015
 10
10.9019307935
 20
-0.1115627133999908
 10
10.97739516309999
 20
-0.2023639469999949
 10
11.04757470389999
 20
-0.29658277099999
 10
11.1122680447
 20
-0.3939411965999966
 10
11.1712888831
 20
-0.4941545645999952
 10
11.22446582549999
 20
-0.5969320557999965
 10
11.27164198709999
 20
-0.7019763277999971
 10
11.31267535829999
 20
-0.8089840845999987
 10
11.3416282463
 20
-0.8979080253999995
  0
LWPOLYLINE
  5
73
330
2
100
AcDbEntity
  8
0
100
AcDbPolyline
 90
       21
 70
     0
 43
0.0
 10
-2.847018027300002
 20
1.89304919380001
 10
-3.095041542500005
 20
1.834919909000007
 10
-3.343850432100005
 20
1.76617074580001
 10
-3.5898473473
 20
1.687594349000008
 10
-3.832588988899999
 20
1.599331437000003
 10
-4.071631011299999
 20
1.501545965000005
 10
-4.3065391425
 20
1.394421437000005
 10
-4.536888331300005
 20
1.278160702600004
 10
-4.762262108900003
 20
1.152986017800003
 10
-4.982253048100005
 20
1.0191388466
 10
-5.196464972900002
 20
0.8768785410000106
 10
-5.4045134817
 20
0.7264817986000054
 10
-5.606026216100005
 20
0.5682423890000053
 10
-5.800644249699999
 20
0.4024700562000021
 10
-5.988022780900003
 20
0.2294898098000004
 10
-6.167831524900002
 20
0.0496415345999992
 10
-6.339755737700002
 20
-0.1367209725999885
 10
-6.503496932899999
 20
-0.3292307389999962
 10
-6.658773657700002
 20
-0.5275084477999883
 10
-6.805322980900001
 20
-0.7311643310000023
 10
-6.910474089700002
 20
-0.8889240029999996
  0
LWPOLYLINE
  5
74
330
2
100
AcDbEntity
  8
0
100
AcDbPolyline
 90
       35
 70
     0
 43
0.0
 10
-0.9777497889000059
 20
3.512201513800008
 10
-0.9435572625000006
 20
3.519655491400001
 10
-0.9100720417000047
 20
3.527029281800011
 10
-0.8773122001000004
 20
3.534321776200002
 10
-0.8452950049000023
 20
3.541532021000008
 10
-0.8140397585000016
 20
3.54865856660001
 10
-0.7835656721000035
 20
3.555699926599999
 10
-0.7538863553000042
 20
3.562655848200009
 10
-0.7250162225000026
 20
3.569525846600001
 10
-0.6969713809000027
 20
3.576308961800009
 10
-0.6697673505000026
 20
3.583004285000001
 10
-0.6434169041000004
 20
3.589611499400007
 10
-0.6179415169000038
 20
3.596127963400007
 10
-0.5933280401000048
 20
3.602559904200006
 10
-0.5697190193000026
 20
3.608871949000004
 10
-0.5474637089000041
 20
3.614967747400001
 10
-0.5266123489000023
 20
3.620825550600002
 10
-0.5070365840999998
 20
3.626472699400011
 10
-0.4886480529000039
 20
3.631926838600008
 10
-0.4713609329000051
 20
3.637206245000001
 10
-0.4550999009000023
 20
3.642327502600011
 10
-0.4397976529000048
 20
3.647306173000004
 10
-0.4253949169000038
 20
3.6521567586
 10
-0.411840051300004
 20
3.656892773000009
 10
-0.3990887057000023
 20
3.66152683060001
 10
-0.3871035921000043
 20
3.666070694600009
 10
-0.3758542785000003
 20
3.670535349000004
 10
-0.3653171233000023
 20
3.674931022600006
 10
-0.3554752448999991
 20
3.679267243400005
 10
-0.3463185489000011
 20
3.68355286740001
 10
-0.3378440353000016
 20
3.687796033799997
 10
-0.3300559153000009
 20
3.692004216200004
 10
-0.3229660673000012
 20
3.696184165000005
 10
-0.3165935809000047
 20
3.700342507400009
 10
-0.3109689249000027
 20
3.704483294600009
  0
LINE
  5
75
330
2
100
AcDbEntity
  8
0
100
AcDbLine
 10
-1.048183574500003
 20
3.497057566600007
 30
0.0
 11
-0.9777497889000086
 21
3.512201513800009
 31
0.0
  0
LINE
  5
76
330
2
100
AcDbEntity
  8
0
100
AcDbLine
 10
-1.538033574500007
 20
3.389645565000011
 30
0.0
 11
-1.264587996900007
 21
3.448167379400006
 31
0.0
  0
LINE
  5
77
330
2
100
AcDbEntity
  8
0
100
AcDbLine
 10
-1.937051521700001
 20
3.304646133000007
 30
0.0
 11
-1.538033574500007
 21
3.389645565000011
 31
0.0
  0
LWPOLYLINE
  5
78
330
2
100
AcDbEntity
  8
0
100
AcDbPolyline
 90
       31
 70
     0
 43
0.0
 10
-1.264587996900004
 20
3.448167379400004
 10
-1.196282161700004
 20
3.462693245000011
 10
-1.127093204899999
 20
3.477122273800006
 10
-1.057043128100005
 20
3.491435379400002
 10
-0.9861592593000025
 20
3.505612795400011
 10
-0.9144902208999994
 20
3.519632078600011
 10
-0.8420899649000048
 20
3.533470109000006
 10
-0.7690027937000039
 20
3.547105940999998
 10
-0.6952344369000017
 20
3.560527325000009
 10
-0.6207809841000014
 20
3.573724177800002
 10
-0.5456479873000007
 20
3.586684899399998
 10
-0.4698788753000045
 20
3.599391798600009
 10
-0.3935265425000054
 20
3.611825661000011
 10
-0.3166391105000059
 20
3.623969425799998
 10
-0.2392456096999993
 20
3.635814637000009
 10
-0.1613703009000034
 20
3.647354993800007
 10
-0.0830376048999995
 20
3.658585590599997
 10
-0.004272588900001
 20
3.669507117000009
 10
0.0748995167000004
 20
3.680121662600001
 10
0.1544462478999975
 20
3.690430265800003
 10
0.2343061966999969
 20
3.70042977940001
 10
0.314410718299996
 20
3.710116006600003
 10
0.394702435100001
 20
3.719486168200006
 10
0.475169033499995
 20
3.728543149000003
 10
0.5558094638999976
 20
3.737291253000009
 10
0.6366112478999995
 20
3.745733549000007
 10
0.7175161918999962
 20
3.753868192200002
 10
0.7984546686999963
 20
3.761692107400008
 10
0.879365071899997
 20
3.769203152200006
 10
0.9602178606999984
 20
3.776402912199998
 10
1.040991508699995
 20
3.783293904200007
  0
LINE
  5
79
330
2
100
AcDbEntity
  8
0
100
AcDbLine
 10
-2.234711616100002
 20
3.241514723400003
 30
0.0
 11
-1.937051521700001
 21
3.304646133000007
 31
0.0
  0
LINE
  5
7A
330
2
100
AcDbEntity
  8
0
100
AcDbLine
 10
-1.121136342500004
 20
3.481625678600012
 30
0.0
 11
-1.048183574500003
 21
3.497057566600007
 31
0.0
  0
LINE
  5
7B
330
2
100
AcDbEntity
  8
0
100
AcDbLine
 10
-2.418666550500002
 20
3.202705792200008
 30
0.0
 11
-2.234711616100002
 21
3.241514723400003
 31
0.0
  0
LINE
  5
7C
330
2
100
AcDbEntity
  8
0
100
AcDbLine
 10
-2.543595345700008
 20
3.176483646600006
 30
0.0
 11
-2.418666550500002
 21
3.202705792200008
 31
0.0
  0
LINE
  5
7D
330
2
100
AcDbEntity
  8
0
100
AcDbLine
 10
-2.670089964900003
 20
3.150074569800013
 30
0.0
 11
-2.543595345700008
 21
3.176483646600006
 31
0.0
  0
LINE
  5
7E
330
2
100
AcDbEntity
  8
0
100
AcDbLine
 10
-1.196203824100005
 20
3.465968096200002
 30
0.0
 11
-1.121136342500004
 21
3.481625678600012
 31
0.0
  0
LINE
  5
7F
330
2
100
AcDbEntity
  8
0
100
AcDbLine
 10
-2.797859072100005
 20
3.123575011400008
 30
0.0
 11
-2.670089964900003
 21
3.150074569800013
 31
0.0
  0
LINE
  5
80
330
2
100
AcDbEntity
  8
0
100
AcDbLine
 10
-1.273217161700006
 20
3.450097342600004
 30
0.0
 11
-1.196203824100005
 21
3.465968096200002
 31
0.0
  0
LINE
  5
81
330
2
100
AcDbEntity
  8
0
100
AcDbLine
 10
-1.352060076900005
 20
3.4340167986
 30
0.0
 11
-1.273217161700006
 21
3.450097342600004
 31
0.0
  0
LINE
  5
82
330
2
100
AcDbEntity
  8
0
100
AcDbLine
 10
-1.473547955300001
 20
3.409505520200001
 30
0.0
 11
-1.352060076900005
 21
3.4340167986
 31
0.0
  0
LINE
  5
83
330
2
100
AcDbEntity
  8
0
100
AcDbLine
 10
-1.598688332900006
 20
3.384524341000004
 30
0.0
 11
-1.473547955300001
 21
3.409505520200001
 31
0.0
  0
LINE
  5
84
330
2
100
AcDbEntity
  8
0
100
AcDbLine
 10
-1.770945753700007
 20
3.350475049800012
 30
0.0
 11
-1.598688332900006
 21
3.384524341000004
 31
0.0
  0
LINE
  5
85
330
2
100
AcDbEntity
  8
0
100
AcDbLine
 10
-1.949195803300002
 20
3.315565584200003
 30
0.0
 11
-1.770945753700007
 21
3.350475049800012
 31
0.0
  0
LWPOLYLINE
  5
86
330
2
100
AcDbEntity
  8
0
100
AcDbPolyline
 90
       10
 70
     0
 43
0.0
 10
-3.450391496100003
 20
2.992493966600008
 10
-3.384521046500005
 20
3.005301720200009
 10
-3.318742876900003
 20
3.018204517
 10
-3.253064966500005
 20
3.031193347400005
 10
-3.187495286500002
 20
3.044259200200002
 10
-3.122046910500003
 20
3.057392134600007
 10
-3.056753312099999
 20
3.070578473799997
 10
-2.991653057700006
 20
3.0838036066
 10
-2.926784718500002
 20
3.097052923399999
 10
-2.797859072100003
 20
3.123575011400006
  0
LINE
  5
87
330
2
100
AcDbEntity
  8
0
100
AcDbLine
 10
-2.086749899300005
 20
3.2888228466
 30
0.0
 11
-1.949195803300002
 21
3.315565584200003
 31
0.0
  0
LWPOLYLINE
  5
88
330
2
100
AcDbEntity
  8
0
100
AcDbPolyline
 90
        4
 70
     0
 43
0.0
 10
-2.383035627300003
 20
1.975637640200005
 10
-2.537083428900004
 20
1.951874254599999
 10
-2.6937958209
 20
1.923983251400002
 10
-2.847018028900002
 20
1.89304919860001
  0
LWPOLYLINE
  5
89
330
2
100
AcDbEntity
  8
0
100
AcDbPolyline
 90
       67
 70
     0
 43
0.0
 10
-4.857206131300003
 20
1.998775625800007
 10
-4.9898386881
 20
1.979180800199998
 10
-5.125221603300005
 20
1.959896152200002
 10
-5.263327732900002
 20
1.940965984200005
 10
-5.404189292899999
 20
1.922428901000003
 10
-5.548075939300005
 20
1.904300705800011
 10
-5.6953166913
 20
1.886591502599998
 10
-5.808131822500001
 20
1.873594019400002
 10
-5.923070584100003
 20
1.860862422600007
 10
-6.040064619300004
 20
1.848432336200005
 10
-6.158564646500003
 20
1.836383805000011
 10
-6.397315060900005
 20
1.813765905800011
 10
-6.634868931300005
 20
1.793453353800003
 10
-6.872228920099999
 20
1.775336075400005
 10
-7.110959462500005
 20
1.759306301000009
 10
-7.229783579300004
 20
1.7521463522
 10
-7.347502078499999
 20
1.745587757000009
 10
-7.463693043300004
 20
1.739636984200004
 10
-7.578334054500004
 20
1.734274113799997
 10
-7.6915487841
 20
1.729472373000007
 10
-7.803645784100005
 20
1.725203929800002
 10
-7.914860289700001
 20
1.721445176200006
 10
-8.024949388900004
 20
1.718190437000004
 10
-8.169460268900003
 20
1.714625345800001
 10
-8.311081918500001
 20
1.711906888200005
 10
-8.449570177700003
 20
1.70998778740001
 10
-8.584765948899999
 20
1.708821038600007
 10
-8.716850360100004
 20
1.708360715400004
 10
-8.846089606500001
 20
1.708561161800005
 10
-8.972691408100004
 20
1.7093774386
 10
-9.096629598500001
 20
1.710767446600002
 10
-9.217819545700002
 20
1.71268980180001
 10
-9.359567243299999
 20
1.715645435400006
 10
-9.497488985700002
 20
1.719262804999999
 10
-9.631838168100003
 20
1.723496659399998
 10
-9.762868180899999
 20
1.72830174900001
 10
-9.890832414500003
 20
1.7336328242
 10
-10.0467970401
 20
1.740971638600001
 10
-10.1984695633
 20
1.7489986498
 10
-10.3459522369
 20
1.757650910600006
 10
-10.4893473121
 20
1.766865469000009
 10
-10.6287653217
 20
1.776582382600011
 10
-10.7643499297
 20
1.786753734599997
 10
-10.8962530769
 20
1.797334616200004
 10
-11.0246267057
 20
1.808280117000009
 10
-11.1496041681
 20
1.819546061000011
 10
-11.27124444649999
 20
1.831091193800006
 10
-11.3895879313
 20
1.842874990600009
 10
-11.5046750161
 20
1.854856929800007
 10
-11.6531259889
 20
1.871073083400005
 10
-11.7959387041
 20
1.887485725000004
 10
-11.9331922593
 20
1.904011128200011
 10
-12.0649963201
 20
1.920572593800002
 10
-12.1915828337
 20
1.937121520200008
 10
-12.3132143153
 20
1.953616329799999
 10
-12.4302031505
 20
1.970027489800003
 10
-12.5430611857
 20
1.986373654600001
 10
-12.6523501361
 20
2.002685525000003
 10
-12.7586194001
 20
2.018996950599998
 10
-12.8623691233
 20
2.035354398600006
 10
-12.9640871329
 20
2.051807486599997
 10
-13.1139687633
 20
2.076798046600003
 10
-13.2623047697
 20
2.102421286600005
 10
-13.5595608833
 20
2.156417771400001
 10
-13.8583497185
 20
2.214282872200001
 10
-14.15675114409999
 20
2.275689729800006
 10
-14.4528177889
 20
2.340214001800006
  0
LWPOLYLINE
  5
8A
330
2
100
AcDbEntity
  8
0
100
AcDbPolyline
 90
       58
 70
     0
 43
0.0
 10
-0.2568724945000014
 20
3.750466038600009
 10
-0.2945642865000053
 20
3.74649599700001
 10
-0.3323468737000041
 20
3.743461672199998
 10
-0.3701958465000033
 20
3.741365053000009
 10
-0.4080938065000055
 20
3.740207265800009
 10
-0.4459950273000004
 20
3.739989222600001
 10
-0.4836824241000031
 20
3.740703624200008
 10
-0.5208702385000024
 20
3.742319672200011
 10
-0.5574739409000032
 20
3.744796587400003
 10
-0.5935186353000006
 20
3.748098680200001
 10
-0.6290168577000017
 20
3.752192758600003
 10
-0.6639808817000059
 20
3.757048294600011
 10
-0.6984177985000031
 20
3.762636374600006
 10
-0.7323463409000013
 20
3.768932273800004
 10
-0.7657847697000051
 20
3.775914011400004
 10
-0.798745569700003
 20
3.783560905800001
 10
-0.8312433841000057
 20
3.79185493140001
 10
-0.8632918865000007
 20
3.800779989000005
 10
-0.894904814500002
 20
3.810322067400008
 10
-0.9260953377000049
 20
3.820468997000006
 10
-0.9568767089000047
 20
3.831210590600008
 10
-0.9872602193000048
 20
3.84253785460001
 10
-1.017260444900003
 20
3.854444897800007
 10
-1.046883120100005
 20
3.866924080200007
 10
-1.076141340900001
 20
3.879972379400001
 10
-1.105120145699999
 20
3.893623574599999
 10
-1.133874235300005
 20
3.907905465799998
 10
-1.1623638561
 20
3.922801955400004
 10
-1.190574393700003
 20
3.938308036999998
 10
-1.218512508900005
 20
3.954430821000002
 10
-1.246171528099999
 20
3.971171115400011
 10
-1.273548016100001
 20
3.988532363400011
 10
-1.300635705700003
 20
4.006517075399997
 10
-1.327427848100001
 20
4.02512814740001
 10
-1.353911643300001
 20
4.044364736200009
 10
-1.3800743281
 20
4.064226067399999
 10
-1.405911616099999
 20
4.08471831060001
 10
-1.431415088100003
 20
4.105845473800002
 10
-1.456571179299999
 20
4.127607901000004
 10
-1.481367496100006
 20
4.150007238600011
 10
-1.505790264099999
 20
4.173044277000002
 10
-1.529825235300002
 20
4.196719675400004
 10
-1.553457921700001
 20
4.221034200200008
 10
-1.576672456100006
 20
4.245987509000002
 10
-1.599454553699999
 20
4.271581326599999
 10
-1.621787244900005
 20
4.297814843400004
 10
-1.643639548900004
 20
4.324669881800005
 10
-1.664996540900006
 20
4.352146449800002
 10
-1.685856995299999
 20
4.380264156999999
 10
-1.706205521699999
 20
4.409026717000003
 10
-1.726025091300002
 20
4.438436769800006
 10
-1.7452971489
 20
4.468495805000003
 10
-1.764004232099999
 20
4.49920830100001
 10
-1.782122123300005
 20
4.530568673800004
 10
-1.799634036900002
 20
4.562585089800009
 10
-1.8165271441
 20
4.595276830599999
 10
-1.832659428900001
 20
4.628395952200008
 10
-1.848201900900001
 20
4.662340480200001
  0
LWPOLYLINE
  5
8B
330
2
100
AcDbEntity
  8
0
100
AcDbPolyline
 90
       30
 70
     0
 43
0.0
 10
1.040991508699995
 20
3.783293904200007
 10
1.123772383899996
 20
3.790117393800002
 10
1.204874947099995
 20
3.796638536200006
 10
1.284284241499996
 20
3.802868822600004
 10
1.486985307099999
 20
3.808819737800007
 10
1.562972507099999
 20
3.814502953800001
 10
1.637277487899993
 20
3.819930853000002
 10
1.709941217500002
 20
3.825115995400011
 10
1.781004663899992
 20
3.830070945800002
 10
1.850506116700003
 20
3.834807644999997
 10
1.918473159900003
 20
3.839335549000011
 10
1.98493069909999
 20
3.843663488200007
 10
2.049903636699994
 20
3.847800301000006
 10
2.113418145499991
 20
3.851754624199998
 10
2.175505465499995
 20
3.855534323400007
 10
2.236198100699994
 20
3.859147064200001
 10
2.295528556699991
 20
3.862600515400004
 10
2.372571567899996
 20
3.86696997300001
 10
2.447318755099999
 20
3.8710843474
 10
2.519838153500003
 20
3.874958107400004
 10
2.5901981903
 20
3.878605310600008
 10
2.658468844699996
 20
3.882038381
 10
2.7247204783
 20
3.885269336200011
 10
2.789016339100001
 20
3.888309577800001
 10
2.851391183899991
 20
3.891168032199999
 10
2.911872647899997
 20
3.893853011400011
 10
2.970487331100002
 20
3.896372628999998
 10
3.027257684700003
 20
3.898734208200011
 10
3.082205119899995
 20
3.900944877
 10
3.135348540699993
 20
3.9030115682
  0
LWPOLYLINE
  5
8C
330
2
100
AcDbEntity
  8
0
100
AcDbPolyline
 90
       44
 70
     0
 43
0.0
 10
4.165991508700003
 20
5.386269126599998
 10
4.295013511899995
 20
5.391587422600011
 10
4.422349843099993
 20
5.407298861000001
 10
4.545970244700001
 20
5.4326434898
 10
4.664670961499993
 20
5.466602429000005
 10
4.777736809499998
 20
5.508074067400002
 10
4.884809615899996
 20
5.555997160200007
 10
4.985984356700001
 20
5.609525662600006
 10
5.081745748700001
 20
5.668150771400007
 10
5.172476047899991
 20
5.731489952200007
 10
5.25876323349999
 20
5.799500704199999
 10
5.341073791900001
 20
5.872287269000011
 10
5.4198035183
 20
5.950130440199998
 10
5.495229083099999
 20
6.03345057620001
 10
5.567539331099993
 20
6.122863272200007
 10
5.636712492699999
 20
6.219066001800001
 10
5.702555702300003
 20
6.322925289800011
 10
5.764424671900002
 20
6.435066584200001
 10
5.821394175899996
 20
6.556187710599999
 10
5.87206225429999
 20
6.686765089800005
 10
5.913502108700001
 20
6.8228823954
 10
5.943468406299999
 20
6.958411699400002
 10
5.962013739100001
 20
7.092062760200008
 10
5.969461529499994
 20
7.223447713799998
 10
5.966078273500002
 20
7.355030926600008
 10
5.951774070300004
 20
7.487642115400007
 10
5.926450583899992
 20
7.620266176200004
 10
5.890106268699994
 20
7.751892613000009
 10
5.842837327899999
 20
7.881510326600007
 10
5.784844249499997
 20
8.008104299400002
 10
5.716488894299999
 20
8.130584515400002
 10
5.638107091099996
 20
8.248133987400009
 10
5.550198902299996
 20
8.359813883400008
 10
5.4533448735
 20
8.464745174600011
 10
5.34822268629999
 20
8.562092702600011
 10
5.235561262299995
 20
8.651113273800007
 10
5.116188891099994
 20
8.731114529800009
 10
4.990876444699992
 20
8.801556611400002
 10
4.860467363099999
 20
8.861944405000002
 10
4.725902721499991
 20
8.91183925300001
 10
4.5881491775
 20
8.9509035202
 10
4.448419591899991
 20
8.978864685000004
 10
4.307521734299996
 20
8.995660339400004
 10
4.165991508700003
 20
9.001269907400001
  0
LINE
  5
8D
330
2
100
AcDbEntity
  8
0
100
AcDbLine
 10
3.135348540699991
 20
3.903011568200001
 30
0.0
 11
3.236256225499997
 21
3.906737419400004
 31
0.0
  0
LINE
  5
8E
330
2
100
AcDbEntity
  8
0
100
AcDbLine
 10
3.236256225499997
 20
3.906737419400004
 30
0.0
 11
3.330106707099997
 21
3.909961357000002
 31
0.0
  0
LINE
  5
8F
330
2
100
AcDbEntity
  8
0
100
AcDbLine
 10
3.330106707099997
 20
3.909961357000002
 30
0.0
 11
3.417336291099997
 21
3.912740227400009
 31
0.0
  0
LWPOLYLINE
  5
90
330
2
100
AcDbEntity
  8
0
100
AcDbPolyline
 90
       10
 70
     0
 43
0.0
 10
3.417336291099999
 20
3.912740227400007
 10
3.498957646299999
 20
3.915140590600003
 10
3.557386764699998
 20
3.916735299400002
 10
3.614058407900003
 20
3.918178771400008
 10
3.669533100699993
 20
3.91948962100001
 10
3.724436527899996
 20
3.920681837000003
 10
3.834364006299992
 20
3.922736549000006
 10
3.945026665499995
 20
3.924313185800002
 10
4.0557786703
 20
3.925329900999997
 10
4.165991508700003
 20
3.925692765000007
  0
LWPOLYLINE
  5
91
330
2
100
AcDbEntity
  8
0
100
AcDbPolyline
 90
       21
 70
     0
 43
0.0
 10
4.165991508700003
 20
4.0143910978
 10
4.026941918299996
 20
4.013818382600007
 10
3.874802495899999
 20
4.012066833800005
 10
3.712808398299998
 20
4.009155237000001
 10
3.542467820699997
 20
4.00511315220001
 10
3.361533371099994
 20
3.999859827400001
 10
3.168794353500004
 20
3.993286533000002
 10
2.961129171099997
 20
3.9851633106
 10
2.730132471899992
 20
3.974932166599998
 10
2.465398604699998
 20
3.961730107400001
 10
2.1737366479
 20
3.945451737799999
 10
1.890052487899993
 20
3.927964995400003
 10
1.631818311899991
 20
3.910669776200009
 10
1.277912433499999
 20
3.894231641800004
 10
1.0685332591
 20
3.878248153800001
 10
0.8540950942999998
 20
3.8608755634
 10
0.6195786687000009
 20
3.840608030600009
 10
0.3796211742999986
 20
3.818359718600007
 10
0.1500478542999986
 20
3.795481150600011
 10
-0.0631670785000012
 20
3.772667638599997
 10
-0.2568724945000014
 20
3.750466037000009
  0
LWPOLYLINE
  5
92
330
2
100
AcDbEntity
  8
0
100
AcDbPolyline
 90
       50
 70
     0
 43
0.0
 10
4.165991508700003
 20
2.664024889800003
 10
3.908932332700004
 20
2.663477950600011
 10
3.649151358300002
 20
2.661799640200001
 10
3.385406537500003
 20
2.65893370900001
 10
3.1845371327
 20
2.655974163400003
 10
2.981941343900004
 20
2.652309888200008
 10
2.779508207899993
 20
2.647961129800009
 10
2.580422198299999
 20
2.643015843400007
 10
2.383526111899996
 20
2.637472249799998
 10
2.189342187099995
 20
2.631370814600003
 10
2.062088079899993
 20
2.627027112200011
 10
1.937309142299994
 20
2.622506488200002
 10
1.815694987100002
 20
2.617853545800002
 10
1.697722377499999
 20
2.613104107400005
 10
1.5830167055
 20
2.608258841800008
 10
1.470990510299998
 20
2.603309630600008
 10
1.236208715099998
 20
2.598254998599998
 10
1.128845753499994
 20
2.593120051400006
 10
1.0242284431
 20
2.587936531400004
 10
0.9025308862999992
 20
2.581681934599998
 10
0.7843752478999946
 20
2.575368229000005
 10
0.668879095899996
 20
2.568960533000009
 10
0.5551599982999989
 20
2.562423965000007
 10
0.442335524699999
 20
2.5557236434
 10
0.3021117567000004
 20
2.547110742600011
 10
0.1643000718999943
 20
2.538323969800003
 10
0.026780006300001
 20
2.529238270600004
 10
-0.1119929873000061
 20
2.519745566600008
 10
-0.2527467825000045
 20
2.509785574600002
 10
-0.3947605201000002
 20
2.49940135860001
 10
-0.6799782241000046
 20
2.477516077000004
 10
-0.9670191553000009
 20
2.454100902600004
 10
-1.254296817700002
 20
2.429282521800004
 10
-1.539967883300001
 20
2.403216636999999
 10
-1.823863840100003
 20
2.375939753800011
 10
-2.106329889699999
 20
2.347445353799997
 10
-2.388091286499999
 20
2.317674033800003
 10
-2.670276088100003
 20
2.286508233800006
 10
-2.955243516900004
 20
2.25365067700001
 10
-3.148052964900003
 20
2.2306359186
 10
-3.343883969700002
 20
2.206610611400009
 10
-3.543336020899999
 20
2.1814681938
 10
-3.695688208100001
 20
2.161808081800003
 10
-3.850824606500005
 20
2.141378153800005
 10
-4.009155372900004
 20
2.120096913800011
 10
-4.171090665699999
 20
2.097882862600002
 10
-4.336948860900001
 20
2.074665547400002
 10
-4.506681198500004
 20
2.050418710599998
 10
-4.680147136100003
 20
2.025127140999998
 10
-4.857206131300003
 20
1.998775625800007
  0
LWPOLYLINE
  5
93
330
2
100
AcDbEntity
  8
0
100
AcDbPolyline
 90
        8
 70
     0
 43
0.0
 10
4.165991508700003
 20
3.925692765000007
 10
4.275553427099993
 20
3.9253340498
 10
4.385650518299996
 20
3.924328596999998
 10
4.495648073499992
 20
3.922769115400001
 10
4.604903654300002
 20
3.92073653780001
 10
4.659505215899997
 20
3.91955625940001
 10
4.714717057499996
 20
3.918257349
 10
4.771172766299997
 20
3.916825425799999
  0
LWPOLYLINE
  5
94
330
2
100
AcDbEntity
  8
0
100
AcDbPolyline
 90
       21
 70
     0
 43
0.0
 10
4.165991508700003
 20
4.0143910978
 10
4.306647665499994
 20
4.013796460999998
 10
4.459605257500001
 20
4.012011374600007
 10
4.622718499100002
 20
4.009050350600006
 10
4.794059310299999
 20
4.004950421000003
 10
4.976028414300003
 20
3.999628198600007
 10
5.169694987100001
 20
3.992979577799999
 10
5.378538774299997
 20
3.984760333000011
 10
5.610968292699993
 20
3.974405865800008
 10
5.879198983899996
 20
3.960949681800002
 10
6.172157230300001
 20
3.944503137799998
 10
6.454418644699998
 20
3.927017960200004
 10
6.709734387099999
 20
3.909854332999998
 10
6.937852035099993
 20
3.893425406600002
 10
7.146857270300003
 20
3.877430078599999
 10
7.362986337500004
 20
3.859875096199999
 10
7.596532825499991
 20
3.839639385799998
 10
7.834225273499995
 20
3.817557413000002
 10
8.06091840949999
 20
3.794941451400006
 10
8.272921015899996
 20
3.772250395400007
 10
8.463969521500004
 20
3.750363121800006
  0
LINE
  5
95
330
2
100
AcDbEntity
  8
0
100
AcDbLine
 10
4.771172766299994
 20
3.9168254258
 30
0.0
 11
4.869568302299993
 21
3.914090502600005
 31
0.0
  0
LINE
  5
96
330
2
100
AcDbEntity
  8
0
100
AcDbLine
 10
4.869568302299993
 20
3.914090502600005
 30
0.0
 11
4.953746079899997
 21
3.911521094600006
 31
0.0
  0
LINE
  5
97
330
2
100
AcDbEntity
  8
0
100
AcDbLine
 10
4.953746079899997
 20
3.911521094600006
 30
0.0
 11
5.044244793499996
 21
3.908535385800009
 31
0.0
  0
LWPOLYLINE
  5
98
330
2
100
AcDbEntity
  8
0
100
AcDbPolyline
 90
       32
 70
     0
 43
0.0
 10
5.044244793499998
 20
3.908535385800007
 10
5.141639126299992
 20
3.905074875400003
 10
5.193003979099998
 20
3.9031501762
 10
5.246162380699999
 20
3.90108772340001
 10
5.301125859099997
 20
3.898881288200001
 10
5.357913281500003
 20
3.896523944199998
 10
5.416545347099997
 20
3.894008589000009
 10
5.477044571099995
 20
3.891327888200009
 10
5.539440740700001
 20
3.888473568199998
 10
5.603765460700003
 20
3.885437123400009
 10
5.670057065500003
 20
3.8822094386
 10
5.738380820700001
 20
3.878778957000008
 10
5.8088087215
 20
3.875133520200009
 10
5.8814122255
 20
3.871260558599999
 10
5.956260625499993
 20
3.867145889799999
 10
6.033422678299999
 20
3.86277492020001
 10
6.092854539100002
 20
3.859319456199997
 10
6.153659275099997
 20
3.85570388020001
 10
6.215869659099993
 20
3.851920457800005
 10
6.279518460700003
 20
3.84796145300001
 10
6.344637163100003
 20
3.843818934600008
 10
6.411252078299995
 20
3.839484192200004
 10
6.479388231900003
 20
3.834948318599998
 10
6.549070647899995
 20
3.830202406600008
 10
6.620327073499993
 20
3.825236916999998
 10
6.693196166299998
 20
3.820039798600006
 10
6.767719307099994
 20
3.814598363400008
 10
6.843937878299996
 20
3.808899926600005
 10
6.921883844699991
 20
3.8029319826
 10
7.001551511900004
 20
3.796682739399997
 10
7.082925769499993
 20
3.790140584200003
 10
7.165991508700003
 20
3.783293904200007
  0
LWPOLYLINE
  5
99
330
2
100
AcDbEntity
  8
0
100
AcDbPolyline
 90
       44
 70
     0
 43
0.0
 10
4.165991508700003
 20
5.386269126599998
 10
4.036969505499996
 20
5.391587422600011
 10
3.909633175899998
 20
5.407298861000001
 10
3.78601277429999
 20
5.4326434898
 10
3.667312055899998
 20
5.466602429000005
 10
3.554246207899993
 20
5.508074067400002
 10
3.447173403099995
 20
5.555997160200007
 10
3.34599866229999
 20
5.609525662600006
 10
3.25023726869999
 20
5.668150771400007
 10
3.1595069695
 20
5.731489952200007
 10
3.0732197839
 20
5.799500704199999
 10
2.99090922549999
 20
5.872287269000011
 10
2.912179500699991
 20
5.950130440199998
 10
2.836753934299991
 20
6.03345057620001
 10
2.764443687899998
 20
6.122863272200007
 10
2.695270524699992
 20
6.219066001800001
 10
2.629427315100002
 20
6.322925289800011
 10
2.567558345500003
 20
6.435066584200001
 10
2.510588843099995
 20
6.556187710599999
 10
2.459920763100001
 20
6.686765089800005
 10
2.41848090869999
 20
6.8228823954
 10
2.388514611099992
 20
6.958411699400002
 10
2.369969278300004
 20
7.092062760200008
 10
2.362521487899996
 20
7.223447713799998
 10
2.365904745500003
 20
7.355030926600008
 10
2.380208947100001
 20
7.487642115400007
 10
2.405532435099999
 20
7.620266176200004
 10
2.441876750299996
 20
7.751892613000009
 10
2.489145689499991
 20
7.881510326600007
 10
2.547138767899994
 20
8.008104299400002
 10
2.615494124699992
 20
8.130584515400002
 10
2.693875927899995
 20
8.248133987400009
 10
2.781784115099995
 20
8.359813883400008
 10
2.878638143899991
 20
8.464745174600011
 10
2.9837603311
 20
8.562092702600011
 10
3.096421755099996
 20
8.651113273800007
 10
3.215794127899997
 20
8.731114529800009
 10
3.341106572699999
 20
8.801556611400002
 10
3.471515655899992
 20
8.861944405000002
 10
3.6060802959
 20
8.91183925300001
 10
3.743833839899991
 20
8.9509035202
 10
3.8835634255
 20
8.978864685000004
 10
4.024461284699995
 20
8.995660339400004
 10
4.165991508700003
 20
9.001269907400001
  0
LWPOLYLINE
  5
9A
330
2
100
AcDbEntity
  8
0
100
AcDbPolyline
 90
       31
 70
     0
 43
0.0
 10
7.165991508700003
 20
3.783293904200007
 10
7.246765158299993
 20
3.776402912199998
 10
7.327617948699995
 20
3.769203152200006
 10
7.408528353500003
 20
3.761692107400008
 10
7.489466831900003
 20
3.753868192200002
 10
7.570371774299999
 20
3.745733547400007
 10
7.651173559900001
 20
3.737291251400009
 10
7.731813990299997
 20
3.728543149000003
 10
7.812280588699991
 20
3.719486166600006
 10
7.892572307099996
 20
3.710116005000003
 10
7.972676828700002
 20
3.70042977780001
 10
8.052536777499994
 20
3.690430264200003
 10
8.132083508699992
 20
3.680121661000001
 10
8.2112556143
 20
3.669507117000009
 10
8.290020628699991
 20
3.658585589000011
 10
8.368353324699995
 20
3.647354992200007
 10
8.446228631899998
 20
3.635814637000009
 10
8.523622132699998
 20
3.623969424199998
 10
8.60050956629999
 20
3.611825661000011
 10
8.676861899100003
 20
3.599391798600009
 10
8.752631011099992
 20
3.586684899399998
 10
8.9527640063
 20
3.573724177800002
 10
9.0272174575
 20
3.560527323400009
 10
9.100985812700002
 20
3.547105940999998
 10
9.174072983900003
 20
3.533470109000006
 10
9.246473241499998
 20
3.519632078600011
 10
9.318142279900001
 20
3.505612795400011
 10
9.389026148699997
 20
3.491435379400002
 10
9.459076223899998
 20
3.477122273800006
 10
9.528265180700003
 20
3.462693245000011
 10
9.596571014299996
 20
3.448167379400004
  0
LWPOLYLINE
  5
9B
330
2
100
AcDbEntity
  8
0
100
AcDbPolyline
 90
       58
 70
     0
 43
0.0
 10
8.463969521500004
 20
3.750363125000006
 10
8.501648523100001
 20
3.746396861000008
 10
8.539418339099995
 20
3.743365712200002
 10
8.57725464309999
 20
3.741271654599998
 10
8.6151400735
 20
3.740115814600002
 10
8.653024363100001
 20
3.739899072200003
 10
8.690685633499995
 20
3.74061364500001
 10
8.727840382300001
 20
3.742228190600002
 10
8.764410761500002
 20
3.744701982600005
 10
8.80042468789999
 20
3.747999622600005
 10
8.960894403099999
 20
3.75208808180001
 10
8.995831902299997
 20
3.756936961800008
 10
9.030244219099998
 20
3.762517483400003
 10
9.064150135899993
 20
3.768805065800009
 10
9.097567455899991
 20
3.7757777666
 10
9.130508977499999
 20
3.783415080200001
 10
9.162989095900002
 20
3.7916990338
 10
9.195021489499993
 20
3.800613629000011
 10
9.226619803099993
 20
3.810144926600003
 10
9.257797195099996
 20
3.820280843399999
 10
9.288566694300001
 20
3.831011203400009
 10
9.318940084700003
 20
3.842327275400009
 10
9.348930499099992
 20
3.85422268660001
 10
9.378546811099994
 20
3.866691163400005
 10
9.40779756629999
 20
3.879727835400004
 10
9.436763985499993
 20
3.893364510600008
 10
9.465510207899995
 20
3.90763337620001
 10
9.493994507099998
 20
3.922517616200011
 10
9.522199996699995
 20
3.938011126600002
 10
9.550134913500002
 20
3.954121949000011
 10
9.57779187829999
 20
3.970850582600007
 10
9.60516783189999
 20
3.988200795400004
 10
9.632256249500002
 20
4.006175035400005
 10
9.659050694299992
 20
4.024776520200006
 10
9.685537998299992
 20
4.044004272199998
 10
9.711705473500003
 20
4.063857681800001
 10
9.737549123099995
 20
4.084343277000002
 10
9.763060099100002
 20
4.105464864200001
 10
9.78822494389999
 20
4.127223017800005
 10
9.813031134300004
 20
4.14961941620001
 10
9.837464838299993
 20
4.172654952200005
 10
9.861511702299992
 20
4.196330341000006
 10
9.885157166300004
 20
4.220646440199999
 10
9.908385187099995
 20
4.24560288340001
 10
9.931181566299997
 20
4.271201673800007
 10
9.953528827100001
 20
4.297441587400001
 10
9.975397483099996
 20
4.324306485000008
 10
9.99677044949999
 20
4.351793964999998
 10
10.01764559029999
 20
4.379922456200006
 10
10.03800966709999
 20
4.408698702600005
 10
10.05784405429999
 20
4.438123301000004
 10
10.07713135829999
 20
4.4681996626
 10
10.0958519183
 20
4.498928945800003
 10
10.1139855663
 20
4.530312608200006
 10
10.13150991669999
 20
4.562349349000001
 10
10.1484032063
 20
4.595040041800004
 10
10.16464191189999
 20
4.628383499400001
 10
10.18018502869999
 20
4.662340726600007
  0
LWPOLYLINE
  5
9C
330
2
100
AcDbEntity
  8
0
100
AcDbPolyline
 90
       17
 70
     0
 43
0.0
 10
10.71501864469999
 20
1.975637640200005
 10
9.916283691099991
 20
2.082363040200007
 10
9.113811028699998
 20
2.175212265799999
 10
8.185808673499991
 20
2.253754062600009
 10
7.382371067099995
 20
2.317999460999999
 10
6.578593607900003
 20
2.367957729800011
 10
5.774570009499996
 20
2.403636592200001
 10
4.970385755099997
 20
2.425042220999998
 10
4.166121212699991
 20
2.432178528199997
 10
3.361856620699995
 20
2.425046821000009
 10
2.557672254300001
 20
2.403645792200009
 10
1.753648542299998
 20
2.367971529800001
 10
0.8248709838999985
 20
2.318017865800001
 10
0.0214332623000004
 20
2.253777073800009
 10
-0.7815692753000008
 20
2.17523988500001
 10
-1.584042216100002
 20
2.082395261000002
 10
-2.383035627300003
 20
1.975637640200005
  0
LWPOLYLINE
  5
9D
330
2
100
AcDbEntity
  8
0
100
AcDbPolyline
 90
       50
 70
     0
 43
0.0
 10
13.18918914869999
 20
1.998775625800007
 10
13.00895888789999
 20
2.02559428340001
 10
12.83232636149999
 20
2.051333195400005
 10
12.6594226271
 20
2.076009472199999
 10
12.49037874229999
 20
2.099640217800001
 10
12.32524032629999
 20
2.122252749000011
 10
12.16371124789999
 20
2.1439152194
 10
12.0054099327
 20
2.164705990599998
 10
11.84995481429999
 20
2.184703429000009
 10
11.6465061887
 20
2.21025452980001
 10
11.44687640789999
 20
2.23463923700001
 10
11.2505027567
 20
2.257962219399999
 10
11.05679672629999
 20
2.280326789
 10
10.8650666015
 20
2.301830837000011
 10
10.67459487029999
 20
2.322570896200005
 10
10.38993139669999
 20
2.352421579400001
 10
10.10558846869999
 20
2.380867728200001
 10
9.820665108699998
 20
2.407999963400001
 10
9.534242158300003
 20
2.433882419400006
 10
9.246024561499993
 20
2.458524566600004
 10
8.958231838299994
 20
2.481743684999997
 10
8.54775995029999
 20
2.503389307399999
 10
8.405616955100001
 20
2.5136527282
 10
8.264783169499992
 20
2.523490840200011
 10
8.125966983899999
 20
2.53286198580001
 10
7.9878815231
 20
2.54185630900001
 10
7.70917660149999
 20
2.559039606600009
 10
7.596450977499998
 20
2.565628339400007
 10
7.48243788789999
 20
2.572073398600011
 10
7.366490798299992
 20
2.578396523400002
 10
7.247963175899997
 20
2.584619453000001
 10
7.126208486300001
 20
2.590763925000004
 10
7.021920843099991
 20
2.595833566600006
 10
6.915206022299997
 20
2.600837385800005
 10
6.806326844699995
 20
2.605748945800002
 10
6.695430831899997
 20
2.610546806599998
 10
6.582204303899999
 20
2.615229497800001
 10
6.46621827829999
 20
2.619800542600003
 10
6.347209211099993
 20
2.624256981000002
 10
6.2255752975
 20
2.628569925000007
 10
6.101880169499992
 20
2.632704003400007
 10
5.913456863899995
 20
2.6385062226
 10
5.722073575899997
 20
2.643790129800009
 10
5.528184879899995
 20
2.648519198599998
 10
5.332425327899997
 20
2.652655920200004
 10
5.1356169039
 20
2.6561661426
 10
4.939151351899994
 20
2.659030108999999
 10
4.679589348699991
 20
2.661827544200008
 10
4.422243134300003
 20
2.663481192200009
 10
4.165991508700003
 20
2.664024889800003
  0
LWPOLYLINE
  5
9E
330
2
100
AcDbEntity
  8
0
100
AcDbPolyline
 90
      135
 70
     0
 43
0.0
 10
11.7823745151
 20
2.992493966600008
 10
11.9851609823
 20
2.953633915400004
 10
12.1888064015
 20
2.915577824199999
 10
12.39255936309999
 20
2.878748854600004
 10
12.59570173589999
 20
2.843516429000004
 10
12.69747807349999
 20
2.826448709000004
 10
12.8004974863
 20
2.809571518600009
 10
12.90588980309999
 20
2.792712593800004
 10
13.01466987669999
 20
2.775743459400004
 10
13.08956638069999
 20
2.764312228999997
 10
13.1667434303
 20
2.752749707399999
 10
13.24653762869999
 20
2.741025822600008
 10
13.32924063669999
 20
2.729118691400003
 10
13.41496431349999
 20
2.717039200200005
 10
13.50377557269999
 20
2.704806421
 10
13.59573250389999
 20
2.692441331400004
 10
13.69085788469999
 20
2.67997252020001
 10
13.78916567029999
 20
2.66743047700001
 10
13.8906698783
 20
2.654846328200008
 10
13.99538480629999
 20
2.642253736200004
 10
14.10332481429999
 20
2.629687000200007
 10
14.2145295759
 20
2.617179013000011
 10
14.32913999029999
 20
2.604757032199998
 10
14.44732227189999
 20
2.592446910600003
 10
14.5692469823
 20
2.5802768434
 10
14.69510209109999
 20
2.568284404999999
 10
14.82507991989999
 20
2.556509513800008
 10
14.9593691231
 20
2.54499559540001
 10
15.09814368629999
 20
2.53380008660001
 10
15.24157392629999
 20
2.522983928200005
 10
15.35232095509999
 20
2.51515860020001
 10
15.4659540847
 20
2.5076137458
 10
15.58264479029999
 20
2.500382174600005
 10
15.70256455189999
 20
2.493496696200011
 10
15.82588705589999
 20
2.486994043400002
 10
15.95279482069999
 20
2.480926624200009
 10
16.0834725711
 20
2.475350768200001
 10
16.21810503829999
 20
2.470322805000009
 10
16.35686854549999
 20
2.465905457800005
 10
16.49990580629999
 20
2.462187013000004
 10
16.64735113429999
 20
2.459262150600011
 10
16.7993388399
 20
2.4572255522
 10
16.95591749909999
 20
2.456175297800001
 10
17.11679274389999
 20
2.456223065800003
 10
17.28179355509999
 20
2.457491981000003
 10
17.4515852655
 20
2.460137355400007
 10
17.6266126543
 20
2.464310985800011
 10
17.8056019775
 20
2.470118462599998
 10
17.9871419503
 20
2.477665083399998
 10
18.1709896911
 20
2.4871011826
 10
18.35694640629999
 20
2.498552227400011
 10
18.54382126069999
 20
2.511999155400005
 10
18.73017541429999
 20
2.527386779400004
 10
18.91457002389999
 20
2.544659905800003
 10
19.09593930389999
 20
2.56377448180001
 10
19.2747097039
 20
2.584731005000008
 10
19.4514640191
 20
2.607525288200008
 10
19.6259182063
 20
2.632089859400011
 10
19.85436238709999
 20
2.66748955860001
 10
20.0783326911
 20
2.705913662600011
 10
20.2983345823
 20
2.747387481800004
 10
20.5148450911
 20
2.791929701
 10
20.7282275167
 20
2.839532504200008
 10
20.9388167231
 20
2.89018145300001
 10
21.14697084149999
 20
2.943882453
 10
21.35314109429999
 20
3.000722800200009
 10
21.55780196949999
 20
3.060810137800004
 10
21.76136926869999
 20
3.124242803400008
 10
21.96402402869999
 20
3.191081913800005
 10
22.1658886031
 20
3.261379280200003
 10
22.36708647349999
 20
3.335191993800009
 10
22.56774565109999
 20
3.412598260999999
 10
22.76799527669999
 20
3.493681569800003
 10
22.96778604309999
 20
3.578441533000003
 10
23.16635483349999
 20
3.666542277000004
 10
23.36276007669999
 20
3.75756406100001
 10
23.50805854869999
 20
3.827463995400009
 10
23.65109784949999
 20
3.898408848200006
 10
23.79136543349999
 20
3.9700365586
 10
23.9283487599
 20
4.041985064200005
 10
24.0615821743
 20
4.113903077000003
 10
24.19078760309999
 20
4.185482374599999
 10
24.31573386229999
 20
4.25642550900001
 10
24.4361897679
 20
4.326435030600009
 10
24.55200315189999
 20
4.395261574599999
 10
24.6633379135
 20
4.462848128200008
 10
24.7704369663
 20
4.529185761800007
 10
24.8735432223
 20
4.594265548999999
 10
24.97287767829999
 20
4.658072577799998
 10
25.06857365749999
 20
4.720567979400001
 10
25.1607425679
 20
4.781706902600006
 10
25.24949581269999
 20
4.841444496200011
 10
25.3349532463
 20
4.899747013000009
 10
25.4172684927
 20
4.956625133000002
 10
25.4966036287
 20
5.012100643400003
 10
25.5731207263
 20
5.06619533140001
 10
25.6712744223
 20
5.136413995400005
 10
25.76649690869999
 20
5.205484480199999
 10
25.8605786991
 20
5.274674670600006
 10
26.00253294069999
 20
5.380889168199999
 10
26.0503371759
 20
5.417216549000002
 10
26.09894716309999
 20
5.454492981000001
 10
26.1489656783
 20
5.493224318599999
 10
26.20078977589999
 20
5.533757574600002
 10
26.2539936367
 20
5.57580436980001
 10
26.3079457151
 20
5.618917480200011
 10
26.3892618287
 20
5.684893350600006
 10
26.47090849589999
 20
5.752463800200004
 10
26.55279507989999
 20
5.821672659400007
 10
26.63419628309999
 20
5.891932579400005
 10
26.7142281487
 20
5.962498419400006
 10
26.7920067151
 20
6.032625037000002
 10
26.86685165109999
 20
6.101723741
 10
26.93889715509999
 20
6.169831645000002
 10
27.0083297055
 20
6.2369971042
 10
27.07473040309999
 20
6.302687653000006
 10
27.13768300309999
 20
6.366378177800001
 10
27.1973872863
 20
6.428153821000009
 10
27.25419703509999
 20
6.488252286600001
 10
27.30846603349999
 20
6.546911278600006
 10
27.3774464687
 20
6.623290792200009
 10
27.44315300949999
 20
6.698072406600005
 10
27.50619970229999
 20
6.771794702600004
 10
27.59696848469999
 20
6.881451246600008
 10
27.6842629775
 20
6.991040920200006
 10
27.76910583509999
 20
7.101586387400004
 10
27.8520952735
 20
7.213781774600008
 10
27.93372280469999
 20
7.328268075400004
 10
28.0144775407
 20
7.4458022994
 10
28.0680729119
 20
7.526259213000003
 10
28.1216573887
 20
7.608768902600004
 10
28.17539087349999
 20
7.693680176200004
 10
28.22938533109999
 20
7.781271486600005
 10
28.2835610047
 20
7.871539878600003
 10
28.3377902031
 20
7.964412046600003
  0
LINE
  5
9F
330
2
100
AcDbEntity
  8
0
100
AcDbLine
 10
10.41873291669999
 20
3.2888228466
 30
0.0
 11
10.28117882229999
 21
3.315565584200003
 31
0.0
  0
LINE
  5
A0
330
2
100
AcDbEntity
  8
0
100
AcDbLine
 10
10.28117882229999
 20
3.315565584200003
 30
0.0
 11
10.14693399829999
 21
3.341828702600013
 31
0.0
  0
LINE
  5
A1
330
2
100
AcDbEntity
  8
0
100
AcDbLine
 10
10.14693399829999
 20
3.341828702600013
 30
0.0
 11
10.01604200469999
 21
3.367606443400008
 31
0.0
  0
LINE
  5
A2
330
2
100
AcDbEntity
  8
0
100
AcDbLine
 10
10.01604200469999
 20
3.367606443400008
 30
0.0
 11
9.930671350299999
 21
3.384524341000004
 31
0.0
  0
LINE
  5
A3
330
2
100
AcDbEntity
  8
0
100
AcDbLine
 10
9.930671350299999
 20
3.384524341000004
 30
0.0
 11
9.846848438299996
 21
3.401230886600005
 31
0.0
  0
LINE
  5
A4
330
2
100
AcDbEntity
  8
0
100
AcDbLine
 10
9.846848438299996
 20
3.401230886600005
 30
0.0
 11
9.76461865109999
 21
3.417727981
 31
0.0
  0
LWPOLYLINE
  5
A5
330
2
100
AcDbEntity
  8
0
100
AcDbPolyline
 90
        4
 70
     0
 43
0.0
 10
11.1790010463
 20
1.89304919860001
 10
11.02604038229999
 20
1.923933547400011
 10
10.86932904789999
 20
1.951830664200002
 10
10.71501864629999
 20
1.975637640200005
  0
LINE
  5
A6
330
2
100
AcDbEntity
  8
0
100
AcDbLine
 10
9.76461865109999
 20
3.417727981
 30
0.0
 11
9.68404309429999
 21
3.4340167986
 31
0.0
  0
LWPOLYLINE
  5
A7
330
2
100
AcDbEntity
  8
0
100
AcDbPolyline
 90
        8
 70
     0
 43
0.0
 10
11.32363607829999
 20
3.0838036066
 10
11.38873632949999
 20
3.070578473799997
 10
11.45402992789999
 20
3.057392134600007
 10
11.5194783023
 20
3.044259200200002
 10
11.58504798069999
 20
3.031193347400005
 10
11.65072589269999
 20
3.018204518600001
 10
11.7165040623
 20
3.005301721800009
 10
11.7823745151
 20
2.992493966600008
  0
LINE
  5
A8
330
2
100
AcDbEntity
  8
0
100
AcDbLine
 10
9.68404309429999
 20
3.4340167986
 30
0.0
 11
9.605200180699991
 21
3.450097342600004
 31
0.0
  0
LINE
  5
A9
330
2
100
AcDbEntity
  8
0
100
AcDbLine
 10
11.19416501589999
 20
3.110312981000008
 30
0.0
 11
11.32363607829999
 21
3.083803606600001
 31
0.0
  0
LINE
  5
AA
330
2
100
AcDbEntity
  8
0
100
AcDbLine
 10
9.605200180699991
 20
3.450097342600004
 30
0.0
 11
9.528186841499998
 21
3.465968096200002
 31
0.0
  0
LINE
  5
AB
330
2
100
AcDbEntity
  8
0
100
AcDbLine
 10
11.06580831669999
 20
3.136831405000011
 30
0.0
 11
11.19416501589999
 21
3.110312981000008
 31
0.0
  0
LINE
  5
AC
330
2
100
AcDbEntity
  8
0
100
AcDbLine
 10
10.93865087669999
 20
3.163295998600007
 30
0.0
 11
11.06580831669999
 21
3.136831405000011
 31
0.0
  0
LINE
  5
AD
330
2
100
AcDbEntity
  8
0
100
AcDbLine
 10
9.528186841499998
 20
3.465968096200002
 30
0.0
 11
9.453119361499997
 21
3.481625678600012
 31
0.0
  0
LINE
  5
AE
330
2
100
AcDbEntity
  8
0
100
AcDbLine
 10
10.75064958229999
 20
3.202705789000008
 30
0.0
 11
10.93865087669999
 21
3.163295998600007
 31
0.0
  0
LINE
  5
AF
330
2
100
AcDbEntity
  8
0
100
AcDbLine
 10
10.50628352949999
 20
3.2543001042
 30
0.0
 11
10.75064958229999
 21
3.202705789000008
 31
0.0
  0
LINE
  5
B0
330
2
100
AcDbEntity
  8
0
100
AcDbLine
 10
9.453119361499997
 20
3.481625678600012
 30
0.0
 11
9.380166593499989
 21
3.497057566600007
 31
0.0
  0
LINE
  5
B1
330
2
100
AcDbEntity
  8
0
100
AcDbLine
 10
10.19151096789999
 20
3.321132265800004
 30
0.0
 11
10.50628352949999
 21
3.2543001042
 31
0.0
  0
LINE
  5
B2
330
2
100
AcDbEntity
  8
0
100
AcDbLine
 10
10.03867587989999
 20
3.353673856200005
 30
0.0
 11
10.19151096789999
 21
3.321132265800004
 31
0.0
  0
LWPOLYLINE
  5
B3
330
2
100
AcDbEntity
  8
0
100
AcDbPolyline
 90
        3
 70
     0
 43
0.0
 10
9.596571014299996
 20
3.448167379400004
 10
9.650422155100002
 20
3.43661487220001
 10
10.03867587989999
 20
3.353673856200003
  0
LWPOLYLINE
  5
B4
330
2
100
AcDbEntity
  8
0
100
AcDbPolyline
 90
       36
 70
     0
 43
0.0
 10
9.380166593499993
 20
3.497057566600005
 10
9.30973280629999
 20
3.512201513800008
 10
9.275540281499999
 20
3.519655491400001
 10
9.242055059099996
 20
3.527029281800011
 10
9.209295217499999
 20
3.534321776200002
 10
9.177278022300001
 20
3.541532021000008
 10
9.146022775899993
 20
3.54865856660001
 10
9.115548689500002
 20
3.555699926599999
 10
9.085869372700003
 20
3.562655848200009
 10
9.056999239899994
 20
3.569525846600001
 10
9.028954398300001
 20
3.576308961800009
 10
9.001750367900001
 20
3.583004285000001
 10
8.975399921499999
 20
3.589611499400007
 10
8.949924534299995
 20
3.596127963400007
 10
8.800311057499996
 20
3.602559904200006
 10
8.776702038300001
 20
3.608871949000004
 10
8.754446727900003
 20
3.614967747400001
 10
8.733595367899994
 20
3.620825550600002
 10
8.714019601499998
 20
3.626472699400011
 10
8.695631071899995
 20
3.631926838600008
 10
8.678343950300003
 20
3.637206245000001
 10
8.662082918300001
 20
3.642327502600011
 10
8.646780671900003
 20
3.647306173000004
 10
8.632377934299995
 20
3.6521567586
 10
8.618823068699995
 20
3.656892773000009
 10
8.606071723100001
 20
3.66152683060001
 10
8.594086609499996
 20
3.666070694600009
 10
8.582837295899992
 20
3.670535349000004
 10
8.572300140699994
 20
3.674931022600006
 10
8.562458262299998
 20
3.679267243400005
 10
8.553301567899993
 20
3.68355286740001
 10
8.5448270527
 20
3.687796033799997
 10
8.537038934299999
 20
3.692004216200004
 10
8.529949086299993
 20
3.696184165000005
 10
8.523576598299996
 20
3.700342507400009
 10
8.517951942300001
 20
3.704483294600009
  0
LWPOLYLINE
  5
B5
330
2
100
AcDbEntity
  8
0
100
AcDbPolyline
 90
       23
 70
     0
 43
0.0
 10
11.35795419829999
 20
-0.9113758909999916
 10
11.36627616469999
 20
-0.9162839501999968
 10
11.3787019999
 20
-0.9212305629999946
 10
11.3951608639
 20
-0.9261449197999951
 10
11.41549231989999
 20
-0.9309667197999971
 10
11.4395557455
 20
-0.9356587549999915
 10
11.4670220463
 20
-0.9401602829999973
 10
11.4974557007
 20
-0.9444155006000016
 10
11.53056812629999
 20
-0.9484031757999957
 10
11.56602381909999
 20
-0.9521005373999997
 10
11.60339485589999
 20
-0.9554824589999952
 10
11.6423411695
 20
-0.9585390877999913
 10
11.68268985269999
 20
-0.9612748766000009
 10
11.72404354709999
 20
-0.9636797917999899
 10
11.7659996511
 20
-0.9657499101999889
 10
11.80842930389999
 20
-0.9674974205999973
 10
11.8512521599
 20
-0.9689333837999924
 10
11.8942313551
 20
-0.9700621581999939
 10
11.93715831189999
 20
-0.9708903821999967
 10
11.98005677589999
 20
-0.9714280365999883
 10
12.02292766229999
 20
-0.9716803437999885
 10
12.06577979029999
 20
-0.9716486653999965
 10
12.10859054709999
 20
-0.9713306685999896
  0
LWPOLYLINE
  5
B6
330
2
100
AcDbEntity
  8
0
100
AcDbPolyline
 90
       35
 70
     0
 43
0.0
 10
-4.274041121700001
 20
14.70087308499999
 10
-4.272095180900002
 20
15.037445861
 10
-4.266220958499999
 20
15.373572269
 10
-4.256435240100003
 20
15.70895488020001
 10
-4.2427615713
 20
16.0432990146
 10
-4.225231640100005
 20
16.3762877842
 10
-4.203903736100002
 20
16.70734164499999
 10
-4.178798964900003
 20
17.03659586100001
 10
-4.149937233700001
 20
17.36417350740001
 10
-4.117359566499999
 20
17.6899332322
 10
-4.081129113700001
 20
18.0135497922
 10
-4.041348489700006
 20
18.3344638514
 10
-3.998092872100002
 20
18.6524558866
 10
-3.951467124900005
 20
18.9671448754
 10
-3.901570638500004
 20
19.2782601682
 10
-3.8484950689
 20
19.585618717
 10
-3.792365828900003
 20
19.8888818626
 10
-3.733306116900003
 20
20.18778132660001
 10
-3.6714395057
 20
20.48208976019999
 10
-3.606868985700003
 20
20.77170135859999
 10
-3.539667841700001
 20
21.05664842739999
 10
-3.469863998500002
 20
21.33716199379999
 10
-3.397503731300005
 20
21.61337371060001
 10
-3.322721464100006
 20
21.8850645058
 10
-3.245668825700001
 20
22.15198642740002
 10
-3.166452016100002
 20
22.41407269939999
 10
-3.085204993700003
 20
22.67117433779999
 10
-3.0020903793
 20
22.92307551220001
 10
-2.917188089700005
 20
23.16982561460001
 10
-2.830606227300002
 20
23.41138553459999
 10
-2.742527673700003
 20
23.64752254580001
 10
-2.653102060900003
 20
23.8781208834
 10
-2.562498190500001
 20
24.10303498739999
 10
-2.470831916900003
 20
24.3222656866
 10
-2.378108382500002
 20
24.5360674962
  0
LWPOLYLINE
  5
B7
330
2
100
AcDbEntity
  8
0
100
AcDbPolyline
 90
       57
 70
     0
 43
0.0
 10
-1.891805075300005
 20
24.7501262786
 10
-1.8760601297
 20
24.785034637
 10
-1.859469601699998
 20
24.8195512482
 10
-1.842157035300004
 20
24.853439085
 10
-1.824181932900003
 20
24.88662519860001
 10
-1.805568360100004
 20
24.91911083859999
 10
-1.786342326500005
 20
24.95089281140001
 10
-1.766527214500001
 20
24.9819716834
 10
-1.746145459300002
 20
25.01234854900001
 10
-1.7252180017
 20
25.04202574100002
 10
-1.703764427300001
 20
25.07100642420001
 10
-1.681802944099999
 20
25.09929450100001
 10
-1.6593501969
 20
25.12689467220001
 10
-1.636421846499999
 20
25.1538116386
 10
-1.613031115300003
 20
25.1800516674
 10
-1.5891912449
 20
25.2056196722
 10
-1.564922731300001
 20
25.230512189
 10
-1.540245046500004
 20
25.2547271074
 10
-1.515171171300004
 20
25.2782684866
 10
-1.489713408100001
 20
25.3011402018
 10
-1.4638831185
 20
25.32334616660001
 10
-1.437690536099999
 20
25.34489044820002
 10
-1.411144828899999
 20
25.36577712820001
 10
-1.384254044900004
 20
25.38601028340001
 10
-1.357025107300003
 20
25.40559391380002
 10
-1.3294638001
 20
25.4245318818
 10
-1.301574750500002
 20
25.44282783859999
 10
-1.273361436900003
 20
25.4604851538
 10
-1.244826185699999
 20
25.477506837
 10
-1.215970161699999
 20
25.4938954594
 10
-1.186793417700002
 20
25.50965305620001
 10
-1.157294795300003
 20
25.52478109940001
 10
-1.127472289700001
 20
25.5392802242
 10
-1.097321729699999
 20
25.55315078740001
 10
-1.066842636900005
 20
25.56639016180001
 10
-1.036008691300004
 20
25.57900497780001
 10
-1.004769307300001
 20
25.59100736180001
 10
-0.9731030161000049
 20
25.60239352020001
 10
-0.9410026864999991
 20
25.61315216020001
 10
-0.9084563505000033
 20
25.6232719682
 10
-0.8754537265000053
 20
25.63273921299999
 10
-0.8419841249000015
 20
25.64153844499999
 10
-0.8080373521000012
 20
25.64965219860001
 10
-0.7736036097000039
 20
25.65706100820001
 10
-0.7386737969000024
 20
25.6637433346
 10
-0.7032396929000058
 20
25.66967553140001
 10
-0.6672939841000059
 20
25.67483184340001
 10
-0.630831302499999
 20
25.6791842898
 10
-0.5938438913000042
 20
25.6827031234
 10
-0.5563288993000058
 20
25.685355957
 10
-0.5182634849000039
 20
25.68710903380001
 10
-0.4797690000999993
 20
25.68792311860001
 10
-0.4411510081000003
 20
25.68777211379999
 10
-0.4025568688999997
 20
25.6866521122
 10
-0.3640078208999995
 20
25.68456376659999
 10
-0.3255291633000041
 20
25.681508421
 10
-0.2871440225000015
 20
25.67748789299999
  0
LWPOLYLINE
  5
B8
330
2
100
AcDbEntity
  8
0
100
AcDbPolyline
 90
       17
 70
     0
 43
0.0
 10
-1.9343272913
 20
24.76213498420001
 10
-1.8796775729
 20
24.87534961460001
 10
-1.8162350833
 20
24.9838894386
 10
-1.7444076385
 20
25.08705673300001
 10
-1.664656950500003
 20
25.18418833619999
 10
-1.577495657700005
 20
25.27465988499999
 10
-1.483484033700001
 20
25.357889821
 10
-1.383226392099999
 20
25.433343141
 10
-1.277367188900001
 20
25.50053482900001
 10
-1.166586889699999
 20
25.55903297460001
 10
-1.051597596900002
 20
25.60846154900001
 10
-0.9331384641000042
 20
25.64850282420001
 10
-0.8119709473000042
 20
25.67889941619999
 10
-0.6888739169000005
 20
25.69945593140001
 10
-0.5646386449000005
 20
25.7100402338
 10
-0.4400637184999994
 20
25.71058428659999
 10
-0.3159499153000027
 20
25.70108459699999
  0
LWPOLYLINE
  5
B9
330
2
100
AcDbEntity
  8
CENTER
  6
CENTER
 48
4.0
100
AcDbPolyline
 90
        3
 70
   128
 43
0.0
 10
6.777994910000103
 20
7.200873084999997
 10
4.165991508700003
 20
7.200873084999997
 10
1.542609707169418
 20
7.200873084999997
  0
LWPOLYLINE
  5
BC
330
2
100
AcDbEntity
  8
0
100
AcDbPolyline
 90
       31
 70
     0
 43
0.0
 10
-23.7569933009
 20
13.477611197
 10
-23.6766353105
 20
13.4616294882
 10
-23.5886112065
 20
13.4421037186
 10
-23.4919719169
 20
13.417509349
 10
-23.3853732481
 20
13.386051941
 10
-23.2670493361
 20
13.34591539859999
 10
-23.1354965121
 20
13.2948234418
 10
-22.9918854833
 20
13.2308986034
 10
-22.84958534089999
 20
13.1587463058
 10
-22.7173518545
 20
13.082910205
 10
-22.5961333729
 20
13.005315925
 10
-22.4810711345
 20
12.923418685
 10
-22.3631466641
 20
12.82933029779999
 10
-22.2359965073
 20
12.71443978420001
 10
-22.1088935729
 20
12.583411549
 10
-21.9932590433
 20
12.44837873299999
 10
-21.89490496009999
 20
12.3205301314
 10
-21.8104486177
 20
12.20075815220001
 10
-21.73644939369999
 20
12.0886669842
 10
-21.6705925825
 20
11.98394624179999
 10
-21.6112495537
 20
11.88619832660001
 10
-21.5576439937
 20
11.7956649058
 10
-21.5094788673
 20
11.7128745826
 10
-21.4665591889
 20
11.6380387106
 10
-21.4280569521
 20
11.57006542260001
 10
-21.3925815937
 20
11.5067193666
 10
-21.35871200329999
 20
11.445555325
 10
-21.3251150305
 20
11.3840016082
 10
-21.2913752225
 20
11.3210108578
 10
-21.2575797809
 20
11.25644100019999
 10
-21.22378087369999
 20
11.19012104020001
  0
LWPOLYLINE
  5
BD
330
2
100
AcDbEntity
  8
0
100
AcDbPolyline
 90
        3
 70
     0
 43
0.0
 10
11.35795419829999
 20
-0.9113758909999916
 10
11.3515994799
 20
-0.9065716093999895
 10
11.3449763295
 20
-0.901794554999995
  0
LWPOLYLINE
  5
BE
330
2
100
AcDbEntity
  8
0
100
AcDbPolyline
 90
       20
 70
     0
 43
0.0
 10
2.978491508700003
 20
-0.9991791277999908
 10
2.98319995349999
 20
-1.007968257399994
 10
2.996959998299999
 20
-1.0165203902
 10
3.019121583900002
 20
-1.024772622199989
 10
3.048728846299994
 20
-1.032620534199992
 10
3.084596948699996
 20
-1.03997648939999
 10
3.125870207899993
 20
-1.04684572779999
 10
3.172126972699999
 20
-1.053276206199996
 10
3.223305902299998
 20
-1.059322914999995
 10
3.279617990299996
 20
-1.065031602999994
 10
3.341174689499993
 20
-1.070407270199993
 10
3.408804415899993
 20
-1.075488521399989
 10
3.48385432789999
 20
-1.080303098999991
 10
3.566315574299991
 20
-1.0847577822
 10
3.655634841500003
 20
-1.088739162999999
 10
3.751104092700003
 20
-1.092145487799996
 10
3.851868348699994
 20
-1.094887580600001
 10
3.955500009499999
 20
-1.096868246199989
 10
4.060432396699994
 20
-1.098057222199997
 10
4.165991508700003
 20
-1.098453526199989
  0
LWPOLYLINE
  5
BF
330
2
100
AcDbEntity
  8
0
100
AcDbPolyline
 90
       17
 70
     0
 43
0.0
 10
-1.927842771299999
 20
4.641861024200011
 10
-1.873185300900004
 20
4.5288191538
 10
-1.809754428899999
 20
4.420450417799997
 10
-1.737957275300004
 20
4.317450356999998
 10
-1.658254656100005
 20
4.220480059400003
 10
-1.571158128100002
 20
4.130161912200009
 10
-1.477226704100004
 20
4.047075605000003
 10
-1.377063268900002
 20
3.971754412999999
 10
-1.271310702500002
 20
3.904681773000007
 10
-1.160647758500005
 20
3.846288177800005
 10
-1.045784708900001
 20
3.796948414600009
 10
-0.9274587793000037
 20
3.756979165000004
 10
-0.8064294257000028
 20
3.726636963400011
 10
-0.6834734529000031
 20
3.706116555400001
 10
-0.5593800321000018
 20
3.6955496482
 10
-0.4349456337000035
 20
3.695004062600006
 10
-0.3109689153000019
 20
3.70448330420001
  0
LWPOLYLINE
  5
C0
330
2
100
AcDbEntity
  8
0
100
AcDbPolyline
 90
       35
 70
     0
 43
0.0
 10
-2.423738702500003
 20
4.859803309
 10
-2.511691305700004
 20
5.056945430600009
 10
-2.598681452900002
 20
5.259437678600008
 10
-2.684688595300002
 20
5.467499128200003
 10
-2.769662216100002
 20
5.681301616200002
 10
-2.853458656100002
 20
5.900789645000003
 10
-2.935957081700003
 20
6.125954693000011
 10
-3.017048369699999
 20
6.356815836999999
 10
-3.096599683299999
 20
6.593318753800005
 10
-3.174515862500001
 20
6.835514686600006
 10
-3.250709161700001
 20
7.083486179399997
 10
-3.3250312049
 20
7.337117547399998
 10
-3.3973664417
 20
7.596388003400008
 10
-3.467622916900005
 20
7.861363232200005
 10
-3.535663777700001
 20
8.131940585800009
 10
-3.601365275300004
 20
8.4080523362
 10
-3.664663515299999
 20
8.689889179399997
 10
-3.725522993700003
 20
8.977793110600003
 10
-3.783874313700003
 20
9.271979129800001
 10
-3.839622412900006
 20
9.572582934600006
 10
-3.8926142193
 20
9.879436880200003
 10
-3.942704452900002
 20
10.19237597300001
 10
-3.9897529809
 20
10.51122446899999
 10
-4.033629665700004
 20
10.8358330498
 10
-4.074216998499998
 20
11.1661203938
 10
-4.111400041700001
 20
11.5020218642
 10
-4.1450282865
 20
11.84309418419999
 10
-4.174970273700004
 20
12.1889184866
 10
-4.201128889700001
 20
12.53935562579999
 10
-4.223428336099999
 20
12.8945829074
 10
-4.241751860900002
 20
13.2538781858
 10
-4.255954134500001
 20
13.6146537746
 10
-4.2660472321
 20
13.9763459474
 10
-4.272062547300002
 20
14.3385530978
 10
-4.274041121700001
 20
14.70087308499999
  0
LWPOLYLINE
  5
C1
330
2
100
AcDbEntity
  8
0
100
AcDbPolyline
 90
       37
 70
     0
 43
0.0
 10
-1.8482015521
 20
4.66234059700001
 10
-1.926358459300004
 20
4.840638288200011
 10
-2.004000158500005
 20
5.023300421000001
 10
-2.081590134500004
 20
5.211634355400008
 10
-2.1592517841
 20
5.406303710599999
 10
-2.2367929185
 20
5.607215053000004
 10
-2.314307049700005
 20
5.815039421000008
 10
-2.391916588900002
 20
6.0306249538
 10
-2.470043379300001
 20
6.255828641800007
 10
-2.549092870500004
 20
6.492760963400002
 10
-2.629019403299999
 20
6.742462838600005
 10
-2.708163220900004
 20
7.000789710600002
 10
-2.785095025700002
 20
7.263605049800005
 10
-2.860084292900005
 20
7.532135056200004
 10
-2.9330035985
 20
7.806304203400003
 10
-3.003662627300002
 20
8.085775891400004
 10
-3.071454694500005
 20
8.368365787400009
 10
-3.135924475300001
 20
8.65208784020001
 10
-3.197187737700005
 20
8.937234920199998
 10
-3.255572468900005
 20
9.225224481799997
 10
-3.311493876900001
 20
9.518343040200008
 10
-3.364784636900004
 20
9.8161749522
 10
-3.415339489700002
 20
10.1185922402
 10
-3.463047870500005
 20
10.4254206882
 10
-3.5077847473
 20
10.73635577299999
 10
-3.549440219300002
 20
11.05113745940001
 10
-3.5879079153
 20
11.3694746802
 10
-3.623087976100002
 20
11.69106104819999
 10
-3.654897721700002
 20
12.01568557779999
 10
-3.683223160100006
 20
12.342709189
 10
-3.707994472100004
 20
12.6718017874
 10
-3.7291914161
 20
13.0032603426
 10
-3.746779435300005
 20
13.3372378514
 10
-3.760692758499999
 20
13.673332645
 10
-3.770877886500002
 20
14.0111970802
 10
-3.777289073700003
 20
14.350422037
 10
-3.779891731300004
 20
14.690571757
  0
LWPOLYLINE
  5
C2
330
2
100
AcDbEntity
  8
0
100
AcDbPolyline
 90
       37
 70
     0
 43
0.0
 10
-1.927842768099999
 20
4.641861024200011
 10
-2.0055677729
 20
4.829253998600009
 10
-2.082807524900005
 20
5.021218854600007
 10
-2.159536270500005
 20
5.217934726600006
 10
-2.235734396899999
 20
5.4196047346
 10
-2.3113863409
 20
5.626459256200007
 10
-2.386440654499999
 20
5.838655360200007
 10
-2.460772372900002
 20
6.056151971399998
 10
-2.5342782401
 20
6.278967947400005
 10
-2.606856793700004
 20
6.507130429
 10
-2.678387201700004
 20
6.740606593800009
 10
-2.748780475300002
 20
6.979469598600005
 10
-2.817945888100005
 20
7.223800526600001
 10
-2.885740744100004
 20
7.473501881800004
 10
-2.952051680100005
 20
7.7285778098
 10
-3.0167800241
 20
7.989099030600002
 10
-3.0797852257
 20
8.25497591700001
 10
-3.140940120100005
 20
8.526169286600008
 10
-3.200171113700001
 20
8.802896094600001
 10
-3.257429550499999
 20
9.085514998600004
 10
-3.312630483300004
 20
9.37424694900001
 10
-3.365661102500006
 20
9.6692229362
 10
-3.416352929700003
 20
9.970285688200007
 10
-3.464542408100001
 20
10.2772846498
 10
-3.510067606500001
 20
10.590058757
 10
-3.5527730481
 20
10.90847328659999
 10
-3.592512225700005
 20
11.2324587282
 10
-3.629136992100001
 20
11.5619509202
 10
-3.6624622721
 20
11.8965247538
 10
-3.692319248100005
 20
12.235793685
 10
-3.718568254499999
 20
12.57963066420001
 10
-3.741087227299999
 20
12.928202245
 10
-3.759709505700001
 20
13.2807761458
 10
-3.774236865700004
 20
13.6348185378
 10
-3.784628588900005
 20
13.9897848418
 10
-3.790862507300005
 20
14.3452720338
 10
-3.792926520100003
 20
14.70087308499999
  0
LWPOLYLINE
  5
C3
330
2
100
AcDbEntity
  8
0
100
AcDbPolyline
 90
       20
 70
     0
 43
0.0
 10
-2.423738697700002
 20
4.859803296199999
 10
-2.402227044900001
 20
4.733846197000005
 10
-2.380390017700001
 20
4.608802593800007
 10
-2.358364500900002
 20
4.485456328200001
 10
-2.336288560100001
 20
4.364580595399999
 10
-2.314300572900002
 20
4.24693310260001
 10
-2.292538369700004
 20
4.133251323400003
 10
-2.271138360100003
 20
4.024247869000006
 10
-2.2502346897
 20
3.920606028999998
 10
-2.229958387300001
 20
3.8229754786
 10
-2.210436552099999
 20
3.731968213000001
 10
-2.191791552099999
 20
3.64815471380001
 10
-2.174140262500003
 20
3.572060360199998
 10
-2.157593329699999
 20
3.50416215380001
 10
-2.142254468899999
 20
3.444885710600004
 10
-2.1282198257
 20
3.394602608200003
 10
-2.115577368100005
 20
3.353628041800007
 10
-2.104406344099999
 20
3.32221886260001
 10
-2.094776784100005
 20
3.300571955400002
 10
-2.086749899300002
 20
3.288822846599998
  0
LWPOLYLINE
  5
C4
330
2
100
AcDbEntity
  8
0
100
AcDbPolyline
 90
       36
 70
     0
 43
0.0
 10
-3.779910952100003
 20
14.70087308499999
 10
-3.779356894500004
 20
14.9470935458
 10
-3.7762305265
 20
15.22920862739999
 10
-3.769629867300004
 20
15.54283978099999
 10
-3.758739108900002
 20
15.8833167266
 10
-3.743880684900005
 20
16.2252980258
 10
-3.725155697700003
 20
16.5658431842
 10
-3.702607528100003
 20
16.904583293
 10
-3.676247475300002
 20
17.2417446706
 10
-3.646118368100005
 20
17.57714367860001
 10
-3.612275750500003
 20
17.9104926482
 10
-3.574811585700004
 20
18.241247269
 10
-3.533814225700005
 20
18.5690295522
 10
-3.489398512100002
 20
18.89335219059999
 10
-3.441660462500003
 20
19.2139562418
 10
-3.390725070500003
 20
19.53044576820001
 10
-3.336722286500005
 20
19.842470909
 10
-3.279795878500003
 20
20.149670309
 10
-3.220071460900001
 20
20.45183475380001
 10
-3.157682958500004
 20
20.74874422099999
 10
-3.092646625700005
 20
21.0407388098
 10
-3.024973619299998
 20
21.32815271220001
 10
-2.954789563300003
 20
21.6108024418
 10
-2.882235987299999
 20
21.88846614579999
 10
-2.807452371300001
 20
22.16095832660001
 10
-2.730573835299999
 20
22.42813157620001
 10
-2.651767051300005
 20
22.68975379539999
 10
-2.571175481700002
 20
22.9456979618
 10
-2.488935158500005
 20
23.19587540179999
 10
-2.405180160100002
 20
23.4402139074
 10
-2.320045040100005
 20
23.67864938739999
 10
-2.233596278500002
 20
23.91130635540001
 10
-2.146465227300005
 20
24.13685776500001
 10
-2.058276024100003
 20
24.35663350579999
 10
-1.972136793700002
 20
24.56358482259999
 10
-1.891804528100003
 20
24.75012610099999
  0
LWPOLYLINE
  5
C5
330
2
100
AcDbEntity
  8
0
100
AcDbPolyline
 90
       36
 70
     0
 43
0.0
 10
-3.792926520100003
 20
14.70087308499999
 10
-3.791086315299999
 20
15.03872015059999
 10
-3.785531331299999
 20
15.37611804179999
 10
-3.7762791233
 20
15.7127585666
 10
-3.763354046500005
 20
16.0483354594
 10
-3.746789104100002
 20
16.3825106098
 10
-3.726641724900005
 20
16.71470447379999
 10
-3.702931278500003
 20
17.04510332499999
 10
-3.675681486500003
 20
17.3738116898
 10
-3.644938417700004
 20
17.700647805
 10
-3.610769881700001
 20
18.0252515906
 10
-3.573279452900003
 20
18.3470527506
 10
-3.5325370913
 20
18.6658816786
 10
-3.488654443299999
 20
18.981295149
 10
-3.441723764900004
 20
19.2930688402
 10
-3.391838691300002
 20
19.6010011058
 10
-3.3391312161
 20
19.9047014514
 10
-3.283714536099999
 20
20.2039492722
 10
-3.225711720100001
 20
20.4985059826
 10
-3.165208604900001
 20
20.7883415234
 10
-3.102267667300004
 20
21.07353990580001
 10
-3.0368994353
 20
21.35442670420001
 10
-2.969189016100003
 20
21.63096352340001
 10
-2.899291081699999
 20
21.90284235860001
 10
-2.827331240100001
 20
22.1699048594
 10
-2.753401665700003
 20
22.43212685460001
 10
-2.6776790161
 20
22.68919964980001
 10
-2.600266995300003
 20
22.94109077299999
 10
-2.521233993700001
 20
23.1878760146
 10
-2.440750155300001
 20
23.4293161682
 10
-2.358956374500003
 20
23.66528768339999
 10
-2.276010521700001
 20
23.89563713299999
 10
-2.1920560577
 20
24.12027057460001
 10
-2.107119230500003
 20
24.3394052066
 10
-2.021205675300002
 20
24.5532869794
 10
-1.934327305700001
 20
24.76213494260001
  0
LWPOLYLINE
  5
C6
330
2
100
AcDbEntity
  8
0
100
AcDbPolyline
 90
       20
 70
     0
 43
0.0
 10
-2.378108382500002
 20
24.5360674962
 10
-2.356665380900004
 20
24.6617644754
 10
-2.334906960099999
 20
24.7865511474
 10
-2.312969403300002
 20
24.90964587220001
 10
-2.290990121700005
 20
25.03027760499999
 10
-2.269106787300003
 20
25.1476907314
 10
-2.247456473700005
 20
25.26114979700001
 10
-2.226174795300003
 20
25.369944117
 10
-2.205395060900002
 20
25.47339222579999
 10
-2.185247433699998
 20
25.57084614100002
 10
-2.165858118500004
 20
25.6616954322
 10
-2.1473485729
 20
25.74537103699999
 10
-2.129834744100001
 20
25.821348829
 10
-2.113426342500005
 20
25.8891528962
 10
-2.098226148900003
 20
25.94835852820001
 10
-2.0843293729
 20
25.9985948706
 10
-2.071823062500001
 20
26.03954725460001
 10
-2.060785561700001
 20
26.07095916180002
 10
-2.0512860145
 20
26.09263383860001
 10
-2.043383012900001
 20
26.10443534580001
  0
LWPOLYLINE
  5
C7
330
2
100
AcDbEntity
  8
0
100
AcDbPolyline
 90
       21
 70
     0
 43
0.0
 10
-6.9104762049
 20
-0.8889239917999987
 10
-6.911382179300005
 20
-0.8920546397999942
 10
-6.9096487041
 20
-0.8956298029999913
 10
-6.905020164900001
 20
-0.8991015933999904
 10
-6.8976048273
 20
-0.902467505399997
 10
-6.887508553700001
 20
-0.9057197309999907
 10
-6.874823644900004
 20
-0.9088534077999952
 10
-6.859604115300001
 20
-0.9118687949999895
 10
-6.841930723300002
 20
-0.9147573949999951
 10
-6.8218227921
 20
-0.9175191997999974
 10
-6.799304296100004
 20
-0.9201496749999904
 10
-6.774417011300002
 20
-0.9226407725999905
 10
-6.747100177700005
 20
-0.9249924301999925
 10
-6.717390369700005
 20
-0.9271931517999973
 10
-6.6852483057
 20
-0.9292363582000007
 10
-6.650609076900003
 20
-0.9311142589999974
 10
-6.613494259300004
 20
-0.932812553399998
 10
-6.573779958500004
 20
-0.9343219965999907
 10
-6.531508843300002
 20
-0.935624519800001
 10
-6.486605262499999
 20
-0.9367049709999974
 10
-6.439071035300003
 20
-0.9375441309999956
  0
LWPOLYLINE
  5
C8
330
2
100
AcDbEntity
  8
0
100
AcDbPolyline
 90
        3
 70
     0
 43
0.0
 10
11.3449763295
 20
30.30354072659999
 10
11.3515994799
 20
30.30831778100001
 10
11.35795419829999
 20
30.31312206260001
  0
LWPOLYLINE
  5
C9
330
2
100
AcDbEntity
  8
0
100
AcDbPolyline
 90
       32
 70
     0
 43
0.0
 10
32.2298008991
 20
13.5041861762
 10
32.0889763199
 20
13.477611197
 10
32.00861832949999
 20
13.4616294882
 10
31.92059422549999
 20
13.4421037186
 10
31.82395493589999
 20
13.417509349
 10
31.7173562655
 20
13.386051941
 10
31.59903235509999
 20
13.34591539859999
 10
31.46747952949999
 20
13.2948234418
 10
31.3238685007
 20
13.2308986034
 10
31.18156835989999
 20
13.1587463058
 10
31.0493348719
 20
13.082910205
 10
30.92811639189999
 20
13.005315925
 10
30.81305415189999
 20
12.923418685
 10
30.69512968149999
 20
12.82933029779999
 10
30.56797952469999
 20
12.71443978420001
 10
30.44087659029999
 20
12.583411549
 10
30.32524206069999
 20
12.44837873299999
 10
30.22688797909999
 20
12.3205301314
 10
30.14243163669999
 20
12.20075815220001
 10
30.06843241269999
 20
12.0886669842
 10
30.0025755999
 20
11.98394624179999
 10
29.9432325711
 20
11.88619832660001
 10
29.8896270111
 20
11.7956649058
 10
29.84146188469999
 20
11.7128745826
 10
29.7985422063
 20
11.6380387106
 10
29.7600399711
 20
11.57006542260001
 10
29.72456461109999
 20
11.5067193666
 10
29.69069502069999
 20
11.445555325
 10
29.65709804789999
 20
11.3840016082
 10
29.6233582399
 20
11.3210108578
 10
29.58956279829999
 20
11.25644100019999
 10
29.55576389109999
 20
11.19012104020001
  0
LWPOLYLINE
  5
CA
330
2
100
AcDbEntity
  8
0
100
AcDbPolyline
 90
       20
 70
     0
 43
0.0
 10
5.353491508700003
 20
-0.9991791277999908
 10
5.348956913500003
 20
-0.9905127037999932
 10
5.335410662299992
 20
-0.9818473165999961
 10
5.3129024447
 20
-0.9731750493999982
 10
5.281615647899997
 20
-0.9645324253999945
 10
5.242298780699996
 20
-0.9560591054000013
 10
5.1966443007
 20
-0.9479968301999974
 10
5.146169355099999
 20
-0.9404681773999925
 10
5.091730358299997
 20
-0.9334835581999954
 10
5.034019169499998
 20
-0.9270471629999974
 10
4.973421764699992
 20
-0.9211403149999881
 10
4.907610081499996
 20
-0.9155392173999956
 10
4.835105070300002
 20
-0.9101982093999936
 10
4.7551258063
 20
-0.9051766765999929
 10
4.667608548700002
 20
-0.9005997005999972
 10
4.573582308699997
 20
-0.896637518199995
 10
4.474416161500002
 20
-0.8934356317999885
 10
4.372599059099997
 20
-0.8911188605999882
 10
4.269585649500001
 20
-0.8897259661999896
 10
4.165991508700003
 20
-0.8892612829999961
  0
LWPOLYLINE
  5
CB
330
2
100
AcDbEntity
  8
0
100
AcDbPolyline
 90
        3
 70
     0
 43
0.0
 10
11.3449763295
 20
30.30354072659999
 10
11.3419557567
 20
30.3004434626
 10
11.34162898549999
 20
30.29965419540001
  0
LWPOLYLINE
  5
CC
330
2
100
AcDbEntity
  8
0
100
AcDbPolyline
 90
        3
 70
     0
 43
0.0
 10
8.494002103900001
 20
25.67738127220001
 10
8.508707649499996
 20
25.6896827698
 10
8.5229329215
 20
25.70108458900001
  0
LWPOLYLINE
  5
CD
330
2
100
AcDbEntity
  8
0
100
AcDbPolyline
 90
       35
 70
     0
 43
0.0
 10
8.522932934300001
 20
25.70108459699999
 10
8.528269108700001
 20
25.70499533300001
 10
8.534304599899996
 20
25.7089314722
 10
8.541017843099993
 20
25.71289741139999
 10
8.548397827100004
 20
25.71690012020001
 10
8.556440979100003
 20
25.72094713299999
 10
8.565151009499999
 20
25.7250466706
 10
8.574538646299998
 20
25.72920763540001
 10
8.5846215583
 20
25.73343965299999
 10
8.595424297500002
 20
25.73775308339999
 10
8.606978355099997
 20
25.74215907060001
 10
8.619322295899991
 20
25.7466695826
 10
8.632501990299999
 20
25.75129748179999
 10
8.646570907099999
 20
25.75605657940001
 10
8.661590527900003
 20
25.7609617362
 10
8.677630721499994
 20
25.76602891380001
 10
8.694770271899997
 20
25.77127528180001
 10
8.713097279899997
 20
25.77671926099999
 10
8.732711287900002
 20
25.78238106740001
 10
8.753702415899994
 20
25.78827680019999
 10
8.775931918300003
 20
25.79435979060001
 10
8.7991069471
 20
25.8005479042
 10
8.948141318300002
 20
25.80682017779999
 10
8.973037793499997
 20
25.8131800098
 10
8.998777967899997
 20
25.81962531540002
 10
9.025348475100003
 20
25.82615543379999
 10
9.052734027100001
 20
25.8327693282
 10
9.080919134300003
 20
25.8394660098
 10
9.109887814299995
 20
25.84624445620001
 10
9.139626257499998
 20
25.853104221
 10
9.170118828699997
 20
25.86004449620002
 10
9.201345607899995
 20
25.8670635378
 10
9.23328823029999
 20
25.87416001620001
 10
9.265929235100003
 20
25.88133284020001
 10
9.299250387100002
 20
25.88858077300001
  0
LINE
  5
CE
330
2
100
AcDbEntity
  8
0
100
AcDbLine
 10
4.16615730709999
 20
-1.249341756599987
 30
0.0
 11
4.166177563099989
 21
-1.734504553399998
 31
0.0
  0
LINE
  5
CF
330
2
100
AcDbEntity
  8
CENTER
  6
CENTER
 48
4.0
100
AcDbLine
 10
4.1659915087
 20
9.98925897548675
 30
0.0
 11
4.1659915087
 21
4.412487194513248
 31
0.0
  0
LWPOLYLINE
  5
D0
330
2
100
AcDbEntity
  8
0
100
AcDbPolyline
 90
       22
 70
     0
 43
0.0
 10
-3.009645228900005
 20
-0.8979080253999995
 10
-2.980616049700003
 20
-0.8087670589999902
 10
-2.939570124900001
 20
-0.7017627869999928
 10
-2.892381646500005
 20
-0.5967225933999885
 10
-2.839192664100004
 20
-0.4939497853999911
 10
-2.780160099300005
 20
-0.3937417101999898
 10
-2.715455392100004
 20
-0.2963891933999889
 10
-2.645264886500001
 20
-0.2021768941999937
 10
-2.569789995299998
 20
-0.1113827821999962
 10
-2.489248691300005
 20
-0.0242788141999881
 10
-2.4038738705
 20
0.0588722434000033
 10
-2.313912294499999
 20
0.1378184322000067
 10
-2.2196263505
 20
0.2123176930000028
 10
-2.121293868900004
 20
0.2821393058000012
 10
-2.019205070499999
 20
0.3470669889999982
 10
-1.913661326500005
 20
0.4068998834000013
 10
-1.804974020900004
 20
0.4614532722000036
 10
-1.693463892900005
 20
0.5105589890000033
 10
-1.579460041700002
 20
0.5540659858000084
 10
-1.463299096100001
 20
0.5918407858000024
 10
-1.345324368100001
 20
0.623767937800011
 10
-1.228860496100004
 20
0.6491789186000006
  0
LINE
  5
D1
330
2
100
AcDbEntity
  8
0
100
AcDbLine
 10
-24.3230125409
 20
14.7008730866
 30
0.0
 11
-24.29907159210001
 21
14.700873085
 31
0.0
  0
LWPOLYLINE
  5
D2
330
2
100
AcDbEntity
  8
0
100
AcDbPolyline
 90
       21
 70
     0
 43
0.0
 10
-6.910474091300002
 20
30.290670173
 10
-6.805471432099999
 20
30.13312593780002
 10
-6.658931425700004
 20
29.92946473300001
 10
-6.503663819300001
 20
29.73118136020001
 10
-6.339931481699998
 20
29.53866552820001
 10
-6.168015811300001
 20
29.352296525
 10
-5.988215228900003
 20
29.1724412994
 10
-5.800844408100005
 20
28.999453629
 10
-5.606233620899999
 20
28.8336734402
 10
-5.404727774500003
 20
28.67542587219999
 10
-5.196685932900003
 20
28.5250207826
 10
-4.9824805585
 20
28.3827520082
 10
-4.762495980900006
 20
28.2488961826
 10
-4.537128243300003
 20
28.12371258099999
 10
-4.306784627300004
 20
28.00744260820001
 10
-4.071881454500001
 20
27.90030849299999
 10
-3.8328436209
 20
27.8025130722
 10
-3.590105235300001
 20
27.71423986419999
 10
-3.344110382500005
 20
27.63565283219999
 10
-3.095302475300002
 20
27.5668928322
 10
-2.847018027300002
 20
27.5086969794
  0
LWPOLYLINE
  5
D3
330
2
100
AcDbEntity
  8
0
100
AcDbPolyline
 90
       21
 70
     0
 43
0.0
 10
15.24245710869999
 20
-0.8889240013999994
 10
15.13745444949999
 20
-0.7313797661999928
 10
14.99091444309999
 20
-0.5277185613999933
 10
14.83564683669999
 20
-0.3294351886000015
 10
14.67191450069999
 20
-0.1369193565999893
 10
14.4999988287
 20
0.0494496466000101
 10
14.32019824629999
 20
0.2293048722000037
 10
14.13282742549999
 20
0.4022925426000086
 10
13.93821663829999
 20
0.5680727314000081
 10
13.73671079349999
 20
0.7263202994000011
 10
13.5286689503
 20
0.8767253874000004
 10
13.31446357589999
 20
1.018994163400009
 10
13.09447899829999
 20
1.152849989000003
 10
12.86911126069999
 20
1.278033590600003
 10
12.63876764469999
 20
1.394303563400001
 10
12.40386447189999
 20
1.501437678599998
 10
12.16482663829999
 20
1.599233099400009
 10
11.92208825429999
 20
1.687506307399999
 10
11.67609339989999
 20
1.766093339400001
 10
11.42728549269999
 20
1.834853339399998
 10
11.1790010447
 20
1.89304919220001
  0
LWPOLYLINE
  5
D4
330
2
100
AcDbEntity
  8
0
100
AcDbPolyline
 90
        3
 70
     0
 43
0.0
 10
-3.009645956900001
 20
30.29965419540001
 10
-3.009972667300004
 20
30.30044332820001
 10
-3.0129933121
 20
30.30354072659999
  0
LWPOLYLINE
  5
D5
330
2
100
AcDbEntity
  8
0
100
AcDbPolyline
 90
        3
 70
     0
 43
0.0
 10
11.34162897429999
 20
-0.8979080237999994
 10
11.34195568469999
 20
-0.8986971565999937
 10
11.3449763295
 20
-0.901794554999995
  0
LWPOLYLINE
  5
D6
330
2
100
AcDbEntity
  8
0
100
AcDbPolyline
 90
       22
 70
     0
 43
0.0
 10
11.3416282463
 20
30.29965419700001
 10
11.31259906709999
 20
30.2105132306
 10
11.27155314229999
 20
30.10350895860002
 10
11.22436466389999
 20
29.99846876499999
 10
11.1711756815
 20
29.895695957
 10
11.11214311669999
 20
29.79548788180001
 10
11.0474384095
 20
29.698135365
 10
10.97724790389999
 20
29.6039230658
 10
10.90177301429999
 20
29.5131289538
 10
10.82123170869999
 20
29.42602498579999
 10
10.73585688949999
 20
29.3428739282
 10
10.64589531189999
 20
29.26392773940001
 10
10.55160936789999
 20
29.18942847859999
 10
10.4532768863
 20
29.1196068658
 10
10.35118808949999
 20
29.05467918259999
 10
10.24564434389999
 20
28.99484628820001
 10
10.13695703989999
 20
28.9402928994
 10
10.02544691029999
 20
28.8911871826
 10
9.911443059099994
 20
28.8476801858
 10
9.795282113499993
 20
28.8099053858
 10
9.6773073855
 20
28.77797823379999
 10
9.560843513500003
 20
28.75256725300001
  0
LWPOLYLINE
  5
D7
330
2
100
AcDbEntity
  8
0
100
AcDbPolyline
 90
       32
 70
     0
 43
0.0
 10
-23.8978075057
 20
15.89756199380001
 10
-23.7569796929
 20
15.92413757620001
 10
-23.6766197729
 20
15.9401199234
 10
-23.58859345449999
 20
15.9596466482
 10
-23.4919515889
 20
15.9842423858
 10
-23.38534985449999
 20
16.0157016322
 10
-23.26702217289999
 20
16.0558406066
 10
-23.13546544489999
 20
16.106935637
 10
-22.9918521809
 20
16.1708633922
 10
-22.8495523761
 20
16.24301768019999
 10
-22.7173203617
 20
16.31885509460001
 10
-22.5961029569
 20
16.39645076500001
 10
-22.4810401857
 20
16.478350749
 10
-22.36311309129999
 20
16.5724442802
 10
-22.2359607617
 20
16.68734085940001
 10
-22.1088585841
 20
16.8183731154
 10
-21.9932273841
 20
16.95340661619999
 10
-21.8948771681
 20
17.0812539378
 10
-21.8104238769
 20
17.20102442099999
 10
-21.7364269793
 20
17.3131140754
 10
-21.6705719985
 20
17.4178333154
 10
-21.6112305281
 20
17.5155796322
 10
-21.5576264353
 20
17.6061112114
 10
-21.5094627841
 20
17.6888994466
 10
-21.4665444865
 20
17.76373326259999
 10
-21.4280432993
 20
17.831704997
 10
-21.3925685137
 20
17.89505028660001
 10
-21.3586990081
 20
17.9562144674
 10
-21.3251017889
 20
18.0177690338
 10
-21.2913616721
 20
18.0807608882
 10
-21.2575659521
 20
18.145331933
 10
-21.22378087369999
 20
18.21162513139999
  0
LWPOLYLINE
  5
D8
330
2
100
AcDbEntity
  8
0
100
AcDbPolyline
 90
       31
 70
     0
 43
0.0
 10
32.08896271189999
 20
15.92413757620001
 10
32.0086027919
 20
15.9401199234
 10
31.92057647189999
 20
15.9596466482
 10
31.8239346063
 20
15.9842423858
 10
31.71733287189999
 20
16.0157016322
 10
31.59900519029999
 20
16.0558406066
 10
31.46744846229999
 20
16.106935637
 10
31.3238351983
 20
16.1708633922
 10
31.1815353935
 20
16.24301768019999
 10
31.04930338069999
 20
16.31885509460001
 10
30.9280859759
 20
16.39645076500001
 10
30.8130232047
 20
16.478350749
 10
30.69509610869999
 20
16.5724442802
 10
30.56794377909999
 20
16.68734085940001
 10
30.44084160149999
 20
16.8183731154
 10
30.3252104015
 20
16.95340661619999
 10
30.2268601855
 20
17.0812539378
 10
30.14240689589999
 20
17.20102442099999
 10
30.0684099967
 20
17.3131140754
 10
30.0025550175
 20
17.4178333154
 10
29.9432135455
 20
17.5155796322
 10
29.8896094527
 20
17.6061112114
 10
29.8414458015
 20
17.6888994466
 10
29.7985275055
 20
17.76373326259999
 10
29.76002631669999
 20
17.831704997
 10
29.72455153269999
 20
17.89505028660001
 10
29.69068202549999
 20
17.9562144674
 10
29.65708480629999
 20
18.0177690338
 10
29.6233446895
 20
18.0807608882
 10
29.5895489695
 20
18.145331933
 10
29.55576389109999
 20
18.21162513139999
  0
LWPOLYLINE
  5
D9
330
2
100
AcDbEntity
  8
0
100
AcDbPolyline
 90
       36
 70
     0
 43
0.0
 10
-0.3159499153000027
 20
25.70108459699999
 10
-0.3212860913000028
 20
25.70499533300001
 10
-0.327321580900005
 20
25.7089314722
 10
-0.3340348241000015
 20
25.71289741139999
 10
-0.3414148097000051
 20
25.71690012020001
 10
-0.3494579617000042
 20
25.72094713299999
 10
-0.3581679905000001
 20
25.7250466706
 10
-0.3675556272999998
 20
25.72920763540001
 10
-0.3776385409000014
 20
25.73343965299999
 10
-0.3884412801000039
 20
25.73775308339999
 10
-0.3999953377000054
 20
25.74215907060001
 10
-0.4123392768999992
 20
25.7466695826
 10
-0.4255189713000008
 20
25.75129748179999
 10
-0.4395878897000003
 20
25.75605657940001
 10
-0.4546075105000043
 20
25.7609617362
 10
-0.4706477041000028
 20
25.76602891380001
 10
-0.487787254500006
 20
25.77127528180001
 10
-0.5061142625000059
 20
25.77671926099999
 10
-0.5257282689000036
 20
25.78238106740001
 10
-0.5467193985000023
 20
25.78827680019999
 10
-0.5689489009000042
 20
25.79435979060001
 10
-0.5921239297000014
 20
25.8005479042
 10
-0.616158300900004
 20
25.80682017779999
 10
-0.6410547761000061
 20
25.8131800098
 10
-0.6667949505000053
 20
25.81962531540002
 10
-0.6933654577000042
 20
25.82615543379999
 10
-0.7207510081000024
 20
25.8327693282
 10
-0.7489361169000049
 20
25.8394660098
 10
-0.7779047953000032
 20
25.84624445620001
 10
-0.8076432400999991
 20
25.853104221
 10
-0.838135811299999
 20
25.86004449620002
 10
-0.8693625905000033
 20
25.8670635378
 10
-0.9013052129000058
 20
25.87416001620001
 10
-0.9339462177000044
 20
25.88133284020001
 10
-0.9672673697000035
 20
25.88858077300001
 10
-1.035876716900006
 20
25.90329697939999
  0
LWPOLYLINE
  5
DA
330
2
100
AcDbEntity
  8
0
100
AcDbPolyline
 90
        3
 70
     0
 43
0.0
 10
-0.3159499025000017
 20
25.70108458900001
 10
-0.3017851377000014
 20
25.68973234100001
 10
-0.2871440225000015
 20
25.67748789299999
  0
LWPOLYLINE
  5
DB
330
2
100
AcDbEntity
  8
0
100
AcDbPolyline
 90
       35
 70
     0
 43
0.0
 10
12.11147982229999
 20
14.9236359314
 10
12.10903648629999
 20
15.17389558580001
 10
12.10368603829999
 20
15.459566709
 10
12.0943704079
 20
15.7819567986
 10
12.0806240351
 20
16.12512807539999
 10
12.06284432149999
 20
16.46934948020001
 10
12.0411682191
 20
16.8116484018
 10
12.01560242869999
 20
17.15234273939999
 10
11.9861775727
 20
17.4913878722
 10
11.9529570687
 20
17.82838976980001
 10
11.9160227503
 20
18.16288780500001
 10
11.8754778415
 20
18.4943641842
 10
11.83141079829999
 20
18.8225299538
 10
11.78394409109999
 20
19.146917901
 10
11.73318948789999
 20
19.4672227586
 10
11.67929704309999
 20
19.7829715298
 10
11.62238591029999
 20
20.093947045
 10
11.5626113583
 20
20.3997806322
 10
11.50009529109999
 20
20.7003235186
 10
11.43489827029999
 20
20.9957211458
 10
11.36699532149999
 20
21.28648780019999
 10
11.2965210831
 20
21.572408901
 10
11.22359892309999
 20
21.8533390914
 10
11.14838434549999
 20
22.12903236180001
 10
11.0710335615
 20
22.3992742834
 10
10.9916935679
 20
22.66390988819999
 10
10.91052265909999
 20
22.92276881459998
 10
10.82764014709999
 20
23.17582047540001
 10
10.7432165391
 20
23.4228888642
 10
10.65739214869999
 20
23.66390672180001
 10
10.57031199989999
 20
23.8988039794
 10
10.4821663055
 20
24.1274078322
 10
10.39284380789999
 20
24.3503087698
 10
10.30374760149999
 20
24.56446199860001
 10
10.2237880367
 20
24.75012497780001
  0
LWPOLYLINE
  5
DD
330
2
100
AcDbEntity
  8
0
100
AcDbPolyline
 90
       35
 70
     0
 43
0.0
 10
12.6060241391
 20
14.70087308499999
 10
12.6040781983
 20
15.037445861
 10
12.59820397589999
 20
15.373572269
 10
12.58841825749999
 20
15.70895488020001
 10
12.57474458869999
 20
16.0432990146
 10
12.55721465749999
 20
16.3762877842
 10
12.53588675349999
 20
16.70734164499999
 10
12.5107819823
 20
17.03659586100001
 10
12.48192025109999
 20
17.36417350740001
 10
12.44934258389999
 20
17.6899332322
 10
12.41311213109999
 20
18.0135497922
 10
12.37333150869999
 20
18.3344638514
 10
12.33007589109999
 20
18.6524558866
 10
12.28345014229999
 20
18.9671448754
 10
12.23355365589999
 20
19.2782601682
 10
12.18047808629999
 20
19.585618717
 10
12.12434884789999
 20
19.8888818626
 10
12.0652891359
 20
20.18778132660001
 10
12.0034225231
 20
20.48208976019999
 10
11.93885200309999
 20
20.77170135859999
 10
11.8716508591
 20
21.05664842739999
 10
11.80184701589999
 20
21.33716199379999
 10
11.72948674869999
 20
21.61337371060001
 10
11.65470448309999
 20
21.8850645058
 10
11.5776518431
 20
22.15198642740002
 10
11.4984350335
 20
22.41407269939999
 10
11.41718801269999
 20
22.67117433779999
 10
11.33407339829999
 20
22.92307551220001
 10
11.24917110869999
 20
23.16982561460001
 10
11.1625892463
 20
23.41138553459999
 10
11.0745106911
 20
23.64752254580001
 10
10.9850850799
 20
23.8781208834
 10
10.89448120789999
 20
24.10303498739999
 10
10.8028149343
 20
24.3222656866
 10
10.71009139989999
 20
24.5360674962
  0
LWPOLYLINE
  5
DE
330
2
100
AcDbEntity
  8
0
100
AcDbPolyline
 90
       36
 70
     0
 43
0.0
 10
12.1249095375
 20
14.70087308499999
 10
12.12306933269999
 20
15.03872015059999
 10
12.1175143487
 20
15.37611804179999
 10
12.10826214229999
 20
15.7127585666
 10
12.0953370655
 20
16.0483354594
 10
12.07877212149999
 20
16.3825106098
 10
12.05862474229999
 20
16.71470447379999
 10
12.03491429589999
 20
17.04510332499999
 10
12.0076645055
 20
17.3738116898
 10
11.97692143509999
 20
17.700647805
 10
11.94275289909999
 20
18.0252515906
 10
11.9052624703
 20
18.3470527506
 10
11.86452010869999
 20
18.6658816786
 10
11.82063746229999
 20
18.981295149
 10
11.77370678229999
 20
19.2930688402
 10
11.7238217103
 20
19.6010011058
 10
11.67111423509999
 20
19.9047014514
 10
11.61569755349999
 20
20.2039492722
 10
11.5576947391
 20
20.4985059826
 10
11.49719162389999
 20
20.7883415234
 10
11.4342506847
 20
21.07353990580001
 10
11.36888245269999
 20
21.35442670420001
 10
11.30117203349999
 20
21.63096352340001
 10
11.23127410069999
 20
21.90284235860001
 10
11.1593142575
 20
22.1699048594
 10
11.0853846831
 20
22.43212685460001
 10
11.00966203509999
 20
22.68919964980001
 10
10.93225001429999
 20
22.94109077299999
 10
10.8532170111
 20
23.1878760146
 10
10.7727331727
 20
23.4293161682
 10
10.6909393919
 20
23.66528768339999
 10
10.60799353909999
 20
23.89563713299999
 10
10.52403907669999
 20
24.12027057460001
 10
10.43910224789999
 20
24.3394052066
 10
10.3531886927
 20
24.5532869794
 10
10.2663103247
 20
24.76213494260001
  0
LINE
  5
DF
330
2
100
AcDbEntity
  8
0
100
AcDbLine
 10
12.1118747503
 20
14.6905717554
 30
0.0
 11
12.11147982229999
 21
14.9236359314
 31
0.0
  0
LWPOLYLINE
  5
E0
330
2
100
AcDbEntity
  8
0
100
AcDbPolyline
 90
       47
 70
     0
 43
0.0
 10
12.10881988469999
 20
14.70087308499999
 10
12.1072671039
 20
14.39107750739999
 10
12.10248765269999
 20
14.0796154514
 10
12.09437051829999
 20
13.7656974754
 10
12.08283713429999
 20
13.44906041779999
 10
12.06793871509999
 20
13.131546229
 10
12.0497589263
 20
12.81552313779999
 10
12.0340358399
 20
12.5808486434
 10
12.01663830389999
 20
12.3489820466
 10
11.99769057749999
 20
12.120560373
 10
11.97731692309999
 20
11.89622064499999
 10
11.96008174709999
 20
11.7201207906
 10
11.9421186111
 20
11.5473962994
 10
11.9235326255
 20
11.3784023906
 10
11.90442889749999
 20
11.213494285
 10
11.8849125359
 20
11.0530272018
 10
11.86507863509999
 20
10.897269765
 10
11.84498224629999
 20
10.7461442146
 10
11.82466840309999
 20
10.5994861906
 10
11.80418214069999
 20
10.4571313378
 10
11.78356849909999
 20
10.3189152978
 10
11.76286883669999
 20
10.1846774738
 10
11.74210982709999
 20
10.05427231379999
 10
11.7213144719
 20
9.92755802100001
 10
11.70050576629999
 20
9.804392806600006
 10
11.67970671349999
 20
9.684634875400007
 10
11.65375046229999
 20
9.539507696200004
 10
11.6278538943
 20
9.399174441799999
 10
11.60202567349999
 20
9.263326710599997
 10
11.57627446869999
 20
9.131656097800004
 10
11.5506034767
 20
9.00385266420001
 10
11.52499402389999
 20
8.879600313800011
 10
11.49942196469999
 20
8.758581414600001
 10
11.47386315669999
 20
8.640478336200004
 10
11.43975575349999
 20
8.487001293000005
 10
11.40552447829999
 20
8.337432372999998
 10
11.37106482549999
 20
8.191060696200011
 10
11.31866894709999
 20
7.9758855858
 10
11.26487387189999
 20
7.76356131220001
 10
11.2091145727
 20
7.551757987400009
 10
11.15116672629999
 20
7.339800131400011
 10
11.09092743509999
 20
7.127548952200001
 10
11.0284387935
 20
6.915358017800002
 10
10.96378513269999
 20
6.703703469000004
 10
10.89707472469999
 20
6.49305940180001
 10
10.82838994389999
 20
6.283796408200004
 10
10.75768566389999
 20
6.075873084999997
  0
LWPOLYLINE
  5
E1
330
2
100
AcDbEntity
  8
0
100
AcDbPolyline
 90
       20
 70
     0
 43
0.0
 10
10.75572171509999
 20
4.859803296199999
 10
10.73421006229999
 20
4.733846197000005
 10
10.7123730351
 20
4.608802593800007
 10
10.6903475199
 20
4.485456328200001
 10
10.66827157749999
 20
4.364580595399999
 10
10.6462835903
 20
4.24693310260001
 10
10.6245213871
 20
4.133251323400003
 10
10.6031213791
 20
4.024247869000006
 10
10.5822177087
 20
3.920606028999998
 10
10.56194140469999
 20
3.8229754786
 10
10.54241956949999
 20
3.731968213000001
 10
10.52377456949999
 20
3.64815471380001
 10
10.50612328149999
 20
3.572060360199998
 10
10.48957634709999
 20
3.50416215380001
 10
10.47423748629999
 20
3.444885710600004
 10
10.46020284309999
 20
3.394602608200003
 10
10.44756038549999
 20
3.353628041800007
 10
10.43638936309999
 20
3.32221886260001
 10
10.42675980149999
 20
3.300571955400002
 10
10.41873291669999
 20
3.288822846599998
  0
LWPOLYLINE
  5
E2
330
2
100
AcDbEntity
  8
0
100
AcDbPolyline
 90
       21
 70
     0
 43
0.0
 10
15.24245922229999
 20
30.2906701634
 10
15.24336519829999
 20
30.2938008114
 10
15.24163172149999
 20
30.2973759746
 10
15.2370031839
 20
30.300847765
 10
15.22958784629999
 20
30.30421367539999
 10
15.21949157109999
 20
30.30746590260001
 10
15.20680666229999
 20
30.3105995794
 10
15.19158713429999
 20
30.31361496660001
 10
15.1739137423
 20
30.31650356659999
 10
15.1538058095
 20
30.31926537139999
 10
15.13128731509999
 20
30.32189584660001
 10
15.10640003029999
 20
30.32438694420001
 10
15.07908319509999
 20
30.32673860180001
 10
15.04937338709999
 20
30.3289393234
 10
15.01723132469999
 20
30.33098252980001
 10
14.9825920959
 20
30.3328604306
 10
14.9454772767
 20
30.33455872500001
 10
14.9057629759
 20
30.33606816820001
 10
14.86349186069999
 20
30.33737069140001
 10
14.8185882799
 20
30.33845114259999
 10
14.77105405429999
 20
30.33929030259999
  0
LWPOLYLINE
  5
E3
330
2
100
AcDbEntity
  8
0
100
AcDbPolyline
 90
        3
 70
     0
 43
0.0
 10
-3.0129933121
 20
-0.901794554999995
 10
-3.009972739300003
 20
-0.8986972909999906
 10
-3.009645968100002
 20
-0.8979080237999994
  0
LINE
  5
E4
330
2
100
AcDbEntity
  8
0
100
AcDbLine
 10
9.299250387099998
 20
25.88858077300001
 30
0.0
 11
9.367859734299994
 21
25.90329697939999
 31
0.0
  0
LINE
  5
E5
330
2
100
AcDbEntity
  8
0
100
AcDbLine
 10
9.870016569499991
 20
26.01210060180001
 30
0.0
 11
9.596571014299993
 21
25.95357879219999
 31
0.0
  0
LWPOLYLINE
  5
E6
330
2
100
AcDbEntity
  8
0
100
AcDbPolyline
 90
       31
 70
     0
 43
0.0
 10
9.596571014299996
 20
25.95357879219999
 10
9.528265177500003
 20
25.93905292660001
 10
9.459076217499998
 20
25.9246238962
 10
9.389026139099996
 20
25.9103107906
 10
9.3181422703
 20
25.89613337460001
 10
9.246473231899997
 20
25.88211409139999
 10
9.174072974300003
 20
25.868276061
 10
9.100985801500002
 20
25.8546402274
 10
9.027217443099999
 20
25.841218845
 10
8.952763987099999
 20
25.82802199059999
 10
8.75263098549999
 20
25.81506126899999
 10
8.676861870300001
 20
25.8023543682
 10
8.600509534300002
 20
25.7899205058
 10
8.523622103899995
 20
25.77777674260001
 10
8.446228606299996
 20
25.7659315314
 10
8.368353299099993
 20
25.7543911746
 10
8.290020598300003
 20
25.74316057779999
 10
8.211255577499997
 20
25.73223904980001
 10
8.132083467100002
 20
25.72162450419999
 10
8.052536734299991
 20
25.71131590099999
 10
7.972676788699999
 20
25.70131638900001
 10
7.892572268699993
 20
25.6916301618
 10
7.812280555100002
 20
25.6822600002
 10
7.731813958299994
 20
25.67320301939999
 10
7.651173531099999
 20
25.66445491700001
 10
7.570371747099997
 20
25.65601262100001
 10
7.489466806300001
 20
25.64787797780001
 10
7.408528331100001
 20
25.64005406260001
 10
7.327617931099993
 20
25.63254301780002
 10
7.246765150299992
 20
25.62534325939999
 10
7.165991508700003
 20
25.6184522674
  0
LINE
  5
E7
330
2
100
AcDbEntity
  8
0
100
AcDbLine
 10
10.2690345247
 20
26.0971000354
 30
0.0
 11
9.870016569499991
 21
26.01210060180001
 31
0.0
  0
LINE
  5
E8
330
2
100
AcDbEntity
  8
0
100
AcDbLine
 10
10.56669463989998
 20
26.16023144820001
 30
0.0
 11
10.2690345247
 21
26.0971000354
 31
0.0
  0
LINE
  5
E9
330
2
100
AcDbEntity
  8
0
100
AcDbLine
 10
10.75064957909999
 20
26.19904038260001
 30
0.0
 11
10.56669463989998
 21
26.16023144820001
 31
0.0
  0
LINE
  5
EA
330
2
100
AcDbEntity
  8
0
100
AcDbLine
 10
9.367859734299994
 20
25.90329697939999
 30
0.0
 11
9.43888153109999
 21
25.91828020980001
 31
0.0
  0
LINE
  5
EB
330
2
100
AcDbEntity
  8
0
100
AcDbLine
 10
10.87557837589998
 20
26.22526252659999
 30
0.0
 11
10.75064957909999
 21
26.19904038260001
 31
0.0
  0
LINE
  5
EC
330
2
100
AcDbEntity
  8
0
100
AcDbLine
 10
11.00207299349998
 20
26.251671605
 30
0.0
 11
10.87557837589998
 21
26.22526252659999
 31
0.0
  0
LINE
  5
ED
330
2
100
AcDbEntity
  8
0
100
AcDbLine
 10
9.43888153109999
 20
25.91828020980001
 30
0.0
 11
9.511924615899996
 21
25.93347039539999
 31
0.0
  0
LINE
  5
EE
330
2
100
AcDbEntity
  8
0
100
AcDbLine
 10
11.1298420975
 20
26.27817116180001
 30
0.0
 11
11.00207299349998
 21
26.251671605
 31
0.0
  0
LINE
  5
EF
330
2
100
AcDbEntity
  8
0
100
AcDbLine
 10
9.511924615899996
 20
25.93347039539999
 30
0.0
 11
9.586822918299997
 21
25.94885491219999
 31
0.0
  0
LWPOLYLINE
  5
F0
330
2
100
AcDbEntity
  8
0
100
AcDbPolyline
 90
       26
 70
     0
 43
0.0
 10
10.8338763551
 20
26.19504740020001
 10
11.6940767743
 20
26.37016270100001
 10
12.0592690143
 20
26.44246673620001
 10
12.3853987855
 20
26.503991973
 10
12.69310817589999
 20
26.55842611699999
 10
13.00239483189999
 20
26.6094060114
 10
13.31569902229999
 20
26.6573057378
 10
13.63174840149999
 20
26.70187182740001
 10
13.94935383029999
 20
26.7429020242
 10
14.2676542559
 20
26.78026884180001
 10
14.5857946559
 20
26.81386298580001
 10
14.9026508159
 20
26.84357166100001
 10
15.2173016687
 20
26.86933415380001
 10
15.52897489109999
 20
26.89112729139999
 10
15.83667803509999
 20
26.9089384434
 10
16.1396065375
 20
26.922795693
 10
16.43698915189999
 20
26.93275455539999
 10
16.7280552767
 20
26.93889834580001
 10
17.01260983509999
 20
26.94134166420001
 10
17.2903534287
 20
26.94020307059999
 10
17.56070321589999
 20
26.93561736659999
 10
17.82331844309999
 20
26.9277367666
 10
18.07778288149999
 20
26.91673417459999
 10
18.32376370229999
 20
26.90280039380001
 10
18.5611966207
 20
26.88612589299999
 10
18.79061060629999
 20
26.86685474100001
  0
LINE
  5
F1
330
2
100
AcDbEntity
  8
0
100
AcDbLine
 10
9.586822918299997
 20
25.94885491219999
 30
0.0
 11
9.663460127899991
 21
25.96442977619999
 31
0.0
  0
LINE
  5
F2
330
2
100
AcDbEntity
  8
0
100
AcDbLine
 10
9.663460127899991
 20
25.96442977619999
 30
0.0
 11
9.741738468699988
 21
25.98019280820001
 31
0.0
  0
LINE
  5
F3
330
2
100
AcDbEntity
  8
0
100
AcDbLine
 10
9.741738468699988
 20
25.98019280820001
 30
0.0
 11
9.821577739099989
 21
25.996143293
 31
0.0
  0
LINE
  5
F4
330
2
100
AcDbEntity
  8
0
100
AcDbLine
 10
9.821577739099989
 20
25.996143293
 30
0.0
 11
9.902914054299994
 21
26.01228161620001
 31
0.0
  0
LINE
  5
F5
330
2
100
AcDbEntity
  8
0
100
AcDbLine
 10
10.37536603029999
 20
26.10443534580001
 30
0.0
 11
10.8338763551
 21
26.19504740020001
 31
0.0
  0
LINE
  5
F6
330
2
100
AcDbEntity
  8
0
100
AcDbLine
 10
9.902914054299994
 20
26.01228161620001
 30
0.0
 11
10.02762133749999
 21
26.03684370899999
 31
0.0
  0
LINE
  5
F7
330
2
100
AcDbEntity
  8
0
100
AcDbLine
 10
10.02762133749999
 20
26.03684370899999
 30
0.0
 11
10.15547417429999
 21
26.0618347698
 31
0.0
  0
LWPOLYLINE
  5
F8
330
2
100
AcDbEntity
  8
0
100
AcDbPolyline
 90
       10
 70
     0
 43
0.0
 10
11.7823745151
 20
26.40925220500001
 10
11.7165040623
 20
26.3964444498
 10
11.65072589269999
 20
26.38354165299999
 10
11.58504798069999
 20
26.3705528242
 10
11.5194783007
 20
26.3574869698
 10
11.45402992629999
 20
26.3443540354
 10
11.38873632789999
 20
26.33116769780001
 10
11.32363607669999
 20
26.31794256499999
 10
11.25876773909999
 20
26.30469324819999
 10
11.1298420975
 20
26.27817116180001
  0
LINE
  5
F9
330
2
100
AcDbEntity
  8
0
100
AcDbLine
 10
10.15547417429999
 20
26.0618347698
 30
0.0
 11
10.28640244949999
 21
26.08725508819999
 31
0.0
  0
LINE
  5
FA
330
2
100
AcDbEntity
  8
0
100
AcDbLine
 10
10.28640244949999
 20
26.08725508819999
 30
0.0
 11
10.37536787829999
 21
26.10443573620001
 31
0.0
  0
LWPOLYLINE
  5
FB
330
2
100
AcDbEntity
  8
0
100
AcDbPolyline
 90
       21
 70
     0
 43
0.0
 10
8.494002105500001
 20
25.67738127860001
 10
8.252521278299994
 20
25.6502082386
 10
7.999563551899996
 20
25.6241338786
 10
7.7367826479
 20
25.59929546580001
 10
7.474681942299994
 20
25.57653243860001
 10
7.228944073500002
 20
25.55682521940001
 10
7.011686825499992
 20
25.5406058738
 10
6.819873715100001
 20
25.527159701
 10
6.635253335900003
 20
25.51494937299999
 10
6.446726935900002
 20
25.50319075860001
 10
6.256218740699992
 20
25.4920147234
 10
6.055103899100004
 20
25.4809717442
 10
5.827940831899994
 20
25.46942610259999
 10
5.586259003099996
 20
25.45823937300001
 10
5.351662161500001
 20
25.44850459699999
 10
5.12619873909999
 20
25.4402553922
 10
4.907954230299992
 20
25.43339712180001
 10
4.700124779099994
 20
25.4280301506
 10
4.505682743899996
 20
25.4242134418
 10
4.32658669109999
 20
25.42195154580001
 10
4.165991508700003
 20
25.4212208018
  0
LWPOLYLINE
  5
FC
330
2
100
AcDbEntity
  8
0
100
AcDbPolyline
 90
       22
 70
     0
 43
0.0
 10
-0.2871440241000016
 20
25.67748789939999
 10
-0.0749591761000019
 20
25.6535300018
 10
0.1585362622999966
 20
25.6291744018
 10
0.4018159102999946
 20
25.60576140179999
 10
0.6486688670999996
 20
25.58381821140001
 10
0.8885510446999944
 20
25.56406578579999
 10
1.105770174299998
 20
25.5473987442
 10
1.296214767899996
 20
25.5336708626
 10
1.599063107099993
 20
25.52155413140001
 10
1.777554236699998
 20
25.5100459778
 10
1.959035468699994
 20
25.49899187859999
 10
2.144433644700001
 20
25.48835580660001
 10
2.3450434991
 20
25.47758457620001
 10
2.568137187099992
 20
25.4665068194
 10
2.799245766300003
 20
25.4560538946
 10
3.023020724700003
 20
25.44696730260001
 10
3.239436627099991
 20
25.43920970739999
 10
3.449527519900001
 20
25.43273893140001
 10
3.649582454300002
 20
25.42767515379999
 10
3.837312596700002
 20
25.42406352979999
 10
4.010366958299997
 20
25.42192058580001
 10
4.165991508700003
 20
25.4212208018
  0
LWPOLYLINE
  5
FD
330
2
100
AcDbEntity
  8
0
100
AcDbPolyline
 90
      109
 70
     0
 43
0.0
 10
-3.450391496100003
 20
26.40925220500001
 10
-3.7235983841
 20
26.46126818099999
 10
-3.997973758500002
 20
26.5115295058
 10
-4.273809366500003
 20
26.55970596659999
 10
-4.551396952099999
 20
26.60546735699999
 10
-4.830867468900002
 20
26.6485316322
 10
-5.111708699300002
 20
26.68880942260001
 10
-5.393247633699999
 20
26.7262595218
 10
-5.6748112609
 20
26.76084072819999
 10
-5.955720284900003
 20
26.79251101620001
 10
-6.2352702449
 20
26.82122508179999
 10
-6.512750395300002
 20
26.846936797
 10
-6.7874499889
 20
26.86960004020001
 10
-7.004738478500001
 20
26.885513773
 10
-7.219479259300001
 20
26.8994775666
 10
-7.431359056099999
 20
26.91152203060001
 10
-7.640064593700003
 20
26.92167776500001
 10
-7.845282596900005
 20
26.929975381
 10
-8.046731502500001
 20
26.93645136499999
 10
-8.244256576099999
 20
26.941165749
 10
-8.437734798500002
 20
26.9441844482
 10
-8.6270431457
 20
26.94557338100001
 10
-8.812058598500001
 20
26.94539845940001
 10
-8.992714515300001
 20
26.94372351220001
 10
-9.169169774500005
 20
26.94060402259999
 10
-9.341639636900005
 20
26.93609338099999
 10
-9.510339363300005
 20
26.9302449826
 10
-9.675484214500002
 20
26.92311221780001
 10
-9.877231248100002
 20
26.9124603746
 10
-10.0741030193
 20
26.8999228722
 10
-10.2664424161
 20
26.885537445
 10
-10.4545923265
 20
26.86934182419999
 10
-10.6388762177
 20
26.8513736322
 10
-10.8195398913
 20
26.83167003059999
 10
-10.9968097281
 20
26.8102680674
 10
-11.1709121105
 20
26.787204789
 10
-11.3420685953
 20
26.76251055219999
 10
-11.5104814289
 20
26.7361889346
 10
-11.6763480305
 20
26.70823682259999
 10
-11.8398658225
 20
26.6786510994
 10
-12.0545831665
 20
26.63665333620001
 10
-12.2659804257
 20
26.5917170002
 10
-12.4745622081
 20
26.5438132482
 10
-12.6808265329
 20
26.49290205140001
 10
-12.8852450737
 20
26.43889863860001
 10
-13.0882829105
 20
26.3817070482
 10
-13.29036701609999
 20
26.32122711379999
 10
-13.49177191849999
 20
26.2573418514
 10
-13.6927340385
 20
26.1899300738
 10
-13.8933479857
 20
26.11893086100001
 10
-14.0931411585
 20
26.04452437460001
 10
-14.2914991457
 20
25.96695104980002
 10
-14.4878394017
 20
25.88645620660001
 10
-14.6817068241
 20
25.80330472020001
 10
-14.8726781761
 20
25.7177663586
 10
-15.0603065521
 20
25.63014094259999
 10
-15.2440503857
 20
25.54084853140001
 10
-15.4233444481
 20
25.45033923699999
 10
-15.5545563361
 20
25.38193918259999
 10
-15.6827179969
 20
25.31335603539999
 10
-15.80760014089999
 20
25.2448380114
 10
-15.9289734801
 20
25.17663332179999
 10
-16.0466500513
 20
25.10896828820001
 10
-16.1606071841
 20
25.0419816546
 10
-16.2708635297
 20
24.9757902706
 10
-16.3774377393
 20
24.9105109858
 10
-16.4803423649
 20
24.84626555219999
 10
-16.5795655329
 20
24.78319531219999
 10
-16.6750892705
 20
24.72144650900002
 10
-16.76689560009999
 20
24.661165389
 10
-16.8550215825
 20
24.60245401940001
 10
-16.93972442409999
 20
24.54523777620001
 10
-17.0213163649
 20
24.489397861
 10
-17.1001096465
 20
24.43481547220001
 10
-17.2014371265
 20
24.36370528979999
 10
-17.2995858433
 20
24.293830997
 10
-17.3957973313
 20
24.22440407700001
 10
-17.5387866145
 20
24.11954134580001
 10
-17.6819317537
 20
24.0122320434
 10
-17.8266285361
 20
23.90100663700001
 10
-17.9729712289
 20
23.7852334466
 10
-18.1206680161
 20
23.66452031219999
 10
-18.2691842481
 20
23.5385953026
 10
-18.3682063521
 20
23.45178487540001
 10
-18.4662518977
 20
23.36340594100001
 10
-18.5622447297
 20
23.27431388500001
 10
-18.6322615249
 20
23.20755529459999
 10
-18.7001641585
 20
23.1413208242
 10
-18.7655984545
 20
23.0760545778
 10
-18.8282102385
 20
23.01220065299999
 10
-18.8877439537
 20
22.95010873299999
 10
-18.9443385265
 20
22.88975082419999
 10
-18.9982315041
 20
22.83100451220001
 10
-19.0496604305
 20
22.7737473842
 10
-19.1148267489
 20
22.6994603474
 10
-19.1766987633
 20
22.62701819059999
 10
-19.2359403985
 20
22.55583597620001
 10
-19.3211393105
 20
22.45027632500002
 10
-19.4030509265
 20
22.3450462514
 10
-19.4827069025
 20
22.2390468066
 10
-19.5607166161
 20
22.13153999060001
 10
-19.6375807345
 20
22.02185218899999
 10
-19.7137873297
 20
21.9092064034
 10
-19.7644692529
 20
21.83204927219999
 10
-19.8152382321
 20
21.7528618834
 10
-19.86625803049999
 20
21.67128546260001
 10
-19.9176436369
 20
21.58703386099999
 10
-19.9693149153
 20
21.5001114546
 10
-20.0211429521
 20
21.41059524500001
  0
LINE
  5
FE
330
2
100
AcDbEntity
  8
0
100
AcDbLine
 10
-1.866794766500002
 20
26.07026069940001
 30
0.0
 11
-2.043384860900007
 21
26.10443573620001
 31
0.0
  0
LINE
  5
FF
330
2
100
AcDbEntity
  8
0
100
AcDbLine
 10
-1.695638320100004
 20
26.03684370899999
 30
0.0
 11
-1.866794766500002
 21
26.07026069940001
 31
0.0
  0
LINE
  5
100
330
2
100
AcDbEntity
  8
0
100
AcDbLine
 10
-1.570931036900002
 20
26.01228161620001
 30
0.0
 11
-1.695638320100004
 21
26.03684370899999
 31
0.0
  0
LWPOLYLINE
  5
101
330
2
100
AcDbEntity
  8
0
100
AcDbPolyline
 90
       22
 70
     0
 43
0.0
 10
-2.043383012900001
 20
26.10443534580001
 10
-2.501893337700003
 20
26.19504740020001
 10
-2.955195299300001
 20
26.28735574420001
 10
-3.362093756900002
 20
26.37016270100001
 10
-3.7272859969
 20
26.44246673620001
 10
-4.053415766500002
 20
26.503991973
 10
-4.361125158500001
 20
26.55842611699999
 10
-4.670411812899999
 20
26.6094060114
 10
-4.983716004900003
 20
26.6573057378
 10
-5.299765384100005
 20
26.70187182740001
 10
-5.617370812899999
 20
26.7429020242
 10
-5.935671238499999
 20
26.78026884180001
 10
-6.253811638500003
 20
26.81386298580001
 10
-6.570667796900004
 20
26.84357166100001
 10
-6.885318651300003
 20
26.86933415380001
 10
-7.1969918737
 20
26.89112729139999
 10
-7.504695016100001
 20
26.9089384434
 10
-7.807623518500001
 20
26.922795693
 10
-8.105006134500001
 20
26.93275455539999
 10
-8.396072257700005
 20
26.93889834580001
 10
-8.680626816100001
 20
26.94134166420001
 10
-8.958370411300002
 20
26.94020307059999
  0
LINE
  5
102
330
2
100
AcDbEntity
  8
0
100
AcDbLine
 10
-1.449484326500008
 20
25.98814461620001
 30
0.0
 11
-1.570931036900002
 21
26.01228161620001
 31
0.0
  0
LINE
  5
103
330
2
100
AcDbEntity
  8
0
100
AcDbLine
 10
-1.331477110500006
 20
25.96442977619999
 30
0.0
 11
-1.449484326500008
 21
25.98814461620001
 31
0.0
  0
LWPOLYLINE
  5
104
330
2
100
AcDbEntity
  8
0
100
AcDbPolyline
 90
        8
 70
     0
 43
0.0
 10
-2.991653057700006
 20
26.31794256499999
 10
-3.056753310499999
 20
26.33116769780001
 10
-3.122046908900003
 20
26.3443540354
 10
-3.187495281700002
 20
26.3574869698
 10
-3.253064961700005
 20
26.3705528242
 10
-3.318742873700003
 20
26.38354165299999
 10
-3.384521043300004
 20
26.3964444498
 10
-3.450391496100003
 20
26.40925220500001
  0
LINE
  5
105
330
2
100
AcDbEntity
  8
0
100
AcDbLine
 10
-1.254839900900004
 20
25.94885491219999
 30
0.0
 11
-1.331477110500006
 21
25.96442977619999
 31
0.0
  0
LINE
  5
106
330
2
100
AcDbEntity
  8
0
100
AcDbLine
 10
-2.862181995300008
 20
26.29143319060001
 30
0.0
 11
-2.991653057700008
 21
26.31794256499999
 31
0.0
  0
LINE
  5
107
330
2
100
AcDbEntity
  8
0
100
AcDbLine
 10
-1.179941598500003
 20
25.93347039539999
 30
0.0
 11
-1.254839900900004
 21
25.94885491219999
 31
0.0
  0
LINE
  5
108
330
2
100
AcDbEntity
  8
0
100
AcDbLine
 10
-2.733825299300003
 20
26.264914765
 30
0.0
 11
-2.862181995300008
 21
26.29143319060001
 31
0.0
  0
LINE
  5
109
330
2
100
AcDbEntity
  8
0
100
AcDbLine
 10
-2.606667857700005
 20
26.238450173
 30
0.0
 11
-2.733825299300003
 21
26.264914765
 31
0.0
  0
LINE
  5
10A
330
2
100
AcDbEntity
  8
0
100
AcDbLine
 10
-1.106898512100005
 20
25.91828020980001
 30
0.0
 11
-1.179941598500003
 21
25.93347039539999
 31
0.0
  0
LINE
  5
10B
330
2
100
AcDbEntity
  8
0
100
AcDbLine
 10
-2.418666561700002
 20
26.19904038260001
 30
0.0
 11
-2.606667857700005
 21
26.238450173
 31
0.0
  0
LINE
  5
10C
330
2
100
AcDbEntity
  8
0
100
AcDbLine
 10
-2.174300504100005
 20
26.14744606579999
 30
0.0
 11
-2.418666561700002
 21
26.19904038260001
 31
0.0
  0
LINE
  5
10D
330
2
100
AcDbEntity
  8
0
100
AcDbLine
 10
-1.035876716900008
 20
25.90329697939999
 30
0.0
 11
-1.106898512100005
 21
25.91828020980001
 31
0.0
  0
LINE
  5
10E
330
2
100
AcDbEntity
  8
0
100
AcDbLine
 10
-1.859527940900004
 20
26.0806139042
 30
0.0
 11
-2.174300504100005
 21
26.14744606579999
 31
0.0
  0
LINE
  5
10F
330
2
100
AcDbEntity
  8
0
100
AcDbLine
 10
-1.372735755300001
 20
25.97676356340001
 30
0.0
 11
-1.859527940900004
 21
26.0806139042
 31
0.0
  0
LINE
  5
110
330
2
100
AcDbEntity
  8
0
100
AcDbLine
 10
-1.264587996900007
 20
25.95357879219999
 30
0.0
 11
-1.372735755300001
 21
25.97676356340001
 31
0.0
  0
LWPOLYLINE
  5
111
330
2
100
AcDbEntity
  8
0
100
AcDbPolyline
 90
       23
 70
     0
 43
0.0
 10
-3.0259711793
 20
30.31312206260001
 10
-3.034293147300004
 20
30.31803012179999
 10
-3.046718982500003
 20
30.3229767346
 10
-3.063177846500003
 20
30.32789109139999
 10
-3.083509302500004
 20
30.33271289139999
 10
-3.107572726500002
 20
30.3374049266
 10
-3.135039027300003
 20
30.34190645459999
 10
-3.165472683300002
 20
30.34616167220001
 10
-3.198585108900005
 20
30.3501493474
 10
-3.234040800100004
 20
30.35384670899999
 10
-3.2714118385
 20
30.3572286306
 10
-3.3103581521
 20
30.36028525940001
 10
-3.350706835300002
 20
30.36302104819999
 10
-3.392060529700003
 20
30.3654259634
 10
-3.434016633700004
 20
30.36749608180001
 10
-3.476446286499999
 20
30.36924359219999
 10
-3.5192691425
 20
30.3706795554
 10
-3.562248337700005
 20
30.3718083298
 10
-3.6051752945
 20
30.3726365538
 10
-3.648073758500004
 20
30.37317420820001
 10
-3.690944643299999
 20
30.37342651539999
 10
-3.733796772899999
 20
30.37339483699999
 10
-3.776607529700001
 20
30.37307684019999
  0
LWPOLYLINE
  5
112
330
2
100
AcDbEntity
  8
0
100
AcDbPolyline
 90
        3
 70
     0
 43
0.0
 10
-3.0259711793
 20
30.31312206260001
 10
-3.019616460900003
 20
30.30831778100001
 10
-3.0129933121
 20
30.30354072659999
  0
LWPOLYLINE
  5
113
330
2
100
AcDbEntity
  8
0
100
AcDbPolyline
 90
       57
 70
     0
 43
0.0
 10
10.2237885839
 20
24.7501251554
 10
10.20788605429999
 20
24.78535943219999
 10
10.19134792469999
 20
24.8197371554
 10
10.17408646069999
 20
24.85350507540001
 10
10.1561408031
 20
24.8866239906
 10
10.13757261909999
 20
24.91902314100001
 10
10.1183874031
 20
24.95073552020001
 10
10.0986163151
 20
24.98174749300001
 10
10.07827853109999
 20
25.0120647074
 10
10.05739567029999
 20
25.04168772820001
 10
10.03598667189999
 20
25.07062002580001
 10
10.01406956309999
 20
25.09886512980001
 10
9.991660670299992
 20
25.12642760020002
 10
9.968775454300001
 20
25.1533118562
 10
9.945426847899994
 20
25.1795240146
 10
9.921627721500001
 20
25.20506892979999
 10
9.897397934300002
 20
25.22994333140001
 10
9.872756891099996
 20
25.25414468340001
 10
9.847717695900001
 20
25.27767649780001
 10
9.822292271899996
 20
25.30054260980001
 10
9.796491895900004
 20
25.3227466226
 10
9.770326607900003
 20
25.34429240340001
 10
9.743805452700001
 20
25.3651837874
 10
9.716936347100002
 20
25.38542462100001
 10
9.689726102299999
 20
25.4050186706
 10
9.662180393499994
 20
25.42396957140001
 10
9.634303759899992
 20
25.4422807378
 10
9.606099599899991
 20
25.45995531699999
 10
9.577570171099992
 20
25.47699608340001
 10
9.5487165551
 20
25.49340539700001
 10
9.519538795100004
 20
25.50918504819999
 10
9.490035556699993
 20
25.52433634899999
 10
9.460205129499996
 20
25.53885955060001
 10
9.430042444699992
 20
25.55275519859999
 10
9.399548262300001
 20
25.56601985940001
 10
9.368697027099997
 20
25.5786596962
 10
9.337437169499992
 20
25.5906871042
 10
9.305746801499992
 20
25.60209824819999
 10
9.273617743900004
 20
25.61288194579999
 10
9.241038315099999
 20
25.62302649780001
 10
9.207997860700004
 20
25.63251799379999
 10
9.17448554229999
 20
25.6413407122
 10
9.1404908927
 20
25.6494769234
 10
9.106003886300001
 20
25.65690685779999
 10
9.071015182300001
 20
25.6636086514
 10
9.035516230300004
 20
25.66955830900001
 10
8.999499524699999
 20
25.6747296722
 10
8.962958993499995
 20
25.67909437940001
 10
8.800887838299999
 20
25.6826220786
 10
8.763278396700002
 20
25.68528019380001
 10
8.725129660699991
 20
25.6870333874
 10
8.686595996699992
 20
25.687842925
 10
8.647976947099991
 20
25.68768595379999
 10
8.609393075100001
 20
25.6865603458
 10
8.57085137109999
 20
25.6844666802
 10
8.532380268699995
 20
25.681406397
 10
8.494002103900001
 20
25.67738127220001
  0
LWPOLYLINE
  5
114
330
2
100
AcDbEntity
  8
0
100
AcDbPolyline
 90
       20
 70
     0
 43
0.0
 10
10.71009139989999
 20
24.5360674962
 10
10.6886483983
 20
24.6617644754
 10
10.66688997749999
 20
24.7865511474
 10
10.64495242229999
 20
24.90964587220001
 10
10.62297314069999
 20
25.03027760499999
 10
10.60108980629999
 20
25.1476907314
 10
10.5794394927
 20
25.26114979700001
 10
10.5581578143
 20
25.369944117
 10
10.53737807989999
 20
25.47339222579999
 10
10.51723045269999
 20
25.57084614100002
 10
10.4978411375
 20
25.6616954322
 10
10.47933159029999
 20
25.74537103699999
 10
10.4618177631
 20
25.821348829
 10
10.44540936149999
 20
25.8891528962
 10
10.4302091679
 20
25.94835852820001
 10
10.41631239189999
 20
25.9985948706
 10
10.40380608149999
 20
26.03954725460001
 10
10.39276857909999
 20
26.07095916180002
 10
10.38326903349999
 20
26.09263383860001
 10
10.3753660303
 20
26.10443534580001
  0
LWPOLYLINE
  5
115
330
2
100
AcDbEntity
  8
0
100
AcDbPolyline
 90
       37
 70
     0
 43
0.0
 10
10.25982578549999
 20
4.641861024200011
 10
10.3375507903
 20
4.829253998600009
 10
10.41479054389999
 20
5.021218854600007
 10
10.4915192879
 20
5.217934726600006
 10
10.56771741429999
 20
5.4196047346
 10
10.64336935829999
 20
5.626459256200007
 10
10.71842367189999
 20
5.838655360200007
 10
10.7927553919
 20
6.056151971399998
 10
10.8662612575
 20
6.278967947400005
 10
10.93883981109999
 20
6.507130429
 10
11.01037021909999
 20
6.740606593800009
 10
11.0807634927
 20
6.979469598600005
 10
11.14992890709999
 20
7.223800526600001
 10
11.21772376309999
 20
7.473501881800004
 10
11.28403469909999
 20
7.7285778098
 10
11.34876304149999
 20
7.989099030600002
 10
11.4117682447
 20
8.25497591700001
 10
11.4729231391
 20
8.526169286600008
 10
11.5321541311
 20
8.802896094600001
 10
11.58941256789999
 20
9.085514998600004
 10
11.6446135007
 20
9.37424694900001
 10
11.69764411989999
 20
9.6692229362
 10
11.7483359487
 20
9.970285688200007
 10
11.79652542549999
 20
10.2772846498
 10
11.84205062389999
 20
10.590058757
 10
11.88475606549999
 20
10.90847328659999
 10
11.92449524309999
 20
11.2324587282
 10
11.96112000949999
 20
11.5619509202
 10
11.99444529109999
 20
11.8965247538
 10
12.02430226549999
 20
12.235793685
 10
12.05055127189999
 20
12.57963066420001
 10
12.07307024629999
 20
12.928202245
 10
12.09169252469999
 20
13.2807761458
 10
12.10621988309999
 20
13.6348185378
 10
12.11661160629999
 20
13.9897848418
 10
12.12284552629999
 20
14.3452720338
 10
12.1249095375
 20
14.70087308499999
  0
LWPOLYLINE
  5
116
330
2
100
AcDbEntity
  8
0
100
AcDbPolyline
 90
       37
 70
     0
 43
0.0
 10
10.18018467989999
 20
4.662340845000002
 10
10.2474821807
 20
4.815535139399997
 10
10.32182147829999
 20
4.989560830599998
 10
10.3999386511
 20
5.178104206600011
 10
10.47808745589999
 20
5.372898387399999
 10
10.55604992949999
 20
5.573774963399998
 10
10.63397242869999
 20
5.781527765000006
 10
10.71196971829999
 20
5.996974806600007
 10
10.79038149909999
 20
6.221715120200002
 10
10.8697167935
 20
6.458122829000004
 10
10.94995799029999
 20
6.707314844999999
 10
11.0297940623
 20
6.966332947400005
 10
11.10740428309999
 20
7.229879757000006
 10
11.18303612309999
 20
7.499104366600008
 10
11.25659818549999
 20
7.774060592200001
 10
11.3278999039
 20
8.054423934600009
 10
11.39640903189999
 20
8.338352877000005
 10
11.4615656479
 20
8.623471925000004
 10
11.52345912629999
 20
8.909950757000004
 10
11.58240434389999
 20
9.199115617800003
 10
11.6388463487
 20
9.493361069000002
 10
11.69263912949999
 20
9.792381646600006
 10
11.74367621749999
 20
10.0960513266
 10
11.79184531029999
 20
10.40419544339999
 10
11.83701953589999
 20
10.7165091234
 10
11.87908676629999
 20
11.03272871060001
 10
11.91793852469999
 20
11.3525593298
 10
11.95347322389999
 20
11.6756930306
 10
11.9856053007
 20
12.0019036866
 10
12.0142209839
 20
12.3305695842
 10
12.03924713269999
 20
12.6613369922
 10
12.06066032629999
 20
12.99446588660001
 10
12.07842809109999
 20
13.3301466674
 10
12.0924840783
 20
13.66798747860001
 10
12.1027728831
 20
14.007616861
 10
12.10924820149999
 20
14.3486269474
 10
12.1118747503
 20
14.6905717554
  0
LWPOLYLINE
  5
117
330
2
100
AcDbEntity
  8
0
100
AcDbPolyline
 90
       35
 70
     0
 43
0.0
 10
10.75572172149999
 20
4.859803309
 10
10.8436743247
 20
5.056945430600009
 10
10.9306644703
 20
5.259437678600008
 10
11.01667161269999
 20
5.467499128200003
 10
11.10164523349999
 20
5.681301616200002
 10
11.18544167349999
 20
5.900789645000003
 10
11.2679400991
 20
6.125954693000011
 10
11.34903138709999
 20
6.356815836999999
 10
11.42858270069999
 20
6.593318753800005
 10
11.50649887989999
 20
6.835514686600006
 10
11.58269217909999
 20
7.083486179399997
 10
11.65701422389999
 20
7.337117547399998
 10
11.72934945909999
 20
7.596388003400008
 10
11.7996059343
 20
7.861363232200005
 10
11.8676467951
 20
8.131940585800009
 10
11.9333482927
 20
8.4080523362
 10
11.99664653269999
 20
8.689889179399997
 10
12.0575060111
 20
8.977793110600003
 10
12.1158573327
 20
9.271979129800001
 10
12.17160543029999
 20
9.572582934600006
 10
12.22459723669999
 20
9.879436880200003
 10
12.27468747189999
 20
10.19237597300001
 10
12.3217359999
 20
10.51122446899999
 10
12.36561268309999
 20
10.8358330498
 10
12.40620001749999
 20
11.1661203938
 10
12.4433830607
 20
11.5020218642
 10
12.4770113055
 20
11.84309418419999
 10
12.5069532911
 20
12.1889184866
 10
12.53311190709999
 20
12.53935562579999
 10
12.55541135509999
 20
12.8945829074
 10
12.5737348799
 20
13.2538781858
 10
12.58793715189999
 20
13.6146537746
 10
12.5980302511
 20
13.9763459474
 10
12.6040455647
 20
14.3385530978
 10
12.6060241391
 20
14.70087308499999
  0
LWPOLYLINE
  5
118
330
2
100
AcDbEntity
  8
0
100
AcDbPolyline
 90
       17
 70
     0
 43
0.0
 10
10.25982578869999
 20
4.641861024200011
 10
10.20516831829999
 20
4.5288191538
 10
10.14173744789999
 20
4.420450417799997
 10
10.06994029269999
 20
4.317450356999998
 10
9.99023767349999
 20
4.220480059400003
 10
9.903141145500001
 20
4.130161912200009
 10
9.809209723099996
 20
4.047075605000003
 10
9.709046287899994
 20
3.971754412999999
 10
9.603293719899994
 20
3.904681773000007
 10
9.492630777499996
 20
3.846288177800005
 10
9.377767726299993
 20
3.796948414600009
 10
9.259441796700002
 20
3.756979165000004
 10
9.138412443099994
 20
3.726636963400011
 10
9.015456470299994
 20
3.706116555400001
 10
8.7663630495
 20
3.6955496482
 10
8.641928652700002
 20
3.695004062600006
 10
8.5179519327
 20
3.70448330420001
  0
LWPOLYLINE
  5
119
330
2
100
AcDbEntity
  8
0
100
AcDbPolyline
 90
        3
 70
     0
 43
0.0
 10
-3.0129933121
 20
-0.901794554999995
 10
-3.019616460900003
 20
-0.9065716093999895
 10
-3.0259711793
 20
-0.9113758909999916
  0
LWPOLYLINE
  5
11A
330
2
100
AcDbEntity
  8
0
100
AcDbPolyline
 90
       21
 70
     0
 43
0.0
 10
11.1790010463
 20
27.5086969778
 10
11.42702456149999
 20
27.5668262626
 10
11.6758334495
 20
27.63557542580001
 10
11.9218303647
 20
27.71415182260001
 10
12.16457200629999
 20
27.80241473459999
 10
12.40361402869999
 20
27.90020020660001
 10
12.63852215989999
 20
28.0073247346
 10
12.86887134869999
 20
28.12358546899999
 10
13.09424512629999
 20
28.2487601538
 10
13.31423606549999
 20
28.38260732499999
 10
13.52844799029999
 20
28.52486763060001
 10
13.73649649909999
 20
28.67526437300002
 10
13.93800923509999
 20
28.8335037826
 10
14.13262726709999
 20
28.9992761154
 10
14.3200057983
 20
29.17225636179999
 10
14.4998145423
 20
29.35210463700001
 10
14.67173875669999
 20
29.5384671442
 10
14.83547995029999
 20
29.7309769106
 10
14.9907566767
 20
29.9292546194
 10
15.13730599989999
 20
30.13291050260001
 10
15.24245710709999
 20
30.2906701746
  0
LWPOLYLINE
  5
11B
330
2
100
AcDbEntity
  8
0
100
AcDbPolyline
 90
       18
 70
     0
 43
0.0
 10
9.560843515100003
 20
28.75256723860001
 10
8.947166657499991
 20
28.64135092179999
 10
8.204218199899997
 20
28.54353199060001
 10
7.585024755099993
 20
28.4596675426
 10
6.964779222299995
 20
28.38976696019999
 10
6.343677468699993
 20
28.333838325
 10
5.72191410229999
 20
28.2918877842
 10
5.099681092699995
 20
28.26391957779999
 10
4.477166479899992
 20
28.2499362834
 10
3.854558020699997
 20
28.24993918740002
 10
3.232043455899997
 20
28.2639282898
 10
2.609810519899994
 20
28.291902309
 10
1.988047238299998
 20
28.333858669
 10
1.2419456111
 20
28.38979313139999
 10
0.6217003070999994
 20
28.45969954580001
 10
0.0025072623
 20
28.54356981459999
 10
-0.6154405792999996
 20
28.6413945426
 10
-1.228860497700004
 20
28.75256723860001
  0
LWPOLYLINE
  5
11C
330
2
100
AcDbEntity
  8
0
100
AcDbPolyline
 90
        4
 70
     0
 43
0.0
 10
10.71501864629999
 20
27.4261085314
 10
10.86906644629999
 20
27.44987191700001
 10
11.02577883829999
 20
27.47776292019999
 10
11.1790010463
 20
27.508696973
  0
LWPOLYLINE
  5
11D
330
2
100
AcDbEntity
  8
0
100
AcDbPolyline
 90
       50
 70
     0
 43
0.0
 10
13.18918914869999
 20
27.40297054580001
 10
13.00889849269999
 20
27.376142997
 10
12.83221247349999
 20
27.35039655699999
 10
12.6592623983
 20
27.325714077
 10
12.4901795775
 20
27.30207840660002
 10
12.32500971349999
 20
27.27946216819999
 10
12.1634561039
 20
27.25779707860001
 10
12.00513643829999
 20
27.2370046178
 10
11.84966840789999
 20
27.21700627380001
 10
11.64620987669999
 20
27.1914549458
 10
11.4465775135
 20
27.1670709362
 10
11.25020756469999
 20
27.1437493874
 10
11.05651041269999
 20
27.121386797
 10
10.86479294709999
 20
27.09988508339999
 10
10.67433619189999
 20
27.07914752500001
 10
10.3896968703
 20
27.04930056499999
 10
10.1053783583
 20
27.02085793140001
 10
9.820478567899996
 20
26.99372890420001
 10
9.534079385499993
 20
26.96784943539999
 10
9.245886575900001
 20
26.94321013299999
 10
8.958117462299995
 20
26.91999353940001
 10
8.547666156700003
 20
26.89834997780001
 10
8.405532934299998
 20
26.88808747540001
 10
8.264708526299997
 20
26.87825020660001
 10
8.125901199899999
 20
26.86887982419999
 10
7.987824572699992
 20
26.85988621779999
 10
7.709139054299996
 20
26.84270433780001
 10
7.596422041499991
 20
26.8361161762
 10
7.482418321499991
 20
26.82967169620001
 10
7.366481636700001
 20
26.82334916660001
 10
7.247965731099995
 20
26.8171268562
 10
7.126224350299992
 20
26.81098303220001
 10
7.021949102299998
 20
26.80591395220001
 10
6.915247457500001
 20
26.8009106898
 10
6.806381724700003
 20
26.79599964980001
 10
6.695498919900003
 20
26.791202245
 10
6.582284902300003
 20
26.7865199298
 10
6.466310243099997
 20
26.7819491666
 10
6.347311039899992
 20
26.7774929058
 10
6.225685510299996
 20
26.77318004340001
 10
6.1019973999
 20
26.76904596340001
 10
5.913582100699997
 20
26.7632436066
 10
5.722203145500003
 20
26.75795941299999
 10
5.528314415899998
 20
26.75322992340001
 10
5.332550441500004
 20
26.7490926914
 10
5.135733254299992
 20
26.74558191379999
 10
4.939254278299998
 20
26.74271739219999
 10
4.679666622300004
 20
26.739919293
 10
4.422286007899998
 20
26.73826516340001
 10
4.165991508700003
 20
26.7377212818
  0
LWPOLYLINE
  5
11E
330
2
100
AcDbEntity
  8
0
100
AcDbPolyline
 90
       30
 70
     0
 43
0.0
 10
7.165991508700003
 20
25.6184522674
 10
7.083211388699993
 20
25.61162883859999
 10
7.002109590299994
 20
25.6051077554
 10
6.922701076699993
 20
25.59887752819999
 10
6.845000806299992
 20
25.59292666739999
 10
6.769014417500002
 20
25.5872435058
 10
6.694710260699991
 20
25.58181566099999
 10
6.622047359899994
 20
25.5766305682
 10
6.550984747100002
 20
25.57167566580001
 10
6.481484123100003
 20
25.566939013
 10
6.4135179023
 20
25.5624111538
 10
6.347061175899995
 20
25.55808325299999
 10
6.2820890351
 20
25.5539464786
 10
6.218575300699995
 20
25.549992189
 10
6.156488731099997
 20
25.5462125218
 10
6.095796815900001
 20
25.54259980819999
 10
6.036467044700003
 20
25.53914637940001
 10
5.959424886299999
 20
25.534776949
 10
5.884678476700003
 20
25.53066259380001
 10
5.812159769499999
 20
25.52678884820001
 10
5.741800334299995
 20
25.52314165299999
 10
5.673530188699999
 20
25.51970858420002
 10
5.6072789647
 20
25.51647762419999
 10
5.542983419099996
 20
25.513437373
 10
5.480608812699998
 20
25.51057890420001
 10
5.420127531099993
 20
25.507893909
 10
5.361512991899999
 20
25.5053742738
 10
5.304742748699993
 20
25.5030126754
 10
5.249795388699993
 20
25.50080198580001
 10
5.196652014299999
 20
25.49873527379999
  0
LINE
  5
11F
330
2
100
AcDbEntity
  8
0
100
AcDbLine
 10
5.196652014299997
 20
25.49873527379999
 30
0.0
 11
5.095744375899994
 21
25.4950093794
 31
0.0
  0
LINE
  5
120
330
2
100
AcDbEntity
  8
0
100
AcDbLine
 10
5.095744375899994
 20
25.4950093794
 30
0.0
 11
5.001893910299995
 21
25.49178539700001
 31
0.0
  0
LINE
  5
121
330
2
100
AcDbEntity
  8
0
100
AcDbLine
 10
5.001893910299995
 20
25.49178539700001
 30
0.0
 11
4.914664051100001
 21
25.48900647380001
 31
0.0
  0
LWPOLYLINE
  5
122
330
2
100
AcDbEntity
  8
0
100
AcDbPolyline
 90
       10
 70
     0
 43
0.0
 10
4.914664051100004
 20
25.48900647380001
 10
4.833041969500001
 20
25.48660604820002
 10
4.77461202549999
 20
25.48501128819999
 10
4.717939340699999
 20
25.48356776180002
 10
4.662463414299992
 20
25.48225685620001
 10
4.607558595100002
 20
25.48106458580001
 10
4.497628046299993
 20
25.47900977300001
 10
4.386962340699994
 20
25.47743305620001
 10
4.276207331099996
 20
25.47641628980001
 10
4.165991508700003
 20
25.4760534066
  0
LWPOLYLINE
  5
123
330
2
100
AcDbEntity
  8
0
100
AcDbPolyline
 90
        7
 70
     0
 43
0.0
 10
-8.958370411300002
 20
26.94020307059999
 10
-9.228720198499999
 20
26.93561736659999
 10
-9.4913354257
 20
26.9277367666
 10
-9.7457998641
 20
26.91673417459999
 10
-9.9917806849
 20
26.90280039380001
 10
-10.2292136033
 20
26.88612589299999
 10
-10.4586275873
 20
26.86685474100001
  0
LWPOLYLINE
  5
125
330
2
100
AcDbEntity
  8
0
100
AcDbPolyline
 90
       50
 70
     0
 43
0.0
 10
4.165991508700003
 20
26.7377212818
 10
3.909014591900003
 20
26.73826785780001
 10
3.649290022299993
 20
26.73994532339999
 10
3.385573771099998
 20
26.7428102818
 10
3.184706750299994
 20
26.745769229
 10
2.982098244699997
 20
26.74943317940001
 10
2.779640462299994
 20
26.75378197780001
 10
2.580524004699995
 20
26.758727629
 10
2.383588919899992
 20
26.764272053
 10
2.1893589007
 20
26.770374805
 10
2.062071695900002
 20
26.77471963700002
 10
1.937258699099999
 20
26.77924156659999
 10
1.815610267099998
 20
26.78389595540001
 10
1.697603772699991
 20
26.78864695700001
 10
1.582864651099995
 20
26.79349389620002
 10
1.470805359899998
 20
26.79844488819999
 10
1.235990844699998
 20
26.8035014002
 10
1.128596014299994
 20
26.80863829300001
 10
1.023948270299996
 20
26.81382378260001
 10
0.9022167214999967
 20
26.82008072820001
 10
0.7840298431000008
 20
26.82639675540001
 10
0.6685050398999977
 20
26.8328067394
 10
0.5547597230999984
 20
26.83934555860001
 10
0.4419112990999992
 20
26.84604808659999
 10
0.3016608798999982
 20
26.8546636562
 10
0.1638265790999966
 20
26.8634529426
 10
0.0262853198999977
 20
26.87254116020001
 10
-0.1125085793000053
 20
26.88203647539999
 10
-0.2532834369000056
 20
26.891999205
 10
-0.3953184913000029
 20
26.90238628979999
 10
-0.6805814689000016
 20
26.92427783539999
 10
-0.9676767009000002
 20
26.9477005122
 10
-1.255013510499999
 20
26.9725273218
 10
-1.540743132900004
 20
26.9986021378
 10
-1.824698721700002
 20
27.02588864179999
 10
-2.107226750500004
 20
27.0543934594
 10
-2.389045059300002
 20
27.08417520979999
 10
-2.671271854500005
 20
27.11535033939999
 10
-2.956255395300004
 20
27.14821461940001
 10
-3.1490557889
 20
27.17123161300001
 10
-3.344858723299999
 20
27.195256781
 10
-3.5442611713
 20
27.2203961906
 10
-3.696560396900004
 20
27.24005183379999
 10
-3.851628545700002
 20
27.2604750146
 10
-4.009874014499999
 20
27.2817468482
 10
-4.1717052017
 20
27.30394844980001
 10
-4.3374391137
 20
27.3271499314
 10
-4.507027201700005
 20
27.3513773842
 10
-4.680329520100002
 20
27.376645893
 10
-4.857206131300003
 20
27.40297054580001
  0
LWPOLYLINE
  5
126
330
2
100
AcDbEntity
  8
0
100
AcDbPolyline
 90
        8
 70
     0
 43
0.0
 10
4.165991508700003
 20
25.4760534066
 10
4.0564320159
 20
25.47641210580001
 10
3.946337347099998
 20
25.477417517
 10
3.836342252699992
 20
25.47897693619999
 10
3.72708917269999
 20
25.48100943059999
 10
3.67248875509999
 20
25.48218966419999
 10
3.617277927899991
 20
25.4834885298
 10
3.560823073500003
 20
25.48492040820001
  0
LINE
  5
127
330
2
100
AcDbEntity
  8
0
100
AcDbLine
 10
3.5608230735
 20
25.48492040820001
 30
0.0
 11
3.462428524699999
 21
25.4876552658
 31
0.0
  0
LINE
  5
128
330
2
100
AcDbEntity
  8
0
100
AcDbLine
 10
3.462428524699999
 20
25.4876552658
 30
0.0
 11
3.378251095899995
 21
25.49022462739999
 31
0.0
  0
LINE
  5
129
330
2
100
AcDbEntity
  8
0
100
AcDbLine
 10
3.378251095899995
 20
25.49022462739999
 30
0.0
 11
3.287752380699996
 21
25.49321030099999
 31
0.0
  0
LWPOLYLINE
  5
12A
330
2
100
AcDbEntity
  8
0
100
AcDbPolyline
 90
       32
 70
     0
 43
0.0
 10
3.287752380699998
 20
25.49321030099999
 10
3.190357932699996
 20
25.49667077939999
 10
3.138993020699999
 20
25.49859546259999
 10
3.085834543899991
 20
25.50065789939999
 10
3.030870961499999
 20
25.5028643186
 10
2.974083407899996
 20
25.50522164979999
 10
2.915451185500003
 20
25.5077369938
 10
2.854951774299991
 20
25.51041768340001
 10
2.792555371099993
 20
25.51327199380001
 10
2.728230350299995
 20
25.5163084338
 10
2.661938358299991
 20
25.51953612020001
 10
2.593614135899997
 20
25.52296660660001
 10
2.523185687899996
 20
25.52661205299999
 10
2.450581569500002
 20
25.53048502900002
 10
2.375732489499995
 20
25.5345997186
 10
2.298569700699999
 20
25.53897071379999
 10
2.239137254300004
 20
25.54242620020001
 10
2.178331910300002
 20
25.5460418002
 10
2.116120900699996
 20
25.54982524980001
 10
2.05247146069999
 20
25.55378428499999
 10
1.987352115099994
 20
25.55792683380001
 10
1.920736553499992
 20
25.56226160980001
 10
1.852599755100001
 20
25.56679751860001
 10
1.782916702299999
 20
25.57154346739999
 10
1.711659649499992
 20
25.5765089922
 10
1.638789947099994
 20
25.58170614899999
 10
1.564266217499991
 20
25.5871476226
 10
1.488047086299999
 20
25.5928460978
 10
1.285100590299997
 20
25.5988140802
 10
1.205432422299999
 20
25.60506336019999
 10
1.124057692699999
 20
25.6116055522
 10
1.040991508699995
 20
25.6184522674
  0
LWPOLYLINE
  5
12B
330
2
100
AcDbEntity
  8
0
100
AcDbPolyline
 90
       31
 70
     0
 43
0.0
 10
1.040991508699995
 20
25.6184522674
 10
0.9602178606999984
 20
25.62534325939999
 10
0.879365071899997
 20
25.63254301940002
 10
0.7984546670999962
 20
25.64005406420001
 10
0.7175161902999961
 20
25.64787797940001
 10
0.6366112462999994
 20
25.65601262260001
 10
0.5558094622999974
 20
25.66445492020001
 10
0.4751690318999949
 20
25.67320302259999
 10
0.3947024335000009
 20
25.6822600034
 10
0.3144107166999959
 20
25.69163016500001
 10
0.2343061950999967
 20
25.70131639380001
 10
0.1544462462999974
 20
25.71131590579999
 10
0.0748995151000003
 20
25.72162450899999
 10
-0.0042725905000012
 20
25.73223905460001
 10
-0.0830376064999996
 20
25.74316058099999
 10
-0.1613703025000035
 20
25.7543911778
 10
-0.2392456112999994
 20
25.7659315346
 10
-0.3166391105000059
 20
25.77777674580001
 10
-0.3935265441000055
 20
25.7899205106
 10
-0.4698788769000047
 20
25.802354373
 10
-0.5456479889000008
 20
25.81506127219999
 10
-0.6207809857000015
 20
25.82802199379999
 10
-0.6952344385000018
 20
25.8412188466
 10
-0.7690027937000039
 20
25.8546402306
 10
-0.8420899649000048
 20
25.8682760626
 10
-0.9144902224999995
 20
25.88211409299999
 10
-0.9861592593000025
 20
25.89613337620001
 10
-1.057043129700005
 20
25.9103107922
 10
-1.127093204899999
 20
25.9246238978
 10
-1.196282161700004
 20
25.93905292660001
 10
-1.264587996900004
 20
25.95357879219999
  0
LWPOLYLINE
  5
12C
330
2
100
AcDbEntity
  8
0
100
AcDbPolyline
 90
       17
 70
     0
 43
0.0
 10
-2.383035627300003
 20
27.4261085314
 10
-1.584300673699999
 20
27.31938313140001
 10
-0.7818280113000001
 20
27.22653390579999
 10
0.0211743439000003
 20
27.14799210900001
 10
0.824611950299996
 20
27.08374671060001
 10
1.753389409500002
 20
27.03378844180001
 10
2.557413007899995
 20
26.9981095794
 10
3.361597262299994
 20
26.97670395059999
 10
4.1658618047
 20
26.96956764339999
 10
4.970126398299996
 20
26.97669935060001
 10
5.774310763100004
 20
26.99810037940001
 10
6.578334475099993
 20
27.0337746418
 10
7.382112033499993
 20
27.08372830579999
 10
8.185549756699998
 20
27.14796909780001
 10
9.113552292699992
 20
27.22650628660001
 10
9.916025235099994
 20
27.31935091059999
 10
10.71501864469999
 20
27.4261085314
  0
LWPOLYLINE
  5
12D
330
2
100
AcDbEntity
  8
0
100
AcDbPolyline
 90
       67
 70
     0
 43
0.0
 10
-4.857206131300003
 20
27.40297054580001
 10
-4.990223396899999
 20
27.42262119379999
 10
-5.125975313700003
 20
27.44195535379999
 10
-5.264434512100002
 20
27.46092885139999
 10
-5.405633126499999
 20
27.479503221
 10
-5.549841310499999
 20
27.49766285779999
 10
-5.6973887169
 20
27.51539786900001
 10
-5.810424428899999
 20
27.5284111346
 10
-5.925575865700004
 20
27.5411555202
 10
-6.042774552099999
 20
27.553595453
 10
-6.161470169700002
 20
27.56565091700001
 10
-6.400579547300004
 20
27.58827420819999
 10
-6.638442976100002
 20
27.60858175700001
 10
-6.8760633953
 20
27.62668492659999
 10
-7.115009092900002
 20
27.64269284820001
 10
-7.2339226785
 20
27.64983945780001
 10
-7.351719051300001
 20
27.6563834578
 10
-7.4679763281
 20
27.66231863060001
 10
-7.5826681777
 20
27.66766491060001
 10
-7.695914361700005
 20
27.67244908339999
 10
-7.808023475300004
 20
27.67669918260001
 10
-7.919232974500005
 20
27.680439109
 10
-8.0293069473
 20
27.68367498740001
 10
-8.1737944001
 20
27.68721552820001
 10
-8.315398556899999
 20
27.6899102146
 10
-8.453884612900004
 20
27.6918062946
 10
-8.589099745700004
 20
27.69295070580001
 10
-8.721219064100004
 20
27.6933891554
 10
-8.850499657700005
 20
27.69316703540001
 10
-8.977141676900004
 20
27.69232908979999
 10
-9.101117524900004
 20
27.69091744020001
 10
-9.222342668900004
 20
27.68897355220001
 10
-9.364129187300001
 20
27.68599234260001
 10
-9.502084705699999
 20
27.68234981620001
 10
-9.636460971300003
 20
27.67809135700001
 10
-9.767509731300002
 20
27.67326235860001
 10
-9.895482731299999
 20
27.66790820660002
 10
-10.0514428225
 20
27.6605418914
 10
-10.2030957345
 20
27.65248892660001
 10
-10.35054680969999
 20
27.64381230100001
 10
-10.49390138889999
 20
27.6345749938
 10
-10.6332728321
 20
27.6248369522
 10
-10.7688065889
 20
27.61464597780001
 10
-10.9006561249
 20
27.60404683380001
 10
-11.0289749105
 20
27.59308428180001
 10
-11.1538976881
 20
27.5818023602
 10
-11.2754843073
 20
27.57024219860001
 10
-11.3937758913
 20
27.55844420020001
 10
-11.5088135681
 20
27.54644876659999
 10
-11.6572034689
 20
27.5302155394
 10
-11.7999605473
 20
27.5137867362
 10
-11.93716359689999
 20
27.4972459442
 10
-12.0689207457
 20
27.48066992500001
 10
-12.1954574657
 20
27.46410813300001
 10
-12.3170285601
 20
27.44760319219999
 10
-12.4339400993
 20
27.4311855154
 10
-12.5467032017
 20
27.41483666099999
 10
-12.6558802497
 20
27.39852597299999
 10
-12.7620212369
 20
27.382219645
 10
-12.8656265905
 20
27.36587126100001
 10
-12.9671843473
 20
27.34943126099999
 10
-13.1167971201
 20
27.3244678482
 10
-13.2648348465
 20
27.29888026580001
 10
-13.5614435777
 20
27.2449750818
 10
-13.8595944673
 20
27.18721467219999
 10
-14.1573686113
 20
27.12592561140001
 10
-14.4528177889
 20
27.0615321698
  0
LWPOLYLINE
  5
12E
330
2
100
AcDbEntity
  8
0
100
AcDbPolyline
 90
        4
 70
     0
 43
0.0
 10
-2.847018028900002
 20
27.508696973
 10
-2.694057364900004
 20
27.47781262420001
 10
-2.537346030500003
 20
27.4499155074
 10
-2.383035627300003
 20
27.4261085314
  0
LWPOLYLINE
  5
12F
330
2
100
AcDbEntity
  8
0
100
AcDbPolyline
 90
       22
 70
     0
 43
0.0
 10
-1.228860496100004
 20
28.75256725300001
 10
-1.3455676385
 20
28.77803758579999
 10
-1.463538752099999
 20
28.8099767458
 10
-1.579695377700005
 20
28.847763309
 10
-1.693694214500006
 20
28.89128178580001
 10
-1.805198644900002
 20
28.9403986578
 10
-1.913879582500001
 20
28.99496284020001
 10
-2.019416307300005
 20
29.05480612500001
 10
-2.121497459300002
 20
29.11974376339999
 10
-2.2198217249
 20
29.1895748834
 10
-2.314098942500002
 20
29.264083205
 10
-2.404051337700003
 20
29.3430380162
 10
-2.489416537700002
 20
29.42619724340001
 10
-2.569947776100001
 20
29.513308885
 10
-2.645412145699999
 20
29.60411011859999
 10
-2.715591686500005
 20
29.69832894260001
 10
-2.780285025700003
 20
29.79568736820001
 10
-2.839305865700005
 20
29.8959007362
 10
-2.892482808100005
 20
29.99867822739999
 10
-2.939658969700005
 20
30.1037224994
 10
-2.980692339299999
 20
30.21073025619999
 10
-3.009645228900005
 20
30.29965419700001
  0
LWPOLYLINE
  5
130
330
2
100
AcDbEntity
  8
0
100
AcDbPolyline
 90
       17
 70
     0
 43
0.0
 10
10.26631030869999
 20
24.76213498420001
 10
10.2116605903
 20
24.87534961460001
 10
10.14821810069999
 20
24.9838894386
 10
10.0763906575
 20
25.08705673300001
 10
9.996639967899994
 20
25.18418833619999
 10
9.909478675100004
 20
25.27465988499999
 10
9.8154670527
 20
25.357889821
 10
9.715209409499991
 20
25.433343141
 10
9.609350206299993
 20
25.50053482900001
 10
9.498569908699991
 20
25.55903297460001
 10
9.383580615900001
 20
25.60846154900001
 10
9.265121481500003
 20
25.64850282420001
 10
9.143953964700003
 20
25.67889941619999
 10
9.020856935899999
 20
25.69945593140001
 10
8.771621663899992
 20
25.7100402338
 10
8.647046735899991
 20
25.71058428659999
 10
8.522932934300001
 20
25.70108459699999
  0
LWPOLYLINE
  5
131
330
2
100
AcDbEntity
  8
0
100
AcDbPolyline
 90
       60
 70
     0
 43
0.0
 10
-14.4528177889
 20
27.0615321698
 10
-14.6463663393
 20
27.0165756066
 10
-14.8390023521
 20
26.96862641779999
 10
-15.0307990001
 20
26.9176655442
 10
-15.2217503745
 20
26.86370064340001
 10
-15.4115342369
 20
26.80684625620001
 10
-15.5997492737
 20
26.74724364820001
 10
-15.7860168849
 20
26.68503843380001
 10
-15.9700493521
 20
26.62039366739999
 10
-16.1515816737
 20
26.55347675380001
 10
-16.3303478609
 20
26.48446334099999
 10
-16.5060779761
 20
26.4135620402
 10
-16.67850109289999
 20
26.3409896994
 10
-16.8473134561
 20
26.26698982259999
 10
-17.0120799745
 20
26.191912525
 10
-17.1723327265
 20
26.11613457619999
 10
-17.2892833825
 20
26.05907244340001
 10
-17.4032628385
 20
26.00201397140001
 10
-17.5141020929
 20
25.94514500180001
 10
-17.6216321425
 20
25.8886513826
 10
-17.7257290257
 20
25.83269536819999
 10
-17.8264489233
 20
25.7773448754
 10
-17.9238930609
 20
25.72264422900001
 10
-18.0181626561
 20
25.66863775860001
 10
-18.1390900769
 20
25.59777686100001
 10
-18.2547808417
 20
25.52828164660001
 10
-18.3654619729
 20
25.46020490420001
 10
-18.4713627697
 20
25.39359046740001
 10
-18.5727216097
 20
25.3284463506
 10
-18.6697791489
 20
25.264771613
 10
-18.7627681921
 20
25.20256365300001
 10
-18.8518901313
 20
25.14181325299999
 10
-18.9373385121
 20
25.08250953299999
 10
-19.0193027457
 20
25.0246394386
 10
-19.0979557281
 20
24.96818120979999
 10
-19.1734662225
 20
24.9131109074
 10
-19.2460056817
 20
24.85939808179999
 10
-19.3157563153
 20
24.8069862306
 10
-19.3829030193
 20
24.75581233940001
 10
-19.4476388001
 20
24.7058024066
 10
-19.5101891073
 20
24.65683848499999
 10
-19.5707874945
 20
24.60879163860001
 10
-19.6296692177
 20
24.56152657139999
 10
-19.6870763217
 20
24.514882541
 10
-19.7432525489
 20
24.4686924466
 10
-19.8256987457
 20
24.399915541
 10
-19.9064858961
 20
24.33135592500001
 10
-19.9861696353
 20
24.26258097779999
 10
-20.0652801473
 20
24.1931399042
 10
-20.1443344769
 20
24.12257253779999
 10
-20.22382258729999
 20
24.05039940819999
 10
-20.2772868305
 20
24.00115687380001
 10
-20.3312571889
 20
23.95086671700001
 10
-20.3858322305
 20
23.89941022899999
 10
-20.4411202577
 20
23.84665536340001
 10
-20.49726851049999
 20
23.79241670579999
 10
-20.5544339585
 20
23.73649550579999
 10
-20.6127267617
 20
23.67873713300001
 10
-20.6720698497
 20
23.61916343860001
 10
-20.7323393409
 20
23.55784039539999
  0
LWPOLYLINE
  5
132
330
2
100
AcDbEntity
  8
0
100
AcDbPolyline
 90
       94
 70
     0
 43
0.0
 10
-10.4586275873
 20
26.86685474100001
 10
-10.6814834161
 20
26.84501824659999
 10
-10.8990828817
 20
26.820627557
 10
-11.1117506993
 20
26.79376169940001
 10
-11.3194377825
 20
26.764537253
 10
-11.5221887761
 20
26.7330599026
 10
-11.7200061121
 20
26.699441453
 10
-11.9129767089
 20
26.66378022260001
 10
-12.1021262929
 20
26.6259764514
 10
-12.2890925793
 20
26.58577132820001
 10
-12.4746161649
 20
26.54304286740002
 10
-12.6588764609
 20
26.49777247699999
 10
-12.8419524897
 20
26.44996127700001
 10
-13.0235861969
 20
26.39970003380001
 10
-13.2037148881
 20
26.34702692020001
 10
-13.3825628513
 20
26.2918947058
 10
-13.5604211649
 20
26.23422488340001
 10
-13.7375564001
 20
26.17393327060002
 10
-13.9142653937
 20
26.11091174420001
 10
-14.0907099329
 20
26.04508804020001
 10
-14.2667870657
 20
25.97648582419999
 10
-14.4423878209
 20
25.905128253
 10
-14.6174561681
 20
25.83101891540001
 10
-14.7919529425
 20
25.75415566580001
 10
-14.9658601969
 20
25.6745266482
 10
-15.1390589393
 20
25.59216741780001
 10
-15.3117546769
 20
25.506954405
 10
-15.4845874433
 20
25.4185339394
 10
-15.6578352673
 20
25.326715117
 10
-15.8314006561
 20
25.2314951874
 10
-16.0051252145
 20
25.1329082706
 10
-16.1788612961
 20
25.03098849780001
 10
-16.3476430113
 20
24.928741165
 10
-16.5033661921
 20
24.83155283380002
 10
-16.6448493985
 20
24.7409052034
 10
-16.7750357617
 20
24.6555544946
 10
-16.89580003849999
 20
24.574745077
 10
-17.0085653665
 20
24.49789048500001
 10
-17.1144431473
 20
24.4245218082
 10
-17.2142210449
 20
24.3543266274
 10
-17.3088225681
 20
24.28684427220001
 10
-17.3980662945
 20
24.22236670420001
 10
-17.4835526625
 20
24.15986163539999
 10
-17.5709003409
 20
24.09518787380001
 10
-17.6637825313
 20
24.02542168500001
 10
-17.7633435505
 20
23.9493700354
 10
-17.8727295889
 20
23.8641275186
 10
-17.9946978513
 20
23.76675236340001
 10
-18.1220876737
 20
23.66210955699999
 10
-18.2437930465
 20
23.55899280660001
 10
-18.3581784513
 20
23.4589589106
 10
-18.46691135689999
 20
23.36077887860001
 10
-18.57068277129999
 20
23.26400770900001
 10
-18.6700634385
 20
23.1682701122
 10
-18.7654564641
 20
23.07331724340001
 10
-18.85731523209999
 20
22.97881856179999
 10
-18.9453793025
 20
22.88517452980001
 10
-19.02622380649999
 20
22.79637275060001
 10
-19.0984724529
 20
22.71454756500002
 10
-19.1664435489
 20
22.63531277619999
 10
-19.2337509521
 20
22.55461454419999
 10
-19.3006816081
 20
22.47208446739999
 10
-19.3671140321
 20
22.38783244339999
 10
-19.4332310849
 20
22.30158056820001
 10
-19.4990705249
 20
22.2132156258
 10
-19.5647297057
 20
22.122529037
 10
-19.6302884625
 20
22.0293142194
 10
-19.6958397377
 20
21.9333224642
 10
-19.7614850225
 20
21.83426425299999
 10
-19.8273460993
 20
21.7317851058
 10
-19.8935603217
 20
21.62546372980001
 10
-19.9603090753
 20
21.51475330579999
 10
-20.0278042545
 20
21.39898906579999
 10
-20.0964625361
 20
21.2770522066
 10
-20.1663538385
 20
21.14831563700001
 10
-20.2362331025
 20
21.0146283538
 10
-20.3050474961
 20
20.8777626338
 10
-20.3727516321
 20
20.73766748660001
 10
-20.4392983345
 20
20.59429339700001
 10
-20.50466502089999
 20
20.4475322322
 10
-20.5688202961
 20
20.29728609140001
 10
-20.6317625937
 20
20.14337348499999
 10
-20.6932549185
 20
19.98620425780001
 10
-20.7526404785
 20
19.8274241442
 10
-20.8096083153
 20
19.6680093714
 10
-20.86432521929999
 20
19.5076837554
 10
-20.9169294721
 20
19.3462182274
 10
-20.96741983049999
 20
19.1838028914
 10
-21.0157281137
 20
19.0208752802
 10
-21.06179905609999
 20
18.8578874946
 10
-21.1056102177
 20
18.6952295826
 10
-21.1471880705
 20
18.5331447986
 10
-21.1865655841
 20
18.37186733620001
 10
-21.2237809073
 20
18.2116250642
  0
LWPOLYLINE
  5
133
330
2
100
AcDbEntity
  8
0
100
AcDbPolyline
 90
       34
 70
     0
 43
0.0
 10
-12.5896303873
 20
29.48559886740001
 10
-12.4382196801
 20
29.497336709
 10
-12.2853095601
 20
29.5088550978
 10
-12.1306496577
 20
29.5201603826
 10
-11.97415288009999
 20
29.53124837299999
 10
-11.8163852049
 20
29.54207271220001
 10
-11.6580758785
 20
29.55257650260001
 10
-11.4210599521
 20
29.5676253346
 10
-11.1861379169
 20
29.5817447122
 10
-11.0315068433
 20
29.59060419220001
 10
-10.8790133281
 20
29.59900635379999
 10
-10.7291212865
 20
29.60694261620001
 10
-10.5821200801
 20
29.61441307860001
 10
-10.4376008257
 20
29.62145255700001
 10
-10.2949800865
 20
29.62810455060001
 10
-10.0833739201
 20
29.63744043699999
 10
-9.873006547300001
 20
29.6460848578
 10
-9.662158686499999
 20
29.65411412179999
 10
-9.449114414500002
 20
29.66157975860001
 10
-9.305004036900001
 20
29.66626388179999
 10
-9.158564963300001
 20
29.67071770260001
 10
-9.0092069409
 20
29.6749412738
 10
-8.856525025700001
 20
29.67892929939999
 10
-8.700855518499999
 20
29.682655085
 10
-8.5427200321
 20
29.686086589
 10
-8.382646616100004
 20
29.68919416660002
 10
-8.221189064100002
 20
29.69195775539999
 10
-8.0589076065
 20
29.6943596946
 10
-7.896407337700004
 20
29.69638516179999
 10
-7.734472809700001
 20
29.69803070420001
 10
-7.573933444899999
 20
29.69929571539999
 10
-7.415434510499999
 20
29.70018223699999
 10
-7.258884683300003
 20
29.70070292500001
 10
-7.1040084913
 20
29.700873085
  0
LWPOLYLINE
  5
134
330
2
100
AcDbEntity
  8
0
100
AcDbPolyline
 90
       21
 70
     0
 43
0.0
 10
-6.439071033700002
 20
30.33929030259999
 10
-6.486605262499999
 20
30.33845114259999
 10
-6.531508844900002
 20
30.33737069140001
 10
-6.573779960100004
 20
30.33606816820001
 10
-6.613494259300004
 20
30.33455872500001
 10
-6.650609078500004
 20
30.3328604306
 10
-6.6852483073
 20
30.33098252980001
 10
-6.717390369700005
 20
30.3289393234
 10
-6.747100176100005
 20
30.32673860180001
 10
-6.774417011300002
 20
30.32438694420001
 10
-6.799304296100004
 20
30.32189584660001
 10
-6.8218227921
 20
30.31926537139999
 10
-6.841930724900002
 20
30.31650356659999
 10
-6.859604116900001
 20
30.31361496660001
 10
-6.874823646500004
 20
30.3105995794
 10
-6.887508555300001
 20
30.30746590260001
 10
-6.8976048305
 20
30.30421367699999
 10
-6.905020168100001
 20
30.300847765
 10
-6.9096487073
 20
30.2973759746
 10
-6.911382182500005
 20
30.2938008114
 10
-6.9104762065
 20
30.2906701618
  0
LWPOLYLINE
  5
135
330
2
100
AcDbEntity
  8
0
100
AcDbPolyline
 90
        4
 70
     0
 43
0.0
 10
-6.439071033700002
 20
30.33929030259999
 10
-5.552873764899999
 20
30.351646997
 10
-4.665341832100004
 20
30.3629095106
 10
-3.776607529700001
 20
30.37307684019999
  0
LWPOLYLINE
  5
136
330
2
100
AcDbEntity
  8
0
100
AcDbPolyline
 90
        4
 70
     0
 43
0.0
 10
9.369185039900003
 20
30.66212396019999
 10
7.678233959899998
 20
30.6571735682
 10
5.921528038299996
 20
30.65285057780001
 10
4.165991508700003
 20
30.6510879106
  0
LINE
  5
137
330
2
100
AcDbEntity
  8
0
100
AcDbLine
 10
-7.104008491300002
 20
29.700873085
 30
0.0
 11
-6.478034436900006
 21
29.700873085
 31
0.0
  0
LINE
  5
138
330
2
100
AcDbEntity
  8
0
100
AcDbLine
 10
-2.717420672100007
 20
29.700873085
 30
0.0
 11
11.04942399669999
 21
29.700873085
 31
0.0
  0
LINE
  5
139
330
2
100
AcDbEntity
  8
0
100
AcDbLine
 10
14.80966402069999
 20
29.700873085
 30
0.0
 11
15.43599150869999
 21
29.700873085
 31
0.0
  0
LWPOLYLINE
  5
13A
330
2
100
AcDbEntity
  8
0
100
AcDbPolyline
 90
       32
 70
     0
 43
0.0
 10
15.43599150869999
 20
29.700873085
 10
15.59187821749999
 20
29.7007007426
 10
15.74951100469999
 20
29.70017299059999
 10
15.9091772367
 20
29.6992737474
 10
16.07097217269999
 20
29.69798971859999
 10
16.23422265429999
 20
29.69631874900001
 10
16.39806342069999
 20
29.69426147060001
 10
16.56167607189999
 20
29.6918215058
 10
16.72442967989999
 20
29.68901443380001
 10
16.88574018549999
 20
29.68585882419999
 10
17.04502999349999
 20
29.6823757618
 10
17.20174737269999
 20
29.67859639219999
 10
17.35534705909999
 20
29.67455438259999
 10
17.5054735887
 20
29.67027791220001
 10
17.6525307135
 20
29.66577323220001
 10
17.79711198389999
 20
29.66104111060001
 10
18.0105923551
 20
29.65351057459999
 10
18.2215545775
 20
29.64542711540001
 10
18.43171722869999
 20
29.63674157780001
 10
18.6428050719
 20
29.62737984019999
 10
18.7849087135
 20
29.62072018740001
 10
18.9287738063
 20
29.61368163059999
 10
19.0749833583
 20
29.6062215106
 10
19.2239494879
 20
29.59830566419999
 10
19.3754007631
 20
29.58993389940001
 10
19.52889487029999
 20
29.58111451380002
 10
19.76198092949999
 20
29.56707249139999
 10
19.99706829109999
 20
29.55211916340001
 10
20.23243153429999
 20
29.5363494386
 10
20.46584300309999
 20
29.51992918099999
 10
20.69547643669999
 20
29.5030079138
 10
20.92161340469999
 20
29.48559886740001
  0
LWPOLYLINE
  5
13B
330
2
100
AcDbEntity
  8
0
100
AcDbPolyline
 90
        4
 70
     0
 43
0.0
 10
-1.037202020900004
 20
30.66212396019999
 10
0.5287490575000007
 20
30.6571735682
 10
2.410454979099995
 20
30.65285057780001
 10
4.165991508700003
 20
30.6510879106
  0
LWPOLYLINE
  5
13C
330
2
100
AcDbEntity
  8
0
100
AcDbPolyline
 90
       23
 70
     0
 43
0.0
 10
12.10859054709999
 20
30.37307684019999
 10
12.06577979029999
 20
30.37339483699999
 10
12.02292766229999
 20
30.37342651539999
 10
11.98005677589999
 20
30.37317420820001
 10
11.93715831189999
 20
30.3726365538
 10
11.8942313551
 20
30.3718083298
 10
11.8512521599
 20
30.3706795554
 10
11.80842930389999
 20
30.36924359219999
 10
11.7659996511
 20
30.36749608180001
 10
11.72404354709999
 20
30.3654259634
 10
11.68268985269999
 20
30.36302104819999
 10
11.6423411695
 20
30.36028525940001
 10
11.60339485589999
 20
30.3572286306
 10
11.56602381909999
 20
30.35384670899999
 10
11.53056812629999
 20
30.3501493474
 10
11.4974557007
 20
30.34616167220001
 10
11.4670220463
 20
30.34190645459999
 10
11.4395557455
 20
30.3374049266
 10
11.41549231989999
 20
30.33271289139999
 10
11.3951608639
 20
30.32789109139999
 10
11.3787019999
 20
30.3229767346
 10
11.36627616469999
 20
30.31803012179999
 10
11.35795419829999
 20
30.31312206260001
  0
LWPOLYLINE
  5
13D
330
2
100
AcDbEntity
  8
0
100
AcDbPolyline
 90
        4
 70
     0
 43
0.0
 10
12.10859054709999
 20
30.37307684019999
 10
12.9973248511
 20
30.3629095106
 10
13.88485678069999
 20
30.351646997
 10
14.77105405429999
 20
30.33929030259999
  0
LWPOLYLINE
  5
13E
330
2
100
AcDbEntity
  8
0
100
AcDbPolyline
 90
       33
 70
     0
 43
0.0
 10
20.92161340469999
 20
29.48559886740001
 10
21.10477096149999
 20
29.4697236114
 10
21.28830620789999
 20
29.45084198900001
 10
21.47218188309999
 20
29.42892484819999
 10
21.6563525999
 20
29.40394477459999
 10
21.8407404271
 20
29.3758812562
 10
22.0252593039
 20
29.34471551540001
 10
22.2098268127
 20
29.31042943379999
 10
22.39437511989998
 20
29.27300756500001
 10
22.5788400415
 20
29.232435125
 10
22.76315687189999
 20
29.18869750419999
 10
22.9472588511
 20
29.1417807938
 10
23.1310786959
 20
29.0916712578
 10
23.31451203349999
 20
29.03837060979999
 10
23.4973061007
 20
28.98194237619999
 10
23.6791710447
 20
28.92246552819999
 10
23.85982146229999
 20
28.86002670579999
 10
24.03898978869999
 20
28.79474320340001
 10
24.21641291509999
 20
28.72673997779999
 10
24.3918137263
 20
28.65615849620001
 10
24.5648590751
 20
28.5832062466
 10
24.7352018111
 20
28.508107221
 10
24.90250731349999
 20
28.43109098099999
 10
25.0664910815
 20
28.35240935700001
 10
25.2268811423
 20
28.2723197474
 10
25.3446419135
 20
28.21149453459999
 10
25.4600547247
 20
28.15019756019999
 10
25.5729460559
 20
28.08860426580001
 10
25.68314238869999
 20
28.0268900994
 10
25.7905146831
 20
27.965207197
 10
25.89511180309999
 20
27.903614485
 10
25.99702708789999
 20
27.84214758739999
 10
26.09635388149999
 20
27.7808421266
  0
LWPOLYLINE
  5
13F
330
2
100
AcDbEntity
  8
0
100
AcDbPolyline
 90
       94
 70
     0
 43
0.0
 10
18.79061060629999
 20
26.86685474100001
 10
19.0134664335
 20
26.84501824659999
 10
19.2310658991
 20
26.820627557
 10
19.44373371829999
 20
26.79376169940001
 10
19.65142079989999
 20
26.764537253
 10
19.8541717951
 20
26.7330599026
 10
20.0519891295
 20
26.699441453
 10
20.24495972629999
 20
26.66378022260001
 10
20.4341093103
 20
26.6259764514
 10
20.62107559829999
 20
26.58577132820001
 10
20.80659918229998
 20
26.54304286740002
 10
20.99085947989999
 20
26.49777247699999
 10
21.17393550709999
 20
26.44996127700001
 10
21.3555692143
 20
26.39970003380001
 10
21.5356979071
 20
26.34702692020001
 10
21.71454587029999
 20
26.2918947058
 10
21.89240418229999
 20
26.23422488340001
 10
22.06953941749999
 20
26.17393327060002
 10
22.24624841109999
 20
26.11091174420001
 10
22.4226929503
 20
26.04508804020001
 10
22.59877008309999
 20
25.97648582419999
 10
22.7743708383
 20
25.905128253
 10
22.9494391855
 20
25.83101891540001
 10
23.12393595989999
 20
25.75415566580001
 10
23.2978432143
 20
25.6745266482
 10
23.47104195829999
 20
25.59216741780001
 10
23.6437376943
 20
25.506954405
 10
23.81657046229999
 20
25.4185339394
 10
23.98981828469999
 20
25.326715117
 10
24.16338367509999
 20
25.2314951874
 10
24.3371082319
 20
25.1329082706
 10
24.5108443151
 20
25.03098849780001
 10
24.6796260303
 20
24.928741165
 10
24.83534920949999
 20
24.83155283380002
 10
24.97683241749999
 20
24.7409052034
 10
25.1070187791
 20
24.6555544946
 10
25.22778305589999
 20
24.574745077
 10
25.3405483855
 20
24.49789048500001
 10
25.4464261647
 20
24.4245218082
 10
25.54620406229999
 20
24.3543266274
 10
25.6408055855
 20
24.28684427220001
 10
25.7300493135
 20
24.22236670420001
 10
25.81553568149999
 20
24.15986163539999
 10
25.9028833583
 20
24.09518787380001
 10
25.99576554869999
 20
24.02542168500001
 10
26.0953265679
 20
23.9493700354
 10
26.20471260629999
 20
23.8641275186
 10
26.32668087029999
 20
23.76675236340001
 10
26.4540706911
 20
23.66210955699999
 10
26.57577606549999
 20
23.55899280660001
 10
26.69016147029999
 20
23.4589589106
 10
26.79889437429999
 20
23.36077887860001
 10
26.90266579029999
 20
23.26400770900001
 10
27.0020464559
 20
23.1682701122
 10
27.0974394815
 20
23.07331724340001
 10
27.1892982495
 20
22.97881856179999
 10
27.27736231989999
 20
22.88517452980001
 10
27.35820682389999
 20
22.79637275060001
 10
27.4304554703
 20
22.71454756500002
 10
27.49842656629999
 20
22.63531277619999
 10
27.5657339695
 20
22.55461454419999
 10
27.63266462549999
 20
22.47208446739999
 10
27.69909704949999
 20
22.38783244339999
 10
27.76521410389999
 20
22.30158056820001
 10
27.83105354229999
 20
22.2132156258
 10
27.89671272309999
 20
22.122529037
 10
27.96227147989999
 20
22.0293142194
 10
28.0278227551
 20
21.9333224642
 10
28.0934680399
 20
21.83426425299999
 10
28.15932911669999
 20
21.7317851058
 10
28.2255433391
 20
21.62546372980001
 10
28.29229209269999
 20
21.51475330579999
 10
28.3597872719
 20
21.39898906579999
 10
28.4284455551
 20
21.2770522066
 10
28.49833685589999
 20
21.14831563700001
 10
28.5682161199
 20
21.0146283538
 10
28.63703051349999
 20
20.8777626338
 10
28.70473464949999
 20
20.73766748660001
 10
28.7712813535
 20
20.59429339700001
 10
28.83664803829999
 20
20.4475322322
 10
28.90080331349999
 20
20.29728609140001
 10
28.96374561269999
 20
20.14337348499999
 10
29.02523793749999
 20
19.98620425780001
 10
29.0846234975
 20
19.8274241442
 10
29.1415913327
 20
19.6680093714
 10
29.19630823669999
 20
19.5076837554
 10
29.2489124895
 20
19.3462182274
 10
29.29940284789999
 20
19.1838028914
 10
29.3477111311
 20
19.0208752802
 10
29.39378207349999
 20
18.8578874946
 10
29.43759323669999
 20
18.6952295826
 10
29.47917108789999
 20
18.5331447986
 10
29.5185486031
 20
18.37186733620001
 10
29.5557639247
 20
18.2116250642
  0
LWPOLYLINE
  5
140
330
2
100
AcDbEntity
  8
0
100
AcDbPolyline
 90
       67
 70
     0
 43
0.0
 10
22.7848008063
 20
27.0615321698
 10
22.49008206869999
 20
27.12577082260001
 10
22.19311056469999
 20
27.1869083666
 10
21.89575913589999
 20
27.2445371426
 10
21.5998704671
 20
27.29834348020002
 10
21.4521352367
 20
27.32389771700001
 10
21.30277555189999
 20
27.34883964020001
 10
21.2013560175
 20
27.3652721058
 10
21.09786241429999
 20
27.381618477
 10
20.99180495669999
 20
27.3979283778
 10
20.88268143029999
 20
27.41424825619999
 10
20.76993992309999
 20
27.4306118338
 10
20.6530160895
 20
27.447049653
 10
20.53139957909999
 20
27.4635797058
 10
20.4047959871
 20
27.48016977940001
 10
20.2729649007
 20
27.49677511220001
 10
20.1356937087
 20
27.51334442100001
 10
19.99288101429999
 20
27.52980035060001
 10
19.8444532271
 20
27.5460590274
 10
19.7294011247
 20
27.5580723554
 10
19.61110557269999
 20
27.56988750419999
 10
19.4895230063
 20
27.58146442580001
 10
19.3646098591
 20
27.59276307700001
 10
19.23630404629999
 20
27.60374265139999
 10
19.10446939669999
 20
27.61435929299999
 10
18.96895121429999
 20
27.6245683906
 10
18.82959480469999
 20
27.6343253266
 10
18.68625287669999
 20
27.6435824466
 10
18.53880774869999
 20
27.6522799106
 10
18.3871491391
 20
27.66035483860001
 10
18.23116676949999
 20
27.66774434900002
 10
18.10316095669999
 20
27.6731179666
 10
17.9720646959
 20
27.67796706420002
 10
17.83762531989999
 20
27.68224603060001
 10
17.69959016949999
 20
27.68590925939999
 10
17.5577065775
 20
27.68891113779999
 10
17.43638739509999
 20
27.6908720418
 10
17.3123092575
 20
27.692300261
 10
17.18556119669999
 20
27.69315404820001
 10
17.05617756789999
 20
27.69339114579999
 10
16.9239740287
 20
27.69296723699999
 10
16.78871155669999
 20
27.69183748499999
 10
16.6502273807
 20
27.68995670420001
 10
16.5086637247
 20
27.6872782898
 10
16.3642390607
 20
27.6837552818
 10
16.25421643829999
 20
27.68053344819999
 10
16.14305147669999
 20
27.6768079122
 10
16.03097158229999
 20
27.6725720818
 10
15.91773747029999
 20
27.66780179859999
 10
15.8030414767
 20
27.66246889619999
 10
15.68676912629999
 20
27.65654670580001
 10
15.56895150069999
 20
27.65001538260001
 10
15.45000872149999
 20
27.64288088339999
 10
15.2109707183
 20
27.62689413939999
 10
14.9732054719
 20
27.60880611700001
 10
14.7351376495
 20
27.58850578259999
 10
14.4957708271
 20
27.56588084979999
 10
14.3769295295
 20
27.55382095540001
 10
14.25957578709999
 20
27.54137413619999
 10
14.1442612431
 20
27.52862039860001
 10
14.03105451509999
 20
27.5155952594
 10
13.88326643829999
 20
27.49784035380001
 10
13.73880241589999
 20
27.47965594260001
 10
13.5973319647
 20
27.46105164500001
 10
13.45858430069999
 20
27.44204281780001
 10
13.3225274527
 20
27.42266776980001
 10
13.18918914869999
 20
27.40297054580001
  0
LWPOLYLINE
  5
141
330
2
100
AcDbEntity
  8
0
100
AcDbPolyline
 90
        3
 70
     0
 43
0.0
 10
-12.9590533121
 20
30.532851613
 10
-13.7413407409
 20
30.4176896354
 10
-14.22336752969999
 20
30.32442299220001
  0
LWPOLYLINE
  5
142
330
2
100
AcDbEntity
  8
0
100
AcDbPolyline
 90
       19
 70
     0
 43
0.0
 10
-12.9590533121
 20
30.532851613
 10
-12.7495276449
 20
30.55353104180001
 10
-12.5291358289
 20
30.57245792979999
 10
-12.2944814657
 20
30.58968049620002
 10
-12.0435130401
 20
30.6051029746
 10
-11.7638853329
 20
30.61910827059999
 10
-11.4435778065
 20
30.63172004499999
 10
-11.0780737857
 20
30.6425766562
 10
-10.6631170321
 20
30.6516053298
 10
-10.1945540609
 20
30.6592478914
 10
-9.668130816100003
 20
30.66579085620002
 10
-9.077058686500002
 20
30.67108075860001
 10
-8.413291896100005
 20
30.6749666946
 10
-7.668455320100001
 20
30.67731617779999
 10
-6.834017307300001
 20
30.67806913939999
 10
-5.9012994753
 20
30.6772520242
 10
-4.862407510500005
 20
30.67494528499999
 10
-3.711935555300001
 20
30.671392941
 10
-1.037202020900004
 20
30.66212396019999
  0
LWPOLYLINE
  5
143
330
2
100
AcDbEntity
  8
0
100
AcDbPolyline
 90
       22
 70
     0
 43
0.0
 10
-12.9590084913
 20
31.03624322899999
 10
-12.7328032961
 20
31.0544824066
 10
-12.4938507441
 20
31.07140855699999
 10
-12.2390110273
 20
31.08711497139999
 10
-11.9644890929
 20
31.10175426740001
 10
-11.6537822385
 20
31.1156898434
 10
-11.2964505697
 20
31.12793899060001
 10
-10.8902058385
 20
31.1380880146
 10
-10.4292811585
 20
31.14636504339999
 10
-9.909836643300003
 20
31.1533372642
 10
-9.324638987300005
 20
31.15898674099999
 10
-8.665007678500003
 20
31.1631388658
 10
-7.921812864100004
 20
31.16563937779999
 10
-7.085671019300001
 20
31.1663901442
 10
-6.146995142500003
 20
31.16541645459999
 10
-5.096264923300005
 20
31.16279758099999
 10
-3.927134398500001
 20
31.1587955442
 10
-2.632731390500005
 20
31.15386267379999
 10
-1.196068272099999
 20
31.14845049459999
 10
0.4089575086999986
 20
31.14299547380001
 10
2.347678111899995
 20
31.138212421
 10
4.165991508700003
 20
31.13625092659999
  0
LWPOLYLINE
  5
144
330
2
100
AcDbEntity
  8
0
100
AcDbPolyline
 90
        5
 70
     0
 43
0.0
 10
12.25911741589999
 20
31.1587955442
 10
9.528051289499998
 20
31.14845049459999
 10
7.798025508699993
 20
31.14299547380001
 10
5.984304905499996
 20
31.138212421
 10
4.165991508700003
 20
31.13625092659999
  0
LWPOLYLINE
  5
145
330
2
100
AcDbEntity
  8
0
100
AcDbPolyline
 90
       17
 70
     0
 43
0.0
 10
21.2909915087
 20
31.03624322899999
 10
21.06478631509999
 20
31.0544824066
 10
20.82583376149999
 20
31.07140855699999
 10
20.5709940447
 20
31.08711497139999
 10
20.2964721119
 20
31.10175426740001
 10
19.98576525589999
 20
31.1156898434
 10
19.62843358869999
 20
31.12793899060001
 10
19.2221888559
 20
31.1380880146
 10
18.76126417589999
 20
31.14636504339999
 10
18.2418196623
 20
31.1533372642
 10
17.65662200629999
 20
31.15898674099999
 10
16.99699069749999
 20
31.1631388658
 10
16.25379588149999
 20
31.16563937779999
 10
15.4176540383
 20
31.1663901442
 10
14.47897816149999
 20
31.16541645459999
 10
13.4282479407
 20
31.16279758099999
 10
12.25911741589999
 20
31.1587955442
  0
LWPOLYLINE
  5
146
330
2
100
AcDbEntity
  8
0
100
AcDbPolyline
 90
       19
 70
     0
 43
0.0
 10
21.2910363295
 20
30.532851613
 10
21.08151066389999
 20
30.55353104180001
 10
20.8611188463
 20
30.57245792979999
 10
20.62646448469999
 20
30.58968049620002
 10
20.3754960575
 20
30.6051029746
 10
20.09586835029999
 20
30.61910827059999
 10
19.77556082389999
 20
30.63172004499999
 10
19.41005680309999
 20
30.6425766562
 10
18.99510005109999
 20
30.6516053298
 10
18.52653707989999
 20
30.6592478914
 10
18.00011383349999
 20
30.66579085620002
 10
17.4090417039
 20
30.67108075860001
 10
16.74527491349999
 20
30.6749666946
 10
16.0004383375
 20
30.67731617779999
 10
15.16600032469999
 20
30.67806913939999
 10
14.23328249269999
 20
30.6772520242
 10
13.19439052949999
 20
30.67494528499999
 10
12.04391857269999
 20
30.671392941
 10
9.369185039900003
 20
30.66212396019999
  0
LWPOLYLINE
  5
147
330
2
100
AcDbEntity
  8
0
100
AcDbPolyline
 90
        3
 70
     0
 43
0.0
 10
21.2910363295
 20
30.532851613
 10
22.07332375989999
 20
30.4176896354
 10
22.55599881109999
 20
30.3242975602
  0
LINE
  5
148
330
2
100
AcDbEntity
  8
0
100
AcDbLine
 10
-31.4609111425
 20
35.70087308499999
 30
0.0
 11
39.7928941599
 21
35.70087308499999
 31
0.0
  0
LINE
  5
149
330
2
100
AcDbEntity
  8
0
100
AcDbLine
 10
25.53033975509999
 20
29.45168200499999
 30
0.0
 11
25.76993056949998
 21
29.35827721779999
 31
0.0
  0
LINE
  5
14A
330
2
100
AcDbEntity
  8
0
100
AcDbLine
 10
25.53072083189999
 20
-0.0497872701999977
 30
0.0
 11
25.76993056949998
 21
0.0434689538000033
 31
0.0
  0
LWPOLYLINE
  5
14B
330
2
100
AcDbEntity
  8
0
100
AcDbPolyline
 90
       16
 70
     0
 43
0.0
 10
-31.4609111425
 20
35.70087308499999
 10
-31.5127242609
 20
35.6977774802
 10
-31.5639937633
 20
35.6893073458
 10
-31.6141625617
 20
35.67554866900001
 10
-31.6626844545
 20
35.6566448962
 10
-31.7089213889
 20
35.63285875859999
 10
-31.7524669297
 20
35.6044188114
 10
-31.7928717025
 20
35.5716158258
 10
-31.8296940689
 20
35.53479969940001
 10
-31.8625306465
 20
35.49436383059999
 10
-31.8910204497
 20
35.45074079059999
 10
-31.9148363937
 20
35.40442452820001
 10
-31.9336898065
 20
35.356009837
 10
-31.9474328705
 20
35.3059034402
 10
-31.9559069377
 20
35.25464184179999
 10
-31.9590084913
 20
35.20277573619999
  0
LWPOLYLINE
  5
14C
330
2
100
AcDbEntity
  8
0
100
AcDbPolyline
 90
       16
 70
     0
 43
0.0
 10
39.7928941599
 20
35.70087308499999
 10
39.84470727829999
 20
35.6977774802
 10
39.89597678069999
 20
35.6893073458
 10
39.94614557909999
 20
35.67554866900001
 10
39.9946674719
 20
35.6566448962
 10
40.0409044063
 20
35.63285875859999
 10
40.08444994709999
 20
35.6044188114
 10
40.12485472149999
 20
35.5716158258
 10
40.1616770863
 20
35.53479969940001
 10
40.1945136655
 20
35.49436383059999
 10
40.22300346709999
 20
35.45074079059999
 10
40.24681941269999
 20
35.40442452820001
 10
40.2656728239
 20
35.356009837
 10
40.2794158879
 20
35.3059034402
 10
40.2878899551
 20
35.25464184179999
 10
40.2909915087
 20
35.20277573619999
  0
LWPOLYLINE
  5
14D
330
2
100
AcDbEntity
  8
0
100
AcDbPolyline
 90
       29
 70
     0
 43
0.0
 10
25.76993056949999
 20
29.35827721779999
 10
26.41554329909999
 20
29.0716119474
 10
27.02940261269999
 20
28.76389900819999
 10
27.6154950751
 20
28.43486605779999
 10
28.1760905135
 20
28.0844604258
 10
28.71189991829999
 20
27.71339195220001
 10
29.2195765375
 20
27.32508970100001
 10
29.6915817231
 20
26.9272802418
 10
30.12298325909999
 20
26.52687205779999
 10
30.51594407669999
 20
26.12480485140001
 10
30.87676452309999
 20
25.71698066099999
 10
31.2113792735
 20
25.2986511042
 10
31.52211516309999
 20
24.86801627379999
 10
31.8090249247
 20
24.42595647700001
 10
32.07274291509999
 20
23.97204106420001
 10
32.31423260949999
 20
23.50453457300001
 10
32.53577561589999
 20
23.018445013
 10
32.74045343829999
 20
22.50459882260001
 10
32.92927676949999
 20
21.95564092659999
 10
33.1023736783
 20
21.3637012226
 10
33.25974846069999
 20
20.71676828980001
 10
33.40119064629999
 20
19.99703099860001
 10
33.52261974869999
 20
19.20281045459999
 10
33.6155023359
 20
18.3926765234
 10
33.6804335903
 20
17.61369654580001
 10
33.7242306255
 20
16.8602435218
 10
33.7518558479
 20
16.1242883122
 10
33.76660531189999
 20
15.4048189538
 10
33.77105143189999
 20
14.70087308499999
  0
LWPOLYLINE
  5
14E
330
2
100
AcDbEntity
  8
0
100
AcDbPolyline
 90
       49
 70
     0
 43
0.0
 10
26.09635388149999
 20
27.7808421266
 10
26.20085890389999
 20
27.71424365779999
 10
26.30407547029999
 20
27.64571837780001
 10
26.4059948287
 20
27.57526951379999
 10
26.5065886447
 20
27.50291710899999
 10
26.6057502287
 20
27.42874845460001
 10
26.7033533119
 20
27.35286765780001
 10
26.79928598869999
 20
27.2753714722
 10
26.8934938319
 20
27.196327261
 10
26.9859367855
 20
27.11579503700001
 10
27.07656559509999
 20
27.033847005
 10
27.16529422869999
 20
26.9506041234
 10
27.25202745749999
 20
26.8661995474
 10
27.3366853071
 20
26.78075526260001
 10
27.41924882229999
 20
26.6943486002
 10
27.49971430549999
 20
26.60704572979999
 10
27.57807433269999
 20
26.5189187282
 10
27.65430659189999
 20
26.4300633026
 10
27.72838504469999
 20
26.34058107380001
 10
27.8002922367
 20
26.25056500980001
 10
27.87004505429999
 20
26.16007348180001
 10
27.93766896469999
 20
26.069156213
 10
28.0031916751
 20
25.97785830900001
 10
28.0666498687
 20
25.88620641780001
 10
28.1280824623
 20
25.7942225698
 10
28.18752814549999
 20
25.70192715380001
 10
28.24502466389999
 20
25.6093339858
 10
28.30060953269999
 20
25.51645523700001
 10
28.3543196959
 20
25.4233013858
 10
28.40618982229999
 20
25.32987612980001
 10
28.4562540111
 20
25.23618147380001
 10
28.5045425311
 20
25.14222598900001
 10
28.55107032469999
 20
25.048044509
 10
28.5958485039
 20
24.95367843379999
 10
28.6388894447
 20
24.85916606740001
 10
28.68021057109999
 20
24.76453330260001
 10
28.7198305679
 20
24.66980293780001
 10
28.7577625583
 20
24.5750158418
 10
28.79399738389999
 20
24.48028516980001
 10
28.82852032469999
 20
24.38574215059999
 10
28.8613233567
 20
24.29150495380001
 10
28.89242524149999
 20
24.19763952980001
 10
28.92185144149999
 20
24.10419876979999
 10
28.94962504309999
 20
24.01124944340002
 10
28.9757596335
 20
23.9189138258
 10
29.0002664255
 20
23.82732806580001
 10
29.02316367829999
 20
23.73660642419999
 10
29.0444978271
 20
23.6467755986
 10
29.0643223583
 20
23.55784039539999
  0
LWPOLYLINE
  5
14F
330
2
100
AcDbEntity
  8
0
100
AcDbPolyline
 90
       60
 70
     0
 43
0.0
 10
29.0643223583
 20
23.55784039539999
 10
29.0040528703
 20
23.61916343380001
 10
28.94470978709999
 20
23.67873712500001
 10
28.88641698709999
 20
23.73649549619999
 10
28.82925154229999
 20
23.79241669299999
 10
28.7731032927
 20
23.84665534740001
 10
28.71781526709999
 20
23.89941021139999
 10
28.66324022869999
 20
23.9508666962
 10
28.6092698735
 20
24.00115685140001
 10
28.5558056319
 20
24.05039938419999
 10
28.47631752149999
 20
24.12257251219999
 10
28.39726319349999
 20
24.1931398786
 10
28.31815268309999
 20
24.26258095219999
 10
28.2384689439
 20
24.3313558994
 10
28.1576817919
 20
24.39991551699999
 10
28.07523559509999
 20
24.4686924226
 10
28.01905937109999
 20
24.5148825154
 10
27.96165227029999
 20
24.56152654259999
 10
27.90277055349999
 20
24.60879160500001
 10
27.8421721695
 20
24.65683844819999
 10
27.77962186869999
 20
24.7058023682
 10
27.71488608949999
 20
24.7558122994
 10
27.6477393871
 20
24.80698618899999
 10
27.57798875349999
 20
24.85939804179999
 10
27.50544929109999
 20
24.91311086899999
 10
27.4299387935
 20
24.96818117459999
 10
27.3512858079
 20
25.0246394082
 10
27.26932156949999
 20
25.08250950580002
 10
27.18387318549999
 20
25.14181322739999
 10
27.09475124469999
 20
25.20256363060001
 10
27.0017622015
 20
25.2647715906
 10
26.90470466069999
 20
25.3284463298
 10
26.8033458207
 20
25.39359044660001
 10
26.6974450271
 20
25.46020488180001
 10
26.58676389589999
 20
25.5282816242
 10
26.4710731327
 20
25.59777683860001
 10
26.3501457135
 20
25.66863773620001
 10
26.25587611669999
 20
25.72264420820001
 10
26.1584319775
 20
25.7773448546
 10
26.0577120767
 20
25.83269535059999
 10
25.95361519029999
 20
25.8886513666
 10
25.8460851343
 20
25.94514499060001
 10
25.73524587509999
 20
26.00201396180001
 10
25.62126641269999
 20
26.05907243700001
 10
25.50431575029999
 20
26.11613457299999
 10
25.3440629919
 20
26.191912525
 10
25.1792964671
 20
26.26698982579999
 10
25.0104840975
 20
26.3409897058
 10
24.83806097109999
 20
26.41356204980001
 10
24.66233084629999
 20
26.48446335539999
 10
24.48356464789999
 20
26.55347676980001
 10
24.30203231829999
 20
26.62039368659999
 10
24.11799984309999
 20
26.68503845460001
 10
23.9317322239
 20
26.74724366900001
 10
23.74351718389999
 20
26.80684627859999
 10
23.5537333199
 20
26.86370066420001
 10
23.3627819535
 20
26.91766556180001
 10
23.17098531829999
 20
26.96862643219999
 10
22.97834932789999
 20
27.0165756146
 10
22.7848008063
 20
27.0615321698
  0
LWPOLYLINE
  5
150
330
2
100
AcDbEntity
  8
0
100
AcDbPolyline
 90
       93
 70
     0
 43
0.0
 10
29.55579265749999
 20
11.1901795186
 10
29.51865361429999
 20
11.03024432979999
 10
29.47936060309999
 20
10.8692762242
 10
29.43787556309999
 20
10.707501453
 10
29.39416456149999
 20
10.54514898580001
 10
29.3482016959
 20
10.3824630098
 10
29.30000855829999
 20
10.2198296194
 10
29.24963925429999
 20
10.0576967538
 10
29.19716054069999
 20
9.896497790600008
 10
29.14257654389999
 20
9.736431547400002
 10
29.08574937909999
 20
9.577270088200009
 10
29.0265199551
 20
9.418756352200006
 10
28.96518007509999
 20
9.261816533000001
 10
28.90236223029999
 20
9.108043440200006
 10
28.83832740149999
 20
8.957913104200002
 10
28.7730869807
 20
8.811268085000008
 10
28.7066693087
 20
8.668003638599998
 10
28.63909479669999
 20
8.528007596999998
 10
28.5704184607
 20
8.391246584200004
 10
28.5006092303
 20
8.257524958600001
 10
28.4307185999
 20
8.1286299522
 10
28.36209712149999
 20
8.00661048660001
 10
28.29465511029999
 20
7.890798057799997
 10
28.22796605109999
 20
7.7800535314
 10
28.16181732629999
 20
7.673709419399997
 10
28.09602738709999
 20
7.571217152200006
 10
28.0304592975
 20
7.472154864200007
 10
27.9649894895
 20
7.376164361800007
 10
27.89951543349999
 20
7.2829539202
 10
27.83394460629999
 20
7.192274845
 10
27.76819731029999
 20
7.103920190600007
 10
27.70218050389999
 20
7.0176863378
 10
27.6358458575
 20
6.933445992200006
 10
27.56903428309999
 20
6.850950041800004
 10
27.5018166367
 20
6.770246857800003
 10
27.4339821999
 20
6.691058059400006
 10
27.36222380309999
 20
6.609662793799998
 10
27.28200820629999
 20
6.521402504200011
 10
27.19431350069999
 20
6.427981809800002
 10
27.1027395519
 20
6.333601416200011
 10
27.0077134591
 20
6.23883565940001
 10
26.90871970869999
 20
6.143287897800007
 10
26.80537640949999
 20
6.046728142600002
 10
26.69713136149999
 20
5.948795096200001
 10
26.58325178869999
 20
5.849004259400004
 10
26.46234329429999
 20
5.746354745800005
 10
26.33523070069999
 20
5.641730854599998
 10
26.2124243471
 20
5.543513153800006
 10
26.1022804959
 20
5.457555201800005
 10
26.0023663071
 20
5.381140185800006
 10
25.9091579967
 20
5.311054561800006
 10
25.8216284975
 20
5.246186253000004
 10
25.7363187647
 20
5.183757739400007
 10
25.6475729439
 20
5.119583675400008
 10
25.55348968309999
 20
5.052406285000003
 10
25.4542484575
 20
4.982514038600001
 10
25.3490080847
 20
4.909500408200003
 10
25.23696427509999
 20
4.833035934600005
 10
25.11704025429999
 20
4.752668358600004
 10
24.98785443829999
 20
4.667828997
 10
24.8475584863
 20
4.577765638599998
 10
24.69338009589999
 20
4.481321352199998
 10
24.5260641487
 20
4.379693585799998
 10
24.3529052879
 20
4.27782036180001
 10
24.1793541647
 20
4.179036310600011
 10
24.0060463951
 20
4.08366272500001
 10
23.83301118549999
 20
3.991661349000011
 10
23.66042836309999
 20
3.903073270600003
 10
23.48804685109999
 20
3.817718513800002
 10
23.3151749151
 20
3.735217144200007
 10
23.1415787919
 20
3.655431494600009
 10
22.96738949749999
 20
3.578403293000008
 10
22.79262290709999
 20
3.504119803400001
 10
22.61732087349999
 20
3.432580203400007
 10
22.44153460309999
 20
3.363786236999999
 10
22.26535656789999
 20
3.297755126600009
 10
22.08891903189999
 20
3.234521281799999
 10
21.91208766709999
 20
3.174021726600003
 10
21.7345648559
 20
3.116146451399998
 10
21.55608445269999
 20
3.060809992200006
 10
21.3763651167
 20
3.007935187400008
 10
21.1951468255
 20
2.957463309000004
 10
21.01245185269999
 20
2.90942200340001
 10
20.82857084789999
 20
2.863910400199998
 10
20.6434665055
 20
2.820939777800006
 10
20.4569357359
 20
2.780484699400005
 10
20.2683251839
 20
2.742439448200002
 10
20.0761385551
 20
2.706567822600007
 10
19.87922165749999
 20
2.672738472200009
 10
19.67736656149999
 20
2.64102664660001
 10
19.4705984351
 20
2.611548457799997
 10
19.25887081429999
 20
2.584408680199999
 10
19.04220758549999
 20
2.559720652999999
  0
LWPOLYLINE
  5
151
330
2
100
AcDbEntity
  8
0
100
AcDbPolyline
 90
       25
 70
     0
 43
0.0
 10
29.5316924367
 20
11.1463916354
 10
29.5462245951
 20
11.2088294722
 10
29.56178825269999
 20
11.2715265682
 10
29.57842950709999
 20
11.3345181906
 10
29.5960884463
 20
11.397498341
 10
29.6146768591
 20
11.4600992194
 10
29.63409934709999
 20
11.5220470642
 10
29.6542610975
 20
11.58312153140001
 10
29.6750768383
 20
11.6432218898
 10
29.68930218389999
 20
11.6827766434
 10
29.7039115247
 20
11.72222996340001
 10
29.71903503989999
 20
11.7619448338
 10
29.7348043999
 20
11.802273405
 10
29.7513572575
 20
11.8435245106
 10
29.76883276149999
 20
11.885996157
 10
29.7826303711
 20
11.918831421
 10
29.7970946671
 20
11.9526542578
 10
29.81229507669999
 20
11.9875980658
 10
29.8283010271
 20
12.02379623699999
 10
29.84515713909999
 20
12.0613373874
 10
29.86280881589999
 20
12.10013103700001
 10
29.88117665909999
 20
12.1400419266
 10
29.90018126549999
 20
12.180934797
 10
29.9263560735
 20
12.2367611634
 10
29.9804946207
 20
12.35185837459999
  0
LWPOLYLINE
  5
152
330
2
100
AcDbEntity
  8
0
100
AcDbPolyline
 90
       11
 70
     0
 43
0.0
 10
29.55576389109999
 20
11.19012104020001
 10
29.6171212239
 20
11.4313845922
 10
29.69330068149999
 20
11.66775472500001
 10
29.78985545269999
 20
11.9139626706
 10
29.89862428149999
 20
12.1543333154
 10
30.0013326415
 20
12.3677697266
 10
30.08892888629999
 20
12.5557282834
 10
30.1613728991
 20
12.7324237954
 10
30.22205206709999
 20
12.916495021
 10
30.27602486389999
 20
13.1251846146
 10
30.32451320149999
 20
13.36213757939999
  0
LWPOLYLINE
  5
153
330
2
100
AcDbEntity
  8
0
100
AcDbPolyline
 90
       21
 70
     0
 43
0.0
 10
29.9804946207
 20
12.35185837459999
 10
30.0078552767
 20
12.41060267699999
 10
30.03495565589999
 20
12.46983576819999
 10
30.06143237429999
 20
12.52934468499999
 10
30.0869481359
 20
12.58894033780001
 10
30.11127002549999
 20
12.64852911220001
 10
30.1341912239
 20
12.7080412674
 10
30.1472105247
 20
12.743741421
 10
30.15975615349999
 20
12.7797257138
 10
30.17193314069999
 20
12.8163309762
 10
30.1838465215
 20
12.853894037
 10
30.19560132629999
 20
12.89275172660001
 10
30.20727587029999
 20
12.9331593714
 10
30.2188416047
 20
12.9750462834
 10
30.23024326389999
 20
13.01826027380001
 10
30.24142558389999
 20
13.0626491506
 10
30.2523332959
 20
13.108060725
 10
30.2655300783
 20
13.16609595540001
 10
30.2782985039
 20
13.225580797
 10
30.2907256367
 20
13.286604693
 10
30.3028985455
 20
13.3492570866
  0
LWPOLYLINE
  5
154
330
2
100
AcDbEntity
  8
0
100
AcDbPolyline
 90
       29
 70
     0
 43
0.0
 10
28.3377901983
 20
7.9644120178
 10
28.39691365109999
 20
8.068691989000001
 10
28.45534420469999
 20
8.175012550600001
 10
28.51304227189999
 20
8.283360894600008
 10
28.56996826389999
 20
8.393724217799999
 10
28.62609094229999
 20
8.506108665799999
 10
28.6814124607
 20
8.620596200199997
 10
28.7359433231
 20
8.737287731400002
 10
28.7896940287
 20
8.856284169800005
 10
28.8321378847
 20
8.953207953800003
 10
28.8740822079
 20
9.051718837000009
 10
28.9155200415
 20
9.151864197000008
 10
28.95644442709999
 20
9.253691411399998
 10
28.9968484111
 20
9.357247854600004
 10
29.0367237407
 20
9.462578819400008
 10
29.0760569791
 20
9.569721256200011
 10
29.11483339189999
 20
9.678710030600001
 10
29.15303824949999
 20
9.789580011400005
 10
29.1906568159
 20
9.902366064200009
 10
29.22767524949999
 20
10.0171077154
 10
29.26408325909999
 20
10.1338631378
 10
29.2998714415
 20
10.2526951602
 10
29.33503039669999
 20
10.37366661300001
 10
29.36955072149999
 20
10.4968403314
 10
29.40341860309999
 20
10.622266741
 10
29.4366025823
 20
10.7499466594
 10
29.46906679349999
 20
10.8798685058
 10
29.50077536789999
 20
11.01202069140001
 10
29.5316924367
 20
11.1463916354
  0
LWPOLYLINE
  5
155
330
2
100
AcDbEntity
  8
0
100
AcDbPolyline
 90
       60
 70
     0
 43
0.0
 10
29.0643223583
 20
5.843905776200003
 10
29.0040530271
 20
5.782582896200011
 10
28.94471008309999
 20
5.723009341000008
 10
28.88641739829999
 20
5.665251081800008
 10
28.8292520447
 20
5.6093299682
 10
28.77310386869999
 20
5.55509137780001
 10
28.7178159103
 20
5.502336571400007
 10
28.66324093909999
 20
5.450880140999998
 10
28.6092706431
 20
5.4005900322
 10
28.55580643509999
 20
5.351347523400008
 10
28.4763183263
 20
5.279174384200004
 10
28.39726399509999
 20
5.208607001800004
 10
28.31815353269999
 20
5.139165957000003
 10
28.2384698095
 20
5.070391014600005
 10
28.15768257909999
 20
5.001831318600011
 10
28.07523631349999
 20
4.933054344200002
 10
28.0190601135
 20
4.886864260999999
 10
27.9616530783
 20
4.8402202802
 10
27.90277143669999
 20
4.792955272200003
 10
27.84217311669999
 20
4.744908469000009
 10
27.7796228543
 20
4.695944571400005
 10
27.71488709269999
 20
4.645934643400011
 10
27.6477403759
 20
4.5947607298
 10
27.5779896719
 20
4.542348814600003
 10
27.5054500479
 20
4.488635857800005
 10
27.42993927669999
 20
4.433565347400005
 10
27.35128591989999
 20
4.377106845
 10
27.26932124149999
 20
4.319236437
 10
27.18387236949999
 20
4.259932382599998
 10
27.09474989429999
 20
4.199181629000008
 10
27.00176027189999
 20
4.136973302599997
 10
26.90470210869999
 20
4.073298184199998
 10
26.80334260629999
 20
4.00815368180001
 10
26.69744112149999
 20
3.941538859399997
 10
26.58675927989999
 20
3.873461740999999
 10
26.4710678063
 20
3.803966171400006
 10
26.3501396959
 20
3.733104953800008
 10
26.25586961429999
 20
3.679098278600008
 10
26.15842506069999
 20
3.624397477000002
 10
26.05770485909999
 20
3.569046899400007
 10
25.9536078351
 20
3.513090894599997
 10
25.84607784149999
 20
3.456597393800009
 10
25.73523883989999
 20
3.39972864500001
 10
25.6212598223
 20
3.342670478599998
 10
25.5043097807
 20
3.285608723400002
 10
25.34405806389999
 20
3.209831350599998
 10
25.1792926495
 20
3.134754632199999
 10
25.0104812303
 20
3.060755235400009
 10
24.83805872469999
 20
2.988183201799998
 10
24.66232891829999
 20
2.917282059400008
 10
24.4835628159
 20
2.848268709000009
 10
24.30203043029999
 20
2.781351803399999
 10
24.11799780149999
 20
2.716707014600004
 10
23.93172997269999
 20
2.654501769800006
 10
23.74351472469999
 20
2.594899139399998
 10
23.55373076789999
 20
2.538044768200009
 10
23.3627795471
 20
2.484079950600005
 10
23.17098339829999
 20
2.4331192434
 10
22.9783482207
 20
2.385170289800001
 10
22.7848008063
 20
2.340214001800006
  0
LWPOLYLINE
  5
156
330
2
100
AcDbEntity
  8
0
100
AcDbPolyline
 90
       49
 70
     0
 43
0.0
 10
26.09635388149999
 20
1.620904045000003
 10
26.20085890229999
 20
1.687502512199998
 10
26.30407546869999
 20
1.756027792200001
 10
26.4059948271
 20
1.8264766562
 10
26.5065886415
 20
1.898829061
 10
26.6057502271
 20
1.972997715399998
 10
26.7033533103
 20
2.048878512200005
 10
26.79928598709999
 20
2.126374699400003
 10
26.8934938319
 20
2.205418910600002
 10
26.9859367855
 20
2.285951134600011
 10
27.07656559669999
 20
2.367899168200011
 10
27.16529423029999
 20
2.451142048199997
 10
27.25202745909999
 20
2.535546625800009
 10
27.3366853071
 20
2.620990910599999
 10
27.41924882389999
 20
2.707397573000008
 10
27.49971430709999
 20
2.794700443400003
 10
27.5780743359
 20
2.882827446600003
 10
27.65430659509999
 20
2.971682872200005
 10
27.72838504629999
 20
3.061165101
 10
27.8002922399
 20
3.151181165000011
 10
27.87004505589999
 20
3.241672691399998
 10
27.93766896469999
 20
3.33258996020001
 10
28.0031916767
 20
3.423887864200011
 10
28.0666498703
 20
3.515539755399998
 10
28.1280824639
 20
3.607523605000011
 10
28.18752814709999
 20
3.69981902100001
 10
28.24502466549999
 20
3.792412189000003
 10
28.30060953429999
 20
3.885290937800007
 10
28.3543196975
 20
3.978444789000008
 10
28.40618982389999
 20
4.071870045000011
 10
28.4562540127
 20
4.165564701000008
 10
28.5045425327
 20
4.259520185799999
 10
28.55107032629999
 20
4.353701667400002
 10
28.5958485055
 20
4.448067741000002
 10
28.6388894463
 20
4.542580107399999
 10
28.68021057109999
 20
4.637212872200009
 10
28.7198305695
 20
4.731943235400009
 10
28.7577625583
 20
4.8267303314
 10
28.79399738549999
 20
4.921461003400011
 10
28.82852032629999
 20
5.0160040242
 10
28.8613233567
 20
5.110241219400009
 10
28.89242524149999
 20
5.20410664340001
 10
28.92185144149999
 20
5.297547403400002
 10
28.94962504309999
 20
5.390496728200005
 10
28.9757596335
 20
5.482832345800005
 10
29.0002664255
 20
5.574418105800006
 10
29.02316367829999
 20
5.665139747400004
 10
29.0444978271
 20
5.754970573000008
 10
29.0643223583
 20
5.843905776200003
  0
LWPOLYLINE
  5
157
330
2
100
AcDbEntity
  8
0
100
AcDbPolyline
 90
       29
 70
     0
 43
0.0
 10
25.76993056949999
 20
0.0434689538000015
 10
26.41554329909999
 20
0.3301342242000089
 10
27.02940261269999
 20
0.6378471634000107
 10
27.6154950751
 20
0.966880113800002
 10
28.1760905135
 20
1.317285745800006
 10
28.71189991829999
 20
1.688354219400011
 10
29.2195765375
 20
2.076656470599999
 10
29.6915817231
 20
2.474465929800004
 10
30.12298325909999
 20
2.874874113800004
 10
30.51594407669999
 20
3.276941320200009
 10
30.87676452309999
 20
3.684765510600001
 10
31.2113792735
 20
4.103095067400005
 10
31.52211516309999
 20
4.5337298978
 10
31.8090249247
 20
4.97578969460001
 10
32.07274291509999
 20
5.42970510740001
 10
32.31423260949999
 20
5.897211598600009
 10
32.53577561589999
 20
6.383301158600005
 10
32.74045343829999
 20
6.897147349000007
 10
32.92927676949999
 20
7.446105244999998
 10
33.1023736783
 20
8.03804494900001
 10
33.25974846069999
 20
8.684977881800008
 10
33.40119064629999
 20
9.404715172999999
 10
33.52261974869999
 20
10.19893571699999
 10
33.6155023359
 20
11.00906964820001
 10
33.6804335903
 20
11.78804962579999
 10
33.7242306255
 20
12.5415026498
 10
33.7518558479
 20
13.2774578594
 10
33.76660531189999
 20
13.9969272178
 10
33.77105143189999
 20
14.70087308499999
  0
LWPOLYLINE
  5
158
330
2
100
AcDbEntity
  8
0
100
AcDbPolyline
 90
      109
 70
     0
 43
0.0
 10
28.3531259695
 20
21.41059524500001
 10
28.3013612319
 20
21.50000372820001
 10
28.2497405583
 20
21.58684498259999
 10
28.19838973909999
 20
21.67104477459999
 10
28.1473872719
 20
21.75259930900002
 10
28.09662249589999
 20
21.8317865714
 10
28.0459374511
 20
21.90895498580001
 10
27.9697242095
 20
22.02161921619999
 10
27.8928639647
 20
22.13130953619999
 10
27.8148841695
 20
22.23878345460001
 10
27.7353060943
 20
22.3446903666
 10
27.65354295189999
 20
22.4497454018
 10
27.56858188789999
 20
22.5550347586
 10
27.5095556447
 20
22.62598104980001
 10
27.44794212149999
 20
22.69815080979999
 10
27.38307283189999
 20
22.7721393778
 10
27.33188611189999
 20
22.82916452179999
 10
27.27823385909999
 20
22.88769072820001
 10
27.2218579359
 20
22.94786110100001
 10
27.16250019989999
 20
23.00981874420001
 10
27.10000416469999
 20
23.07360830899999
 10
27.0346199455
 20
23.13888063220001
 10
26.9666993103
 20
23.20518809620002
 10
26.89659402709999
 20
23.2720830866
 10
26.8003775871
 20
23.36144370099999
 10
26.7020222271
 20
23.4501541426
 10
26.6026474831
 20
23.53731551540001
 10
26.45361373109999
 20
23.66371872980001
 10
26.3055281039
 20
23.78477226420001
 10
26.1590212287
 20
23.90068870579999
 10
26.01435514389999
 20
24.01189799539999
 10
25.8713954127
 20
24.11907668979999
 10
25.7287903423
 20
24.2236704962
 10
25.6329667839
 20
24.29282911060001
 10
25.5352775951
 20
24.36239166580001
 10
25.43443552469999
 20
24.4331829458
 10
25.3559923711
 20
24.48754482900001
 10
25.27469963829999
 20
24.54320526100001
 10
25.1902053215
 20
24.6003076866
 10
25.10215741589999
 20
24.65899555540001
 10
25.01027139189999
 20
24.719359589
 10
24.9145326047
 20
24.78127959859999
 10
24.8149938847
 20
24.84458266900002
 10
24.71170806389999
 20
24.90909588020001
 10
24.60471906869999
 20
24.9746539202
 10
24.4940352367
 20
25.04112187860001
 10
24.37965600149999
 20
25.1083724498
 10
24.2615807983
 20
25.17627832500001
 10
24.13984659989999
 20
25.2446926274
 10
24.0146405247
 20
25.3133901842
 10
23.88618723189999
 20
25.38212625460001
 10
23.7547113743
 20
25.4506560994
 10
23.57510859029999
 20
25.541304941
 10
23.39113523029999
 20
25.63068909460001
 10
23.20339477909999
 20
25.7183455938
 10
23.01245407989999
 20
25.80384770420001
 10
22.8187334399
 20
25.8869136178
 10
22.62261652789999
 20
25.9672977506
 10
22.42451618229999
 20
26.0447581154
 10
22.22496191829999
 20
26.11906707539999
 10
22.02451242389999
 20
26.19000058580001
 10
21.82360377909999
 20
26.25738853619999
 10
21.62218164149999
 20
26.32127655700001
 10
21.4200690639
 20
26.38176421780001
 10
21.21703948149999
 20
26.43895138739999
 10
21.01266785429999
 20
26.49293915380001
 10
20.80647952469999
 20
26.54382890419999
 10
20.59799257909999
 20
26.5917103778
 10
20.38669609109999
 20
26.63662670259999
 10
20.1720718783
 20
26.67860936180001
 10
20.00861132309999
 20
26.70818828019999
 10
19.8427876863
 20
26.73613724019999
 10
19.67440121109999
 20
26.762458765
 10
19.5032521359
 20
26.7871553794
 10
19.32913948629999
 20
26.8102227874
 10
19.15185741429999
 20
26.83162941940001
 10
18.97119885589999
 20
26.85133689140001
 10
18.78695674549999
 20
26.86930681619999
 10
18.59889682069999
 20
26.88550128980002
 10
18.4066760095
 20
26.8998843282
 10
18.2099240447
 20
26.91242043059999
 10
18.00827065589999
 20
26.92307409300001
 10
17.84316581269999
 20
26.9302117362
 10
17.6744717791
 20
26.93606727379999
 10
17.50197325109999
 20
26.94058608339999
 10
17.32545492149999
 20
26.94371353940001
 10
17.14470148629999
 20
26.94539502100001
 10
16.95955641269999
 20
26.94557408340001
 10
16.77009825429999
 20
26.94418701300001
 10
16.5764643407
 20
26.94116827700002
 10
16.3787919999
 20
26.93645234099999
 10
16.1772185599
 20
26.9299736722
 10
15.97190966229999
 20
26.92167261780001
 10
15.76314419029999
 20
26.9115130338
 10
15.5512293375
 20
26.89946466260001
 10
15.33647230389999
 20
26.88549723859999
 10
15.11918028149999
 20
26.86958050260001
 10
14.84448661589999
 20
26.84691477939999
 10
14.56702119829999
 20
26.82120197940001
 10
14.28749319509999
 20
26.79248811699999
 10
14.0066117807
 20
26.7608192018
 10
13.7250796591
 20
26.72624038100001
 10
13.44357366709999
 20
26.68879335859999
 10
13.16276418069999
 20
26.64851897780001
 10
12.88332157269999
 20
26.60545808019999
 10
12.6057560127
 20
26.55969972660001
 10
12.3299368719
 20
26.51152585620001
 10
12.05557331669999
 20
26.461266629
 10
11.7823745151
 20
26.40925220500001
  0
LWPOLYLINE
  5
159
330
2
100
AcDbEntity
  8
0
100
AcDbPolyline
 90
       24
 70
     0
 43
0.0
 10
29.92763108309999
 20
17.16227277299999
 10
29.90178952789999
 20
17.21736764500001
 10
29.88298540629999
 20
17.2577970706
 10
29.86477279669999
 20
17.2973254834
 10
29.8472298783
 20
17.3358240978
 10
29.83043482709999
 20
17.3731641234
 10
29.8144425503
 20
17.4092582162
 10
29.79921486709999
 20
17.4441848162
 10
29.78469032949999
 20
17.4780638034
 10
29.7708074895
 20
17.51101505940001
 10
29.75319168949999
 20
17.55371323220001
 10
29.7364777839
 20
17.59525396659999
 10
29.7205361119
 20
17.63591599699999
 10
29.7052383023
 20
17.6759881602
 10
29.69046112149999
 20
17.71579969780001
 10
29.6760826239
 20
17.7556899506
 10
29.6550755791
 20
17.8162182642
 10
29.6347591839
 20
17.8776506914
 10
29.6152053711
 20
17.939917573
 10
29.59650182069999
 20
18.0028167106
 10
29.5787381647
 20
18.066092525
 10
29.56199608789999
 20
18.12940845620001
 10
29.54633028789999
 20
18.1924853538
 10
29.53169547829999
 20
18.25535466579999
  0
LWPOLYLINE
  5
15A
330
2
100
AcDbEntity
  8
0
100
AcDbPolyline
 90
       11
 70
     0
 43
0.0
 10
29.55576389109999
 20
18.21162513139999
 10
29.6171212239
 20
17.9703615794
 10
29.69330068149999
 20
17.7339914466
 10
29.78985545269999
 20
17.48778350100001
 10
29.89862428149999
 20
17.2474128562
 10
30.0013326415
 20
17.033976445
 10
30.08892888629999
 20
16.84601788820001
 10
30.1613728991
 20
16.6693223762
 10
30.22205206709999
 20
16.4852511506
 10
30.27602486389999
 20
16.276561557
 10
30.32451320149999
 20
16.03960859220001
  0
LWPOLYLINE
  5
15B
330
2
100
AcDbEntity
  8
0
100
AcDbPolyline
 90
       29
 70
     0
 43
0.0
 10
29.53169547829999
 20
18.25535466579999
 10
29.5011092271
 20
18.3883202162
 10
29.4697489615
 20
18.51911012660001
 10
29.43764957429999
 20
18.6477124002
 10
29.4048459567
 20
18.7741150466
 10
29.3713730031
 20
18.8983060722
 10
29.33726131029999
 20
19.02028577300001
 10
29.3025242975
 20
19.1401035954
 10
29.26717109269999
 20
19.2578212754
 10
29.2312108239
 20
19.37350054579999
 10
29.1946526175
 20
19.4872031458
 10
29.15750645109999
 20
19.5989861602
 10
29.11978571029999
 20
19.70888810099999
 10
29.0815046319
 20
19.81694283219999
 10
29.04267745269999
 20
19.923184213
 10
29.00331841109999
 20
20.027646109
 10
28.9634404975
 20
20.13036446740001
 10
28.9230517247
 20
20.231383573
 10
28.8821588575
 20
20.33074979219999
 10
28.84076866389999
 20
20.42850949299999
 10
28.79888791029999
 20
20.52470904499999
 10
28.74585355349999
 20
20.64283649780001
 10
28.69205325109999
 20
20.75869723699999
 10
28.6374769839
 20
20.8723898354
 10
28.58211473429999
 20
20.98401286580001
 10
28.52596461589999
 20
21.0936463746
 10
28.4690572671
 20
21.2012963202
 10
28.4114314607
 20
21.3069501378
 10
28.3531259679
 20
21.41059525940001
  0
LWPOLYLINE
  5
15C
330
2
100
AcDbEntity
  8
0
100
AcDbPolyline
 90
       22
 70
     0
 43
0.0
 10
30.30289867509999
 20
16.0524884034
 10
30.2906431391
 20
16.11555097299999
 10
30.27813091029999
 20
16.1769545762
 10
30.26527837749999
 20
16.2367783666
 10
30.25200192789999
 20
16.2951014994
 10
30.24103483989999
 20
16.3407032434
 10
30.2297930095
 20
16.38525885780001
 10
30.2183265103
 20
16.42863198260001
 10
30.2066854159
 20
16.47068624980001
 10
30.19491980309999
 20
16.5112852946
 10
30.18305607829999
 20
16.5503662082
 10
30.17102597269999
 20
16.58815989780001
 10
30.1587375551
 20
16.62497072660001
 10
30.14609888629999
 20
16.6611030578
 10
30.13301803509999
 20
16.69686125620001
 10
30.1100898575
 20
16.75621564660001
 10
30.0858858271
 20
16.8153581506
 10
30.06061375669999
 20
16.87427068659999
 10
30.03449880629999
 20
16.932916581
 10
30.0078355375
 20
16.9911847938
 10
29.9809358591
 20
17.0489456898
 10
29.92763108309999
 20
17.16227277299999
  0
LWPOLYLINE
  5
15D
330
2
100
AcDbEntity
  8
0
100
AcDbPolyline
 90
       22
 70
     0
 43
0.0
 10
32.84825483189999
 20
14.70087308499999
 10
32.84637653909999
 20
14.80496253940001
 10
32.8409114511
 20
14.9049017794
 10
32.8321921487
 20
14.99920041300001
 10
32.8204018543
 20
15.0882592114
 10
32.80524115029999
 20
15.174930541
 10
32.78642590869999
 20
15.2604701426
 10
32.76417966069999
 20
15.34319618100001
 10
32.73844051029999
 20
15.422741365
 10
32.7086140671
 20
15.5000987522
 10
32.6742795471
 20
15.57523710259999
 10
32.63556720149999
 20
15.64676866900001
 10
32.59595576949999
 20
15.7084280786
 10
32.55958587029999
 20
15.7557853458
 10
32.5252005839
 20
15.79148206580001
 10
32.48872868629999
 20
15.81960325300001
 10
32.4472054351
 20
15.84176379219999
 10
32.4001958799
 20
15.85863846259999
 10
32.3483164271
 20
15.8727956866
 10
32.29157789909999
 20
15.8853301714
 10
32.22979052309999
 20
15.89756199380001
 10
32.08896271189999
 20
15.92413757620001
  0
LWPOLYLINE
  5
15E
330
2
100
AcDbEntity
  8
0
100
AcDbPolyline
 90
       21
 70
     0
 43
0.0
 10
30.43800251029999
 20
14.7008729954
 10
30.4376733167
 20
14.76007974099999
 10
30.4367783199
 20
14.818951341
 10
30.4353385183
 20
14.8774791938
 10
30.4333749183
 20
14.9356546994
 10
30.43090745429999
 20
14.9934750098
 10
30.4279517999
 20
15.0509602946
 10
30.42452255509999
 20
15.108136477
 10
30.4206343279
 20
15.1650294818
 10
30.4147591807
 20
15.2404885906
 10
30.4081159823
 20
15.3155365778
 10
30.40072669429999
 20
15.3902196626
 10
30.3926114975
 20
15.46458439860001
 10
30.3837834767
 20
15.53867870580001
 10
30.3742539439
 20
15.6125508354
 10
30.36403392149999
 20
15.68624321300001
 10
30.35313327669999
 20
15.7597749282
 10
30.3415615967
 20
15.8331592386
 10
30.3293278127
 20
15.90640674099999
 10
30.31643827349999
 20
15.9795173698
 10
30.30289867509999
 20
16.0524884034
  0
LINE
  5
15F
330
2
100
AcDbEntity
  8
0
100
AcDbLine
 10
32.6549714927
 20
14.70658397300001
 30
0.0
 11
32.6549955583
 21
14.700873085
 31
0.0
  0
LINE
  5
160
330
2
100
AcDbEntity
  8
0
100
AcDbLine
 10
32.6549714927
 20
14.6951621986
 30
0.0
 11
32.6549955583
 21
14.700873085
 31
0.0
  0
LWPOLYLINE
  5
161
330
2
100
AcDbEntity
  8
0
100
AcDbPolyline
 90
       21
 70
     0
 43
0.0
 10
32.84825483189999
 20
14.70087308499999
 10
32.84637656949999
 20
14.59678445299999
 10
32.84091156469999
 20
14.4968459522
 10
32.83219239669999
 20
14.40254796820001
 10
32.82040228629999
 20
14.3134897842
 10
32.80524183189999
 20
14.226819093
 10
32.78642689909999
 20
14.1412800898
 10
32.76418100949999
 20
14.0585545602
 10
32.7384422943
 20
13.9790098562
 10
32.70861638549999
 20
13.9016529442
 10
32.6742824815
 20
13.8265149746
 10
32.63557066549999
 20
13.7549833746
 10
32.59595943829999
 20
13.6933233202
 10
32.55958956629999
 20
13.6459651602
 10
32.52520457109999
 20
13.61026769939999
 10
32.4887333903
 20
13.58214597780001
 10
32.44721112949999
 20
13.5599848402
 10
32.4002026351
 20
13.5431097858
 10
32.34832427989999
 20
13.52895239220001
 10
32.2915869471
 20
13.5164178546
 10
32.2298008991
 20
13.5041861762
  0
LWPOLYLINE
  5
162
330
2
100
AcDbEntity
  8
0
100
AcDbPolyline
 90
       20
 70
     0
 43
0.0
 10
30.3028985455
 20
13.3492570866
 10
30.31628765429999
 20
13.42139829620001
 10
30.32906088469999
 20
13.49378865140001
 10
30.3412081119
 20
13.5664120482
 10
30.3527196399
 20
13.63926432019999
 10
30.36358753909999
 20
13.71238906420001
 10
30.3738043151
 20
13.7858418226
 10
30.3833602479
 20
13.8596704706
 10
30.39223670229999
 20
13.9338922146
 10
30.40041281269999
 20
14.00851659700001
 10
30.40786681269999
 20
14.0835549218
 10
30.4145733087
 20
14.159025549
 10
30.4205060031
 20
14.23494860019999
 10
30.4256370575
 20
14.31134352499999
 10
30.4299324655
 20
14.38822707380001
 10
30.4333566799
 20
14.4656153266
 10
30.43533104629999
 20
14.5239958978
 10
30.43677623189999
 20
14.5826671826
 10
30.43767310069999
 20
14.64162695699999
 10
30.43800251029999
 20
14.7008729954
  0
LWPOLYLINE
  5
163
330
2
100
AcDbEntity
  8
0
100
AcDbPolyline
 90
       34
 70
     0
 43
0.0
 10
39.06649131349999
 20
14.70087308499999
 10
39.0480716687
 20
15.5458589586
 10
38.99409414069999
 20
16.36177740499999
 10
38.9063498383
 20
17.149664317
 10
38.7863874975
 20
17.9109193954
 10
38.6354980047
 20
18.646963349
 10
38.45465716149999
 20
19.3594834242
 10
38.2447761519
 20
20.049440477
 10
38.0067359599
 20
20.7173504034
 10
37.7411584255
 20
21.36404216020001
 10
37.4487980831
 20
21.98962813940001
 10
37.13005193109999
 20
22.5946538626
 10
36.7846122383
 20
23.18058863060001
 10
36.4117452463
 20
23.74899112020001
 10
36.0109863503
 20
24.3004768002
 10
35.58251391509999
 20
24.83447984020001
 10
35.12601015989999
 20
25.35089695540001
 10
34.6414284623
 20
25.84918456020001
 10
34.1281668431
 20
26.32916616820001
 10
33.5830431343
 20
26.79269116019999
 10
33.00500752149999
 20
27.239312757
 10
32.3979038943
 20
27.66481219700001
 10
31.75982832149999
 20
28.06921857300001
 10
31.0849510127
 20
28.45464263859999
 10
30.3737378063
 20
28.81895623379999
 10
29.6255843359
 20
29.16052245140001
 10
28.8324351375
 20
29.4806965314
 10
27.98363660629999
 20
29.7807386882
 10
27.0759922063
 20
30.058278517
 10
26.1024725151
 20
30.3114455618
 10
25.0488166895
 20
30.5393795714
 10
23.90545799509999
 20
30.7387743938
 10
22.65975497909999
 20
30.90579311700001
 10
21.2909915087
 20
31.03624322899999
  0
LINE
  5
164
330
2
100
AcDbEntity
  8
0
100
AcDbLine
 10
40.2909915087
 20
35.20277573619999
 30
0.0
 11
40.2909915087
 21
-5.801029564599998
 31
0.0
  0
LWPOLYLINE
  5
165
330
2
100
AcDbEntity
  8
0
100
AcDbPolyline
 90
       34
 70
     0
 43
0.0
 10
39.06649131349999
 20
14.70087308499999
 10
39.0480716687
 20
13.855887213
 10
38.99409414069999
 20
13.03996876659999
 10
38.9063498383
 20
12.252081853
 10
38.7863874975
 20
11.4908267762
 10
38.6354980047
 20
10.7547828226
 10
38.45465716149999
 20
10.0422627474
 10
38.2447761519
 20
9.352305694600005
 10
38.0067359599
 20
8.684395768200005
 10
37.7411584255
 20
8.037704011400009
 10
37.4487980831
 20
7.412118032199998
 10
37.13005193109999
 20
6.807092308999997
 10
36.7846122383
 20
6.22115754100001
 10
36.4117452463
 20
5.652755051400006
 10
36.0109863503
 20
5.101269371400007
 10
35.58251391509999
 20
4.567266331400006
 10
35.12601015989999
 20
4.050849216200006
 10
34.6414284623
 20
3.552561611400008
 10
34.1281668431
 20
3.072580003400005
 10
33.5830431343
 20
2.609055011400002
 10
33.00500752149999
 20
2.162433414600002
 10
32.3979038943
 20
1.736933974600006
 10
31.75982832149999
 20
1.332527598600009
 10
31.0849510127
 20
0.9471035314000033
 10
30.3737378063
 20
0.5827899378000013
 10
29.6255843359
 20
0.2412237202000114
 10
28.8324351375
 20
-0.0789503597999897
 10
27.98363660629999
 20
-0.3789925165999932
 10
27.0759922063
 20
-0.6565323453999952
 10
26.1024725151
 20
-0.9096993901999894
 10
25.0488166895
 20
-1.137633399799995
 10
23.90545799509999
 20
-1.33702822219999
 10
22.65975497909999
 20
-1.504046945399991
 10
21.2909915087
 20
-1.634497057399997
  0
CIRCLE
  5
166
330
2
100
AcDbEntity
  8
0
100
AcDbCircle
 10
4.1659915087
 20
7.200873084999999
 30
0.0
 40
1.2714466096
  0
ENDSEC
  0
SECTION
  2
OBJECTS
  0
DICTIONARY
  5
9
330
0
100
AcDbDictionary
  3
ACAD_COLOR
350
2E
  3
ACAD_GROUP
350
2A
  3
ACAD_LAYOUT
350
D
  3
ACAD_MATERIAL
350
2D
  3
ACAD_MLINESTYLE
350
2B
  3
ACAD_PLOTSETTINGS
350
2C
  3
ACAD_PLOTSTYLENAME
350
8
  3
ACAD_TABLESTYLE
350
2F
  3
ACDBHEADERROUNDTRIPXREC
350
22C
  3
ACDBVARIABLEDICTIONARY
350
168
  0
DICTIONARY
  5
3
330
2
100
AcDbDictionary
280
     1
  3
ACAD_LAYOUTSELFREF
360
24D
  3
ACAD_SORTENTS
360
167
  0
DICTIONARY
  5
1E0
330
E
100
AcDbDictionary
280
     1
  3
ACAD_LAYOUTSELFREF
360
24E
  0
DICTIONARY
  5
2E
102
{ACAD_REACTORS
330
9
102
}
330
9
100
AcDbDictionary
  0
DICTIONARY
  5
2A
102
{ACAD_REACTORS
330
9
102
}
330
9
100
AcDbDictionary
  0
DICTIONARY
  5
D
102
{ACAD_REACTORS
330
9
102
}
330
9
100
AcDbDictionary
  0
DICTIONARY
  5
2D
102
{ACAD_REACTORS
330
9
102
}
330
9
100
AcDbDictionary
  0
DICTIONARY
  5
2B
102
{ACAD_REACTORS
330
9
102
}
330
9
100
AcDbDictionary
  3
STANDARD
350
30
  0
DICTIONARY
  5
2C
102
{ACAD_REACTORS
330
9
102
}
330
9
100
AcDbDictionary
  0
ACDBDICTIONARYWDFLT
  5
8
102
{ACAD_REACTORS
330
9
102
}
330
9
100
AcDbDictionary
281
     1
  3
Normal
350
7
100
AcDbDictionaryWithDefault
340
7
  0
DICTIONARY
  5
2F
102
{ACAD_REACTORS
330
9
102
}
330
9
100
AcDbDictionary
  3
STANDARD
350
31
  0
DICTIONARY
  5
22C
102
{ACAD_REACTORS
330
9
102
}
330
9
100
AcDbDictionary
  3
CEPSNTYPE
350
236
  3
DIMSTYLEDATA
350
23A
  3
FINGERPRINTGUID
350
237
  3
HYPERLINKBASE
350
22F
  3
INSUNITS
350
235
  3
LAYOUTDICT
350
231
  3
LWETCUNION
350
234
  3
PLOTSETDICT
350
232
  3
PLOTSTYLNAMDICT
350
233
  3
PSVPSCALE
350
239
  3
PUCSBASE
350
23D
  3
PUCSORGBACK
350
243
  3
PUCSORGBOTTOM
350
23F
  3
PUCSORGFRONT
350
242
  3
PUCSORGLEFT
350
240
  3
PUCSORGRIGHT
350
241
  3
PUCSORGTOP
350
23E
  3
PUCSORTHOREF
350
23B
  3
PUCSORTHOVIEW
350
23C
  3
STYLESHEET
350
230
  3
TSTACKALIGN
350
22D
  3
TSTACKSIZE
350
22E
  3
UCSBASE
350
246
  3
UCSORGBACK
350
24C
  3
UCSORGBOTTOM
350
248
  3
UCSORGFRONT
350
24B
  3
UCSORGLEFT
350
249
  3
UCSORGRIGHT
350
24A
  3
UCSORGTOP
350
247
  3
UCSORTHOREF
350
244
  3
UCSORTHOVIEW
350
245
  3
VERSIONGUID
350
238
  0
DICTIONARY
  5
168
102
{ACAD_REACTORS
330
9
102
}
330
9
100
AcDbDictionary
  3
CTABLESTYLE
350
169
  3
DIMASSOC
350
19D
  3
HIDETEXT
350
19C
  3
PROJECTNAME
350
19E
  0
XRECORD
  5
24D
102
{ACAD_REACTORS
330
3
102
}
330
3
100
AcDbXrecord
340
2
  0
SORTENTSTABLE
  5
167
102
{ACAD_REACTORS
330
3
102
}
330
3
100
AcDbSortentsTable
330
2
  0
XRECORD
  5
24E
102
{ACAD_REACTORS
330
1E0
102
}
330
1E0
100
AcDbXrecord
340
E
  0
MLINESTYLE
  5
30
102
{ACAD_REACTORS
330
2B
102
}
330
2B
100
AcDbMlineStyle
  2
STANDARD
 70
     0
  3

 62
   256
 51
90.0
 52
90.0
 71
     2
 49
0.5
 62
   256
  6
BYLAYER
 49
-0.5
 62
   256
  6
BYLAYER
  0
ACDBPLACEHOLDER
  5
7
102
{ACAD_REACTORS
330
8
102
}
330
8
100
AcDbPlaceHolder
280
     0
  0
ACAD_PROXY_OBJECT
  5
31
102
{ACAD_REACTORS
330
2F
102
}
330
2F
100
AcDbProxyObject
 90
      499
 91
      525
 93
     1841
310
4214DD185B99185C9928B81E85EB51B8AE3F2E07A17AD46E2B8FC02B5E8DC0F42B1CFD028000000C1008070000C3001FDFF8000000C1003FBFF000000182007F7FE00000030400FEFFC00000060801FDFF8000000C1003FBFF00000018200000000000000681FA0B0000001820100E000186003FBFF000000182007F7FE000
310
00030400FEFFC00000060801FDFF8000000C1003FBFF000000182007F7FE000000304000AD7A3703D0AC73F4160000003040201C00030C007F7FE00000030400FEFFC00000060801FDFF8000000C1003FBFF000000182007F7FE00000030400FEFFC000000608000
340
14
340
14
340
14
 94
        0
1001
ACAD
1000
AcadProxyRoundTripData
1071
      524
1071
   851991
1070
     0
  0
XRECORD
  5
236
102
{ACAD_REACTORS
330
22C
102
}
330
22C
100
AcDbXrecord
 90
        0
  0
XRECORD
  5
23A
102
{ACAD_REACTORS
330
22C
102
}
330
22C
100
AcDbXrecord
1000
DSTYLE
1002
{
1070
   276
 70
     1
1070
   277
 70
     5
1070
   341
340
21
1070
   342
340
21
1002
}
  0
XRECORD
  5
237
102
{ACAD_REACTORS
330
22C
102
}
330
22C
100
AcDbXrecord
  1
{85F7301E-ED02-4D42-8DA3-A7BBDC1D3488}
  0
XRECORD
  5
22F
102
{ACAD_REACTORS
330
22C
102
}
330
22C
100
AcDbXrecord
  1

  0
XRECORD
  5
235
102
{ACAD_REACTORS
330
22C
102
}
330
22C
100
AcDbXrecord
 90
        1
  0
XRECORD
  5
231
102
{ACAD_REACTORS
330
22C
102
}
330
22C
100
AcDbXrecord
340
D
  0
XRECORD
  5
234
102
{ACAD_REACTORS
330
22C
102
}
330
22C
100
AcDbXrecord
 90
    10781
  0
XRECORD
  5
232
102
{ACAD_REACTORS
330
22C
102
}
330
22C
100
AcDbXrecord
340
2C
  0
XRECORD
  5
233
102
{ACAD_REACTORS
330
22C
102
}
330
22C
100
AcDbXrecord
340
8
  0
XRECORD
  5
239
102
{ACAD_REACTORS
330
22C
102
}
330
22C
100
AcDbXrecord
 40
0.0
  0
XRECORD
  5
23D
102
{ACAD_REACTORS
330
22C
102
}
330
22C
100
AcDbXrecord
340
0
  0
XRECORD
  5
243
102
{ACAD_REACTORS
330
22C
102
}
330
22C
100
AcDbXrecord
 10
0.0
 20
0.0
 30
0.0
  0
XRECORD
  5
23F
102
{ACAD_REACTORS
330
22C
102
}
330
22C
100
AcDbXrecord
 10
0.0
 20
0.0
 30
0.0
  0
XRECORD
  5
242
102
{ACAD_REACTORS
330
22C
102
}
330
22C
100
AcDbXrecord
 10
0.0
 20
0.0
 30
0.0
  0
XRECORD
  5
240
102
{ACAD_REACTORS
330
22C
102
}
330
22C
100
AcDbXrecord
 10
0.0
 20
0.0
 30
0.0
  0
XRECORD
  5
241
102
{ACAD_REACTORS
330
22C
102
}
330
22C
100
AcDbXrecord
 10
0.0
 20
0.0
 30
0.0
  0
XRECORD
  5
23E
102
{ACAD_REACTORS
330
22C
102
}
330
22C
100
AcDbXrecord
 10
0.0
 20
0.0
 30
0.0
  0
XRECORD
  5
23B
102
{ACAD_REACTORS
330
22C
102
}
330
22C
100
AcDbXrecord
340
0
  0
XRECORD
  5
23C
102
{ACAD_REACTORS
330
22C
102
}
330
22C
100
AcDbXrecord
 70
     0
  0
XRECORD
  5
230
102
{ACAD_REACTORS
330
22C
102
}
330
22C
100
AcDbXrecord
  1

  0
XRECORD
  5
22D
102
{ACAD_REACTORS
330
22C
102
}
330
22C
100
AcDbXrecord
 90
        1
  0
XRECORD
  5
22E
102
{ACAD_REACTORS
330
22C
102
}
330
22C
100
AcDbXrecord
 90
       70
  0
XRECORD
  5
246
102
{ACAD_REACTORS
330
22C
102
}
330
22C
100
AcDbXrecord
340
0
  0
XRECORD
  5
24C
102
{ACAD_REACTORS
330
22C
102
}
330
22C
100
AcDbXrecord
 10
0.0
 20
0.0
 30
0.0
  0
XRECORD
  5
248
102
{ACAD_REACTORS
330
22C
102
}
330
22C
100
AcDbXrecord
 10
0.0
 20
0.0
 30
0.0
  0
XRECORD
  5
24B
102
{ACAD_REACTORS
330
22C
102
}
330
22C
100
AcDbXrecord
 10
0.0
 20
0.0
 30
0.0
  0
XRECORD
  5
249
102
{ACAD_REACTORS
330
22C
102
}
330
22C
100
AcDbXrecord
 10
0.0
 20
0.0
 30
0.0
  0
XRECORD
  5
24A
102
{ACAD_REACTORS
330
22C
102
}
330
22C
100
AcDbXrecord
 10
0.0
 20
0.0
 30
0.0
  0
XRECORD
  5
247
102
{ACAD_REACTORS
330
22C
102
}
330
22C
100
AcDbXrecord
 10
0.0
 20
0.0
 30
0.0
  0
XRECORD
  5
244
102
{ACAD_REACTORS
330
22C
102
}
330
22C
100
AcDbXrecord
340
0
  0
XRECORD
  5
245
102
{ACAD_REACTORS
330
22C
102
}
330
22C
100
AcDbXrecord
 70
     0
  0
XRECORD
  5
238
102
{ACAD_REACTORS
330
22C
102
}
330
22C
100
AcDbXrecord
  1
{0C396817-EE81-4459-BADB-11FB662E7419}
  0
DICTIONARYVAR
  5
169
102
{ACAD_REACTORS
330
168
102
}
330
168
100
DictionaryVariables
280
     0
  1
STANDARD
  0
DICTIONARYVAR
  5
19D
102
{ACAD_REACTORS
330
168
102
}
330
168
100
DictionaryVariables
280
     0
  1
1
  0
DICTIONARYVAR
  5
19C
102
{ACAD_REACTORS
330
168
102
}
330
168
100
DictionaryVariables
280
     0
  1
1
  0
DICTIONARYVAR
  5
19E
102
{ACAD_REACTORS
330
168
102
}
330
168
100
DictionaryVariables
280
     0
  1

  0
ENDSEC
  0
EOF
