  0
SECTION
  2
HEADER
  9
$ACADVER
  1
AC1014
  9
$ACADMAINTVER
 70
     9
  9
$DWGCODEPAGE
  3
ANSI_1252
  9
$INSBASE
 10
-41.18333372428252
 20
-40.32323679534168
 30
0.0
  9
$EXTMIN
 10
-77.19323149167249
 20
-40.47008196890371
 30
-0.0015258207003583
  9
$EXTMAX
 10
-5.173596480757851
 20
-10.19887576039769
 30
0.0000000349246037
  9
$LIMMIN
 10
0.0
 20
0.0
  9
$LIMMAX
 10
17.0
 20
11.0
  9
$ORTHOMODE
 70
     1
  9
$REGENMODE
 70
     1
  9
$FILLMODE
 70
     1
  9
$QTEXTMODE
 70
     0
  9
$MIRRTEXT
 70
     1
  9
$DRAGMODE
 70
     2
  9
$LTSCALE
 40
2.0
  9
$OSMODE
 70
    55
  9
$ATTMODE
 70
     1
  9
$TEXTSIZE
 40
0.2
  9
$TRACEWID
 40
0.05
  9
$TEXTSTYLE
  7
STANDARD
  9
$CLAYER
  8
0
  9
$CELTYPE
  6
BYLAYER
  9
$CECOLOR
 62
   256
  9
$CELTSCALE
 40
1.0
  9
$DELOBJ
 70
     1
  9
$DISPSILH
 70
     0
  9
$DIMSCALE
 40
16.0
  9
$DIMASZ
 40
0.1875
  9
$DIMEXO
 40
0.0625
  9
$DIMDLI
 40
0.38
  9
$DIMRND
 40
0.0
  9
$DIMDLE
 40
0.0
  9
$DIMEXE
 40
0.18
  9
$DIMTP
 40
0.0
  9
$DIMTM
 40
0.0
  9
$DIMTXT
 40
0.125
  9
$DIMCEN
 40
0.09
  9
$DIMTSZ
 40
0.0
  9
$DIMTOL
 70
     0
  9
$DIMLIM
 70
     0
  9
$DIMTIH
 70
     1
  9
$DIMTOH
 70
     1
  9
$DIMSE1
 70
     0
  9
$DIMSE2
 70
     0
  9
$DIMTAD
 70
     0
  9
$DIMZIN
 70
     4
  9
$DIMBLK
  1
_FILLED
  9
$DIMASO
 70
     1
  9
$DIMSHO
 70
     1
  9
$DIMPOST
  1

  9
$DIMAPOST
  1

  9
$DIMALT
 70
     0
  9
$DIMALTD
 70
     2
  9
$DIMALTF
 40
25.4
  9
$DIMLFAC
 40
1.0
  9
$DIMTOFL
 70
     0
  9
$DIMTVP
 40
0.0
  9
$DIMTIX
 70
     0
  9
$DIMSOXD
 70
     0
  9
$DIMSAH
 70
     0
  9
$DIMBLK1
  1

  9
$DIMBLK2
  1

  9
$DIMSTYLE
  2
S_TANDARD
  9
$DIMCLRD
 70
     0
  9
$DIMCLRE
 70
     0
  9
$DIMCLRT
 70
     0
  9
$DIMTFAC
 40
1.0
  9
$DIMGAP
 40
0.09
  9
$DIMJUST
 70
     0
  9
$DIMSD1
 70
     0
  9
$DIMSD2
 70
     0
  9
$DIMTOLJ
 70
     1
  9
$DIMTZIN
 70
     4
  9
$DIMALTZ
 70
     0
  9
$DIMALTTZ
 70
     0
  9
$DIMFIT
 70
     3
  9
$DIMUPT
 70
     0
  9
$DIMUNIT
 70
     2
  9
$DIMDEC
 70
     3
  9
$DIMTDEC
 70
     3
  9
$DIMALTU
 70
     2
  9
$DIMALTTD
 70
     2
  9
$DIMTXSTY
  7
STANDARD
  9
$DIMAUNIT
 70
     0
  9
$LUNITS
 70
     2
  9
$LUPREC
 70
     4
  9
$SKETCHINC
 40
0.1
  9
$FILLETRAD
 40
0.375
  9
$AUNITS
 70
     0
  9
$AUPREC
 70
     0
  9
$MENU
  1
acad
  9
$ELEVATION
 40
0.0
  9
$PELEVATION
 40
0.0
  9
$THICKNESS
 40
0.0
  9
$LIMCHECK
 70
     0
  9
$BLIPMODE
 70
     0
  9
$CHAMFERA
 40
0.0
  9
$CHAMFERB
 40
0.0
  9
$CHAMFERC
 40
0.0
  9
$CHAMFERD
 40
0.0
  9
$SKPOLY
 70
     0
  9
$TDCREATE
 40
2453681.666029074
  9
$TDUPDATE
 40
2453685.468850023
  9
$TDINDWG
 40
0.0323818750
  9
$TDUSRTIMER
 40
0.0323818750
  9
$USRTIMER
 70
     1
  9
$ANGBASE
 50
0.0
  9
$ANGDIR
 70
     0
  9
$PDMODE
 70
     3
  9
$PDSIZE
 40
0.3125
  9
$PLINEWID
 40
0.0
  9
$COORDS
 70
     1
  9
$SPLFRAME
 70
     0
  9
$SPLINETYPE
 70
     6
  9
$SPLINESEGS
 70
     8
  9
$ATTDIA
 70
     0
  9
$ATTREQ
 70
     1
  9
$HANDLING
 70
 22529
  9
$HANDSEED
  5
2FF
  9
$SURFTAB1
 70
     6
  9
$SURFTAB2
 70
     6
  9
$SURFTYPE
 70
     6
  9
$SURFU
 70
     6
  9
$SURFV
 70
     6
  9
$UCSNAME
  2

  9
$UCSORG
 10
0.0
 20
0.0
 30
0.0
  9
$UCSXDIR
 10
1.0
 20
0.0
 30
0.0
  9
$UCSYDIR
 10
0.0
 20
1.0
 30
0.0
  9
$PUCSNAME
  2

  9
$PUCSORG
 10
0.0
 20
0.0
 30
0.0
  9
$PUCSXDIR
 10
1.0
 20
0.0
 30
0.0
  9
$PUCSYDIR
 10
0.0
 20
1.0
 30
0.0
  9
$USERI1
 70
     0
  9
$USERI2
 70
     0
  9
$USERI3
 70
     0
  9
$USERI4
 70
     0
  9
$USERI5
 70
     0
  9
$USERR1
 40
0.0
  9
$USERR2
 40
0.0
  9
$USERR3
 40
0.0
  9
$USERR4
 40
0.0
  9
$USERR5
 40
0.0
  9
$WORLDVIEW
 70
     1
  9
$SHADEDGE
 70
     3
  9
$SHADEDIF
 70
    70
  9
$TILEMODE
 70
     1
  9
$MAXACTVP
 70
    16
  9
$PINSBASE
 10
0.0
 20
0.0
 30
0.0
  9
$PLIMCHECK
 70
     0
  9
$PEXTMIN
 10
1.000000000000000E+20
 20
1.000000000000000E+20
 30
1.000000000000000E+20
  9
$PEXTMAX
 10
-1.000000000000000E+20
 20
-1.000000000000000E+20
 30
-1.000000000000000E+20
  9
$PLIMMIN
 10
0.0
 20
0.0
  9
$PLIMMAX
 10
12.0
 20
9.0
  9
$UNITMODE
 70
     0
  9
$VISRETAIN
 70
     0
  9
$PLINEGEN
 70
     1
  9
$PSLTSCALE
 70
     0
  9
$TREEDEPTH
 70
  3020
  9
$PICKSTYLE
 70
     1
  9
$CMLSTYLE
  2
STANDARD
  9
$CMLJUST
 70
     0
  9
$CMLSCALE
 40
1.0
  9
$PROXYGRAPHICS
 70
     0
  9
$MEASUREMENT
 70
     0
  0
ENDSEC
  0
SECTION
  2
CLASSES
  0
CLASS
  1
ACDBDICTIONARYWDFLT
  2
AcDbDictionaryWithDefault
  3
AutoCAD 2000
 90
        0
280
     0
281
     0
  0
CLASS
  1
ACDBPLACEHOLDER
  2
AcDbPlaceHolder
  3
AutoCAD 2000
 90
        0
280
     0
281
     0
  0
CLASS
  1
LAYOUT
  2
AcDbLayout
  3
AutoCAD 2000
 90
        0
280
     0
281
     0
  0
CLASS
  1
LWPOLYLINE
  2
AcDbPolyline
  3
AutoCAD 2000
 90
        0
280
     0
281
     1
  0
CLASS
  1
IMAGE
  2
AcDbRasterImage
  3
ISM
 90
      127
280
     0
281
     1
  0
CLASS
  1
OLE2FRAME
  2
AcDbOle2Frame
  3
AutoCAD 2000
 90
        0
280
     0
281
     1
  0
CLASS
  1
HATCH
  2
AcDbHatch
  3
AutoCAD 2000
 90
        0
280
     0
281
     1
  0
CLASS
  1
DICTIONARYVAR
  2
AcDbDictionaryVar
  3
AutoCAD 2000
 90
        0
280
     0
281
     0
  0
CLASS
  1
RASTERVARIABLES
  2
AcDbRasterVariables
  3
ISM
 90
        0
280
     0
281
     0
  0
CLASS
  1
IMAGEDEF
  2
AcDbRasterImageDef
  3
ISM
 90
        0
280
     0
281
     0
  0
CLASS
  1
IMAGEDEF_REACTOR
  2
AcDbRasterImageDefReactor
  3
ISM
 90
        1
280
     0
281
     0
  0
CLASS
  1
IDBUFFER
  2
AcDbIdBuffer
  3
AutoCAD 2000
 90
        0
280
     0
281
     0
  0
CLASS
  1
SPATIAL_FILTER
  2
AcDbSpatialFilter
  3
AutoCAD 2000
 90
        0
280
     0
281
     0
  0
CLASS
  1
XRECORD
  2
AcDbXrecord
  3
AutoCAD 2000
 90
        0
280
     0
281
     0
  0
CLASS
  1
SORTENTSTABLE
  2
AcDbSortentsTable
  3
AutoCAD 2000
 90
        0
280
     0
281
     0
  0
CLASS
  1
LAYER_INDEX
  2
AcDbLayerIndex
  3
AutoCAD 2000
 90
        0
280
     0
281
     0
  0
CLASS
  1
SPATIAL_INDEX
  2
AcDbSpatialIndex
  3
AutoCAD 2000
 90
        0
280
     0
281
     0
  0
CLASS
  1
OBJECT_PTR
  2
CAseDLPNTableRecord
  3
ASE-LPNTableRecord
 90
        1
280
     0
281
     0
  0
CLASS
  1
PLOTSETTINGS
  2
AcDbPlotSettings
  3
AutoCAD 2000
 90
        0
280
     0
281
     0
  0
CLASS
  1
VBA_PROJECT
  2
AcDbVbaProject
  3
acadvba
 90
        0
280
     0
281
     0
  0
CLASS
  1
WIPEOUT
  2
AcDbWipeout
  3
WipeOut|AutoCAD Express Tool|expresstools@autodesk.com
 90
      127
280
     1
281
     1
  0
CLASS
  1
WIPEOUTVARIABLES
  2
AcDbWipeoutVariables
  3
WipeOut|AutoCAD Express Tool|expresstools@autodesk.com
 90
        0
280
     1
281
     0
  0
CLASS
  1
RTEXT
  2
RText
  3
RText|AutoCAD Express Tool|expresstools@autodesk.com
 90
        0
280
     1
281
     1
  0
CLASS
  1
ARCALIGNEDTEXT
  2
AcDbArcAlignedText
  3
ATEXT|AutoCAD Express Tool|expresstools@autodesk.com
 90
        0
280
     1
281
     1
  0
CLASS
  1
LONG_TRANSACTION
  2
AcDbLongTransaction
  3
AutoCAD 2000
 90
        0
280
     0
281
     0
  0
CLASS
  1
LWPOLYLINE
  2
AcDbPolyline
  3
AutoCAD 2000
 90
        0
280
     0
281
     1
  0
CLASS
  1
HATCH
  2
AcDbHatch
  3
AutoCAD 2000
 90
        0
280
     0
281
     1
  0
CLASS
  1
XRECORD
  2
AcDbXrecord
  3
AutoCAD 2000
 90
        0
280
     0
281
     0
  0
CLASS
  1
LONG_TRANSACTION
  2
AcDbLongTransaction
  3
AutoCAD 2000
 90
        0
280
     0
281
     0
  0
CLASS
  1
LWPOLYLINE
  2
AcDbPolyline
  3
AutoCAD 2000
 90
        0
280
     0
281
     1
  0
CLASS
  1
HATCH
  2
AcDbHatch
  3
AutoCAD 2000
 90
        0
280
     0
281
     1
  0
CLASS
  1
XRECORD
  2
AcDbXrecord
  3
AutoCAD 2000
 90
        0
280
     0
281
     0
  0
ENDSEC
  0
SECTION
  2
TABLES
  0
TABLE
  2
VPORT
  5
18
330
0
100
AcDbSymbolTable
 70
     3
  0
VPORT
  5
2DB
330
18
100
AcDbSymbolTableRecord
100
AcDbViewportTableRecord
  2
*ACTIVE
 70
     0
 10
0.0
 20
0.0
 11
1.0
 21
1.0
 12
-41.18341411217885
 22
-25.33447894231851
 13
0.0
 23
0.0
 14
1.0
 24
1.0
 15
0.0
 25
0.0
 16
0.0
 26
0.0
 36
1.0
 17
0.0
 27
0.0
 37
0.0
 40
45.42893991713906
 41
1.786792452830188
 42
50.0
 43
0.0
 44
0.0
 50
0.0
 51
0.0
 71
     0
 72
   100
 73
     1
 74
     1
 75
     0
 76
     0
 77
     0
 78
     0
  0
ENDTAB
  0
TABLE
  2
LTYPE
  5
13
330
0
100
AcDbSymbolTable
 70
     3
  0
LTYPE
  5
14
330
13
100
AcDbSymbolTableRecord
100
AcDbLinetypeTableRecord
  2
BYBLOCK
 70
     0
  3

 72
    65
 73
     0
 40
0.0
  0
LTYPE
  5
15
330
13
100
AcDbSymbolTableRecord
100
AcDbLinetypeTableRecord
  2
BYLAYER
 70
     0
  3

 72
    65
 73
     0
 40
0.0
  0
LTYPE
  5
6
330
13
100
AcDbSymbolTableRecord
100
AcDbLinetypeTableRecord
  2
CONTINUOUS
 70
     0
  3
Solid line
 72
    65
 73
     0
 40
0.0
  0
LTYPE
  5
100
330
13
100
AcDbSymbolTableRecord
100
AcDbLinetypeTableRecord
  2
CENTER
 70
     0
  3
____ _ ____ _ ____ _ ____ _ ____ _ ____ _ ____
 72
    65
 73
     4
 40
0.6
 49
0.375
 74
     0
 49
-0.075
 74
     0
 49
0.075
 74
     0
 49
-0.075
 74
     0
  0
LTYPE
  5
32
330
13
100
AcDbSymbolTableRecord
100
AcDbLinetypeTableRecord
  2
HIDDEN
 70
     0
  3
- - - - - - - - - - - - - - - - - - - -
 72
    65
 73
     2
 40
0.2
 49
0.1
 74
     0
 49
-0.1
 74
     0
  0
ENDTAB
  0
TABLE
  2
LAYER
  5
F
330
0
100
AcDbSymbolTable
 70
     2
  0
LAYER
  5
4
330
F
100
AcDbSymbolTableRecord
100
AcDbLayerTableRecord
  2
0
 70
     0
 62
     7
  6
CONTINUOUS
  0
LAYER
  5
FF
330
F
100
AcDbSymbolTableRecord
100
AcDbLayerTableRecord
  2
CENTER
 70
     0
 62
     1
  6
CENTER
  0
ENDTAB
  0
TABLE
  2
STYLE
  5
10
330
0
100
AcDbSymbolTable
 70
     1
  0
STYLE
  5
11
330
10
100
AcDbSymbolTableRecord
100
AcDbTextStyleTableRecord
  2
STANDARD
 70
     0
 40
0.0
 41
0.8
 50
0.0
 71
     0
 42
0.2
  3
txt
  4

  0
ENDTAB
  0
TABLE
  2
VIEW
  5
16
330
0
100
AcDbSymbolTable
 70
     0
  0
ENDTAB
  0
TABLE
  2
UCS
  5
17
330
0
100
AcDbSymbolTable
 70
     0
  0
ENDTAB
  0
TABLE
  2
APPID
  5
1A
330
0
100
AcDbSymbolTable
 70
     1
  0
APPID
  5
1B
330
1A
100
AcDbSymbolTableRecord
100
AcDbRegAppTableRecord
  2
ACAD
 70
     0
  0
ENDTAB
  0
TABLE
  2
DIMSTYLE
  5
1C
330
0
100
AcDbSymbolTable
 70
     1
  0
DIMSTYLE
105
1D
330
1C
100
AcDbSymbolTableRecord
100
AcDbDimStyleTableRecord
  2
S_TANDARD
 70
     0
  3

  4

  5
_FILLED
  6

  7

 40
16.0
 41
0.1875
 42
0.0625
 43
0.38
 44
0.18
 45
0.0
 46
0.0
 47
0.0
 48
0.0
140
0.125
141
0.09
142
0.0
143
25.4
144
1.0
145
0.0
146
1.0
147
0.09
 71
     0
 72
     0
 73
     1
 74
     1
 75
     0
 76
     0
 77
     0
 78
     4
170
     0
171
     2
172
     0
173
     0
174
     0
175
     0
176
     0
177
     0
178
     0
270
     2
271
     3
272
     3
273
     2
274
     2
340
11
275
     0
280
     0
281
     0
282
     0
283
     1
284
     4
285
     0
286
     0
287
     3
288
     0
  0
ENDTAB
  0
TABLE
  2
BLOCK_RECORD
  5
1
330
0
100
AcDbSymbolTable
 70
     1
  0
BLOCK_RECORD
  5
2
102
{ACAD_XDICTIONARY
360
295
102
}
330
1
100
AcDbSymbolTableRecord
100
AcDbBlockTableRecord
  2
*MODEL_SPACE
  0
BLOCK_RECORD
  5
B
102
{ACAD_XDICTIONARY
360
29B
102
}
330
1
100
AcDbSymbolTableRecord
100
AcDbBlockTableRecord
  2
*PAPER_SPACE
  0
BLOCK_RECORD
  5
1E
330
1
100
AcDbSymbolTableRecord
100
AcDbBlockTableRecord
  2
_FILLED
  0
ENDTAB
  0
ENDSEC
  0
SECTION
  2
BLOCKS
  0
BLOCK
  5
3
330
2
100
AcDbEntity
  8
0
100
AcDbBlockBegin
  2
*MODEL_SPACE
 70
     0
 10
0.0
 20
0.0
 30
0.0
  3
*MODEL_SPACE
  1

  0
ENDBLK
  5
7
330
2
100
AcDbEntity
  8
0
100
AcDbBlockEnd
  0
BLOCK
  5
C
330
B
100
AcDbEntity
 67
     1
  8
0
100
AcDbBlockBegin
  2
*PAPER_SPACE
 70
     0
 10
0.0
 20
0.0
 30
0.0
  3
*PAPER_SPACE
  1

  0
ENDBLK
  5
D
330
B
100
AcDbEntity
 67
     1
  8
0
100
AcDbBlockEnd
  0
BLOCK
  5
20
330
1E
100
AcDbEntity
  8
0
100
AcDbBlockBegin
  2
_FILLED
 70
     0
 10
0.0
 20
0.0
 30
0.0
  3
_FILLED
  1

  0
SOLID
  5
1F
330
1E
100
AcDbEntity
  8
0
  6
BYBLOCK
 62
     0
100
AcDbTrace
 10
0.0
 20
0.0
 30
0.0
 11
-1.0
 21
0.1666666667
 31
0.0
 12
-1.0
 22
-0.1666666667
 32
0.0
 13
-1.0
 23
-0.1666666667
 33
0.0
  0
ENDBLK
  5
21
330
1E
100
AcDbEntity
  8
0
  6
BYBLOCK
 62
     0
100
AcDbBlockEnd
  0
ENDSEC
  0
SECTION
  2
ENTITIES
  0
LWPOLYLINE
  5
28
330
2
100
AcDbEntity
  8
0
100
AcDbPolyline
 90
        5
 70
     0
 43
0.0
 10
-18.41880128668252
 20
-14.69675335854167
 10
-16.82045213628252
 20
-14.69687689134168
 10
-16.04208631548253
 20
-14.69700135854167
 10
-15.27931597308253
 20
-14.69714729134167
 10
-13.80666399548252
 20
-14.69744419854168
  0
LWPOLYLINE
  5
29
330
2
100
AcDbEntity
  8
0
100
AcDbPolyline
 90
       17
 70
     0
 43
0.0
 10
-9.076843013082523
 20
-10.88073818574168
 10
-9.435734563482526
 20
-10.96284312174167
 10
-9.837300795482533
 20
-11.05282079854168
 10
-10.27579076348253
 20
-11.14883985134168
 10
-10.75065724028253
 20
-11.25022102574167
 10
-11.26095780508252
 20
-11.35615050574167
 10
-11.80539192988253
 20
-11.46568968174167
 10
-12.38242322908253
 20
-11.57779264334167
 10
-12.99021752828252
 20
-11.69127602894167
 10
-13.62423965948252
 20
-11.80438055854167
 10
-14.27771648188253
 20
-11.91500416334168
 10
-14.94387645308252
 20
-12.02128927534168
 10
-15.61705472188252
 20
-12.12184744334167
 10
-16.29740450108252
 20
-12.21635196174167
 10
-16.98644317948253
 20
-12.30468528494167
 10
-17.68573618908253
 20
-12.38673335534168
 10
-18.40132728668253
 20
-12.46282277134168
  0
LWPOLYLINE
  5
2A
330
2
100
AcDbEntity
  8
0
100
AcDbPolyline
 90
       11
 70
     0
 43
0.0
 10
-16.27230851548253
 20
-30.95929981134168
 10
-16.38948960028253
 20
-31.11870363374168
 10
-16.52173776028253
 20
-31.27221891054168
 10
-16.66952134428252
 20
-31.41920788174167
 10
-16.83339243068252
 20
-31.55893900654167
 10
-17.01494363868252
 20
-31.69124417774168
 10
-17.21514038108253
 20
-31.81528975854168
 10
-17.43345708348252
 20
-31.92917178414168
 10
-17.66657367868252
 20
-32.02997987694168
 10
-17.89276841468253
 20
-32.11022758254168
 10
-18.09633328668252
 20
-32.16965560014168
  0
ARC
  5
2B
330
2
100
AcDbEntity
  8
0
100
AcDbCircle
 10
-16.01328711228252
 20
-34.03178136334168
 30
0.0
 40
2.0000000016
100
AcDbArc
 50
252.1222746496
 51
346.2866386672
  0
LWPOLYLINE
  5
2C
330
2
100
AcDbEntity
  8
0
100
AcDbPolyline
 90
       45
 70
     0
 43
0.0
 10
-12.84371683708252
 20
-19.77778564014167
 10
-12.92710819388253
 20
-20.04308709774167
 10
-13.03084911228252
 20
-20.33567329454168
 10
-13.14761108348253
 20
-20.65867969294168
 10
-13.27142562268252
 20
-21.02035253134168
 10
-13.39908926108252
 20
-21.42821972014167
 10
-13.53386505628253
 20
-21.89275665934168
 10
-13.66223878908252
 20
-22.35737988174168
 10
-13.78142118908253
 20
-22.80359396974167
 10
-13.90920243708252
 20
-23.30590158734167
 10
-14.04311119228252
 20
-23.87235413934168
 10
-14.18244051068252
 20
-24.51691558094168
 10
-14.32487712028252
 20
-25.24057487694168
 10
-14.46136130428253
 20
-26.00903493294168
 10
-14.56948620988252
 20
-26.69156517614168
 10
-14.65246557948252
 20
-27.28669028974167
 10
-14.71459392188252
 20
-27.80444765294168
 10
-14.75917659388253
 20
-28.25501501934168
 10
-14.78854808028252
 20
-28.64900001934167
 10
-14.80701861788253
 20
-29.01403770254168
 10
-14.82142316988253
 20
-29.33760675214168
 10
-14.83960736508253
 20
-29.62241929934167
 10
-14.86683692668252
 20
-29.87392614254167
 10
-14.90452383068253
 20
-30.09144989614168
 10
-14.95415185948253
 20
-30.29084182894168
 10
-15.01842160348252
 20
-30.48769862574168
 10
-15.09681299228252
 20
-30.68009102734168
 10
-15.18819425628253
 20
-30.86529751054168
 10
-15.29164378748252
 20
-31.04180710894168
 10
-15.40651445948252
 20
-31.20896165134168
 10
-15.53143973468253
 20
-31.36530832014168
 10
-15.66438845148252
 20
-31.50897730574168
 10
-15.80351923708252
 20
-31.63884480334167
 10
-15.94796499228253
 20
-31.75490965294168
 10
-16.09848668508253
 20
-31.85836164174168
 10
-16.25604811068252
 20
-31.95012381774168
 10
-16.42150825788253
 20
-32.03058447854167
 10
-16.59613855068252
 20
-32.09998169454168
 10
-16.78094004828253
 20
-32.15808314414168
 10
-16.97798926428252
 20
-32.20458503534167
 10
-17.18537802108252
 20
-32.23814893774167
 10
-17.39757651868252
 20
-32.25750517934168
 10
-17.59667073788253
 20
-32.26585668814168
 10
-17.77612216668252
 20
-32.27060850414167
 10
-17.92655980348253
 20
-32.27511905454167
  0
LWPOLYLINE
  5
2D
330
2
100
AcDbEntity
  8
0
100
AcDbPolyline
 90
        6
 70
     0
 43
0.0
 10
-66.19664676828254
 20
-30.79503099534167
 10
-66.09435922908253
 20
-30.95929930414168
 10
-65.97717930108252
 20
-31.11870174574168
 10
-65.84493237148253
 20
-31.27221597454168
 10
-65.69715000348253
 20
-31.41920424174168
 10
-65.53328035388253
 20
-31.55893475854168
  0
LWPOLYLINE
  5
2E
330
2
100
AcDbEntity
  8
0
100
AcDbPolyline
 90
       22
 70
     0
 43
0.0
 10
-67.46015998588252
 20
-30.10077951854167
 10
-67.41251553948252
 20
-30.29084182894168
 10
-67.34824579548252
 20
-30.48769862574168
 10
-67.26985440668252
 20
-30.68009102734168
 10
-67.17847314268252
 20
-30.86529751054168
 10
-67.07502361148252
 20
-31.04180710894168
 10
-66.96015293788253
 20
-31.20896165134168
 10
-66.83522766428253
 20
-31.36530832014168
 10
-66.70227894748252
 20
-31.50897730574168
 10
-66.56314816188253
 20
-31.63884480334167
 10
-66.41870240508253
 20
-31.75490965294168
 10
-66.26818071388253
 20
-31.85836164174168
 10
-66.11061928828252
 20
-31.95012381774168
 10
-65.94515914108253
 20
-32.03058447854167
 10
-65.77052884828254
 20
-32.09998169454168
 10
-65.58572735068253
 20
-32.15808314414168
 10
-65.38867813468252
 20
-32.20458503534167
 10
-65.18128937788254
 20
-32.23814893774167
 10
-64.96909088028252
 20
-32.25750517934168
 10
-64.76999666108253
 20
-32.26585668814168
 10
-64.59054523228252
 20
-32.27060850414167
 10
-64.44010759548253
 20
-32.27511905454167
  0
LWPOLYLINE
  5
2F
330
2
100
AcDbEntity
  8
0
100
AcDbPolyline
 90
       42
 70
     0
 43
0.0
 10
-76.21297524295332
 20
-14.69823065433781
 10
-75.88021731228252
 20
-15.25529405614167
 10
-75.56208723708252
 20
-15.78862543854168
 10
-75.24837428988252
 20
-16.34749557134168
 10
-74.93843628348253
 20
-16.91711962094167
 10
-74.63163103068253
 20
-17.49872511854167
 10
-74.32731634748254
 20
-18.09353959374168
 10
-74.07386281468252
 20
-18.60283193934167
 10
-73.82132821148252
 20
-19.12296872334168
 10
-73.56933460188253
 20
-19.65466540814168
 10
-73.31750404988253
 20
-20.19863745774168
 10
-73.06545900668253
 20
-20.75560474574167
 10
-72.81282347708253
 20
-21.32630479534167
 10
-72.55922185308254
 20
-21.91147953934167
 10
-72.30427852828253
 20
-22.51187091054168
 10
-72.13338440188252
 20
-22.92094012974168
 10
-71.96160952668254
 20
-23.33725128654168
 10
-71.78883640188252
 20
-23.76095362734167
 10
-71.61495256988253
 20
-24.19225374574168
 10
-71.43986575868253
 20
-24.63158763374168
 10
-71.26348873468254
 20
-25.07944863214167
 10
-71.08575305148253
 20
-25.53654356334168
 10
-70.90666537788253
 20
-26.00443318414168
 10
-70.72625116508253
 20
-26.48489172974167
 10
-70.59008424668252
 20
-26.85453961774168
 10
-70.45319003388252
 20
-27.23293389934168
 10
-70.31557309468252
 20
-27.62075293454167
 10
-70.17723799228253
 20
-28.01867508974167
 10
-70.03818952028253
 20
-28.42738126574168
 10
-69.89843336028252
 20
-28.84756251534168
 10
-69.75797541948253
 20
-29.27991243214167
 10
-69.61682160508252
 20
-29.72512460654167
 10
-69.47497782108253
 20
-30.18389263214167
 10
-69.33244997468253
 20
-30.65691009934168
 10
-69.18924397468252
 20
-31.14487060014168
 10
-69.04536572508252
 20
-31.64846772814168
 10
-68.92173033628253
 20
-32.09229645294168
 10
-68.79761071868253
 20
-32.54851381294168
 10
-68.67301046748252
 20
-33.01755311694167
 10
-68.54793318428253
 20
-33.49984768014167
 10
-68.42238246428252
 20
-33.99583081134167
 10
-68.29636190748252
 20
-34.50593582574168
  0
ARC
  5
30
330
2
100
AcDbEntity
  8
0
100
AcDbCircle
 10
-66.35338025308252
 20
-34.03178139694169
 30
0.0
 40
2.0
100
AcDbArc
 50
193.7143104581999
 51
287.8766058581999
  0
LINE
  5
31
330
2
100
AcDbEntity
  8
0
  6
HIDDEN
100
AcDbLine
 10
-41.18333190588252
 20
-31.58387563534168
 30
0.0
 11
-44.86837696348253
 21
-31.66826736814168
 31
0.0
  0
LWPOLYLINE
  5
33
330
2
100
AcDbEntity
  8
0
100
AcDbPolyline
 90
       10
 70
     0
 43
0.0
 10
-41.62928084988253
 20
-34.19978585454168
 10
-41.77875135068252
 20
-34.19977967054168
 10
-41.92481131868253
 20
-34.19965388494168
 10
-42.06635808348252
 20
-34.19936643534168
 10
-42.20234884508252
 20
-34.19888856014168
 10
-42.33181242748253
 20
-34.19820646094168
 10
-42.45398208188253
 20
-34.19732345454168
 10
-42.56863794428253
 20
-34.19625740654167
 10
-42.67560337948252
 20
-34.19504327054168
 10
-42.77456016668253
 20
-34.19373804174168
  0
LINE
  5
34
330
2
100
AcDbEntity
  8
0
100
AcDbLine
 10
-41.88447262268252
 20
-34.21140774254169
 30
0.0
 11
-41.18333369948253
 21
-34.21120852174169
 31
0.0
  0
LWPOLYLINE
  5
35
330
2
100
AcDbEntity
  8
0
100
AcDbPolyline
 90
       17
 70
     0
 43
0.0
 10
-42.84819571708253
 20
-34.23098775374167
 10
-42.79806918588252
 20
-34.23184036174168
 10
-42.72216833468253
 20
-34.23207929134167
 10
-42.64273207388252
 20
-34.23125838414168
 10
-42.55984320188253
 20
-34.22951209454168
 10
-42.47327140828253
 20
-34.22696470734168
 10
-42.38275730908253
 20
-34.22373707854168
 10
-42.28779465788252
 20
-34.21994227214168
 10
-42.18793037948252
 20
-34.21570162894168
 10
-42.08262889468253
 20
-34.21114728334168
 10
-41.97139172348252
 20
-34.20643427374168
 10
-41.85370182428252
 20
-34.20174484174168
 10
-41.72951670748253
 20
-34.19731090094168
 10
-41.59929623548253
 20
-34.19340285454168
 10
-41.46379494588252
 20
-34.19030930094168
 10
-41.32436162748253
 20
-34.18830633294168
 10
-41.18334442268252
 20
-34.18760920014168
  0
LWPOLYLINE
  5
36
330
2
100
AcDbEntity
  8
0
100
AcDbPolyline
 90
       21
 70
     0
 43
0.0
 10
-41.18333369948253
 20
-34.12339853294168
 10
-41.33088032188253
 20
-34.12315641774168
 10
-41.49044734748253
 20
-34.12236337934167
 10
-41.66024005628253
 20
-34.12087932814167
 10
-41.83819351868253
 20
-34.11855864494167
 10
-42.02684781788252
 20
-34.11517370094168
 10
-42.22732969308252
 20
-34.11046150734168
 10
-42.44230352828252
 20
-34.10405402734168
 10
-42.67973206108253
 20
-34.09529224654168
 10
-42.95120553628253
 20
-34.08322845294168
 10
-43.24657622268254
 20
-34.06837709934168
 10
-43.53009841148252
 20
-34.05359891214168
 10
-43.78668482428253
 20
-34.04052601934167
 10
-44.02244216668252
 20
-34.02906534254167
 10
-44.24600279388252
 20
-34.01879800014167
 10
-44.47516436988253
 20
-34.00882245774168
 10
-44.71563447708253
 20
-33.99886686414168
 10
-44.95635443228252
 20
-33.98943048494167
 10
-45.17961246748252
 20
-33.98122017294168
 10
-45.38278971868253
 20
-33.97431975854168
 10
-45.59078812188253
 20
-33.96790064014167
  0
LINE
  5
37
330
2
100
AcDbEntity
  8
0
100
AcDbLine
 10
-39.91303273148253
 20
-34.69823679534168
 30
0.0
 11
-42.45363471708252
 21
-34.69823679534168
 31
0.0
  0
ARC
  5
38
330
2
100
AcDbEntity
  8
0
100
AcDbCircle
 10
-41.18333369948253
 20
-115.6218674129416
 30
0.0
 40
83.0486306176
100
AcDbArc
 50
80.95052009479999
 51
99.0494799052
  0
ARC
  5
39
330
2
100
AcDbEntity
  8
0
100
AcDbCircle
 10
-41.18333369948253
 20
-112.0732367953416
 30
0.0
 40
80.0
100
AcDbArc
 50
72.1244501208
 51
107.8755872904999
  0
LINE
  5
3A
330
2
100
AcDbEntity
  8
0
100
AcDbLine
 10
-62.49583369948253
 20
-40.32323679534168
 30
0.0
 11
-19.87083369948253
 21
-40.32323679534168
 31
0.0
  0
LWPOLYLINE
  5
3B
330
2
100
AcDbEntity
  8
0
  6
HIDDEN
100
AcDbPolyline
 90
        4
 70
     0
 43
0.0
 10
-54.15281640828253
 20
-32.63418905614168
 10
-54.95013860828253
 20
-32.76781027534168
 10
-55.70829519228253
 20
-32.90245063374168
 10
-56.42555731868253
 20
-33.03667818094167
  0
LINE
  5
3C
330
2
100
AcDbEntity
  8
0
100
AcDbLine
 10
-54.82642602428253
 20
-32.59745221614169
 30
0.0
 11
-54.34378057948253
 21
-32.61192799854168
 31
0.0
  0
LWPOLYLINE
  5
3D
330
2
100
AcDbEntity
  8
0
100
AcDbPolyline
 90
       30
 70
     0
 43
0.0
 10
-62.49583369948253
 20
-35.35448679534168
 10
-62.40455652988252
 20
-35.33030652974167
 10
-62.33366429628253
 20
-35.31160304334167
 10
-62.24265001468253
 20
-35.28768885934168
 10
-62.13162771708253
 20
-35.25866672174167
 10
-62.00073415708253
 20
-35.22466046094168
 10
-61.85016524188252
 20
-35.18582374094167
 10
-61.68013008988253
 20
-35.14232724814167
 10
-61.49093577948253
 20
-35.09437927854168
 10
-61.28287912988253
 20
-35.04219676974168
 10
-61.05640859228253
 20
-34.98604446894168
 10
-60.81192100988253
 20
-34.92618222574167
 10
-60.55003076828253
 20
-34.86292925614167
 10
-60.27124195868253
 20
-34.79658172974168
 10
-59.97634744668253
 20
-34.72750616494168
 10
-59.66595862428253
 20
-34.65602508814168
 10
-59.34104289788253
 20
-34.58253965134167
 10
-59.00231158908253
 20
-34.50738612494168
 10
-58.65088495228253
 20
-34.43098306734167
 10
-58.28756092028253
 20
-34.35366662894168
 10
-57.91357543868253
 20
-34.27585301294168
 10
-57.52979706108253
 20
-34.19786491374168
 10
-57.13753031388254
 20
-34.12009652494168
 10
-56.73769896668253
 20
-34.04284579214167
 10
-56.33162464508252
 20
-33.96646753614168
 10
-55.92027742428253
 20
-33.89122727534167
 10
-55.50494994108253
 20
-33.81742770574168
 10
-55.08664632508253
 20
-33.74529600494168
 10
-54.66658317468253
 20
-33.67507350894168
 10
-54.24583369948253
 20
-33.60695327374168
  0
LWPOLYLINE
  5
3E
330
2
100
AcDbEntity
  8
0
100
AcDbPolyline
 90
       30
 70
     0
 43
0.0
 10
-54.24583369948253
 20
-33.60695327374168
 10
-54.63470740348252
 20
-33.67507336494168
 10
-55.02294542428252
 20
-33.74529545774167
 10
-55.40955986428253
 20
-33.81742723534168
 10
-55.79342098908253
 20
-33.89122637134168
 10
-56.17360671068253
 20
-33.96646684014168
 10
-56.54891607068252
 20
-34.04284471374168
 10
-56.91845822908253
 20
-34.12009564334168
 10
-57.28100679388252
 20
-34.19786379054168
 10
-57.63571166748253
 20
-34.27585200014168
 10
-57.98136473148253
 20
-34.35366555054168
 10
-58.31716425148253
 20
-34.43098197454168
 10
-58.64196821788253
 20
-34.50738514254167
 10
-58.95503759868253
 20
-34.58253853454167
 10
-59.25533961308253
 20
-34.65602422734168
 10
-59.54221335388253
 20
-34.72750509294167
 10
-59.81476880348253
 20
-34.79658100654168
 10
-60.07243639228253
 20
-34.86292829934168
 10
-60.31448796188253
 20
-34.92618164974167
 10
-60.54045300668253
 20
-34.98604368494167
 10
-60.74976804668253
 20
-35.04219634254168
 10
-60.94206228828253
 20
-35.09437869934168
 10
-61.11692478108253
 20
-35.14232696174168
 10
-61.27407817308252
 20
-35.18582336814167
 10
-61.41324110588253
 20
-35.22466029454168
 10
-61.53421836348253
 20
-35.25866652014168
 10
-61.63683032188252
 20
-35.28768878094167
 10
-61.72094956828253
 20
-35.31160296014167
 10
-61.78647137948253
 20
-35.33030650414168
 10
-61.87083369948253
 20
-35.35448679534168
  0
LINE
  5
3F
330
2
100
AcDbEntity
  8
0
100
AcDbLine
 10
-64.44010759548253
 20
-32.27511905454168
 30
0.0
 11
-49.49761565148254
 21
-32.78294177774168
 31
0.0
  0
LINE
  5
40
330
2
100
AcDbEntity
  8
0
  6
HIDDEN
100
AcDbLine
 10
-56.65340946748253
 20
-40.32323679534168
 30
0.0
 11
-56.65340946748253
 21
-34.02699183534169
 31
0.0
  0
LINE
  5
41
330
2
100
AcDbEntity
  8
0
  6
HIDDEN
100
AcDbLine
 10
-61.87083369948253
 20
-40.32323679534168
 30
0.0
 11
-61.87083369948253
 21
-35.35448679534168
 31
0.0
  0
LINE
  5
42
330
2
100
AcDbEntity
  8
0
100
AcDbLine
 10
-62.49583369948253
 20
-40.32323679534168
 30
0.0
 11
-62.49583369948253
 21
-35.35448679534168
 31
0.0
  0
LINE
  5
43
330
2
100
AcDbEntity
  8
0
100
AcDbLine
 10
-61.39294956188253
 20
-35.06980344014168
 30
0.0
 11
-60.99323134268252
 21
-39.63860360174168
 31
0.0
  0
ARC
  5
44
330
2
100
AcDbEntity
  8
0
100
AcDbCircle
 10
-60.24608531868253
 20
-39.57323679534168
 30
0.0
 40
0.75
100
AcDbArc
 50
185.0
 51
270.0
  0
LINE
  5
45
330
2
100
AcDbEntity
  8
0
100
AcDbLine
 10
-58.98799920188253
 20
-38.09055326574169
 30
0.0
 11
-59.12343604668253
 21
-39.63860349454168
 31
0.0
  0
ARC
  5
46
330
2
100
AcDbEntity
  8
0
100
AcDbCircle
 10
-59.87058208028253
 20
-39.57323679534168
 30
0.0
 40
0.75
100
AcDbArc
 50
270.0000988327
 51
355.0000082883
  0
LINE
  5
47
330
2
100
AcDbEntity
  8
0
100
AcDbLine
 10
-56.65340946748253
 20
-37.74823679534168
 30
0.0
 11
-58.61442620028253
 21
-37.74823679534168
 31
0.0
  0
ARC
  5
48
330
2
100
AcDbEntity
  8
0
100
AcDbCircle
 10
-58.61442620028253
 20
-38.12323679534168
 30
0.0
 40
0.375
100
AcDbArc
 50
90.0
 51
174.9999807867
  0
LINE
  5
49
330
2
100
AcDbEntity
  8
0
100
AcDbLine
 10
-61.48305129148252
 20
-32.37708748974168
 30
0.0
 11
-60.26517348668253
 21
-32.41983604334169
 31
0.0
  0
LINE
  5
4A
330
2
100
AcDbEntity
  8
0
100
AcDbLine
 10
-62.49583369948253
 20
-35.35448679534168
 30
0.0
 11
-61.87083369948253
 21
-35.35448679534168
 31
0.0
  0
LINE
  5
4B
330
2
100
AcDbEntity
  8
0
100
AcDbLine
 10
-61.40145859548252
 20
-34.97254474094168
 30
0.0
 11
-61.39294956188253
 21
-35.06980344014168
 31
0.0
  0
LINE
  5
4C
330
2
100
AcDbEntity
  8
0
100
AcDbLine
 10
-63.88809032668253
 20
-32.29355571374169
 30
0.0
 11
-63.94210872348253
 21
-32.29170409294168
 31
0.0
  0
LINE
  5
4D
330
2
100
AcDbEntity
  8
0
100
AcDbLine
 10
-62.70473632828253
 20
-32.33400666894169
 30
0.0
 11
-64.28752637148253
 21
-32.27998195054169
 31
0.0
  0
LWPOLYLINE
  5
4E
330
2
100
AcDbEntity
  8
0
100
AcDbPolyline
 90
       10
 70
     0
 43
0.0
 10
-65.35173160668254
 20
-31.69123889774168
 10
-65.15153811868254
 20
-31.81528343374167
 10
-64.93322391868253
 20
-31.92916530574168
 10
-64.70010869148253
 20
-32.02997402414168
 10
-64.47391390748252
 20
-32.11022279854168
 10
-64.27034844348253
 20
-32.16965181294168
 10
-64.08688872188253
 20
-32.21380080974167
 10
-63.92103720508252
 20
-32.24664293454168
 10
-63.77083612028253
 20
-32.27090976174167
 10
-63.63479274748253
 20
-32.28854401934167
  0
LINE
  5
4F
330
2
100
AcDbEntity
  8
0
100
AcDbLine
 10
-64.34861074588252
 20
-32.27801693134169
 30
0.0
 11
-64.44010759548253
 21
-32.27511905454168
 31
0.0
  0
LINE
  5
50
330
2
100
AcDbEntity
  8
0
100
AcDbLine
 10
-65.53327496828252
 20
-31.55893900654168
 30
0.0
 11
-65.35172376028254
 21
-31.69124417774169
 31
0.0
  0
LINE
  5
51
330
2
100
AcDbEntity
  8
0
100
AcDbLine
 10
-64.18656781308252
 20
-32.28338999214168
 30
0.0
 11
-64.34861074588252
 21
-32.27801693134169
 31
0.0
  0
LINE
  5
52
330
2
100
AcDbEntity
  8
0
100
AcDbLine
 10
-61.35467824668253
 20
-32.38159790094168
 30
0.0
 11
-61.43161584828252
 21
-32.37889328334169
 31
0.0
  0
LINE
  5
53
330
2
100
AcDbEntity
  8
0
100
AcDbLine
 10
-61.09705144028253
 20
-32.39066182574168
 30
0.0
 11
-60.99957756988253
 21
-32.39408991534169
 31
0.0
  0
LINE
  5
54
330
2
100
AcDbEntity
  8
0
100
AcDbLine
 10
-62.43536334908253
 20
-32.34383651694168
 30
0.0
 11
-61.48300587228253
 21
-32.37708906254168
 31
0.0
  0
LINE
  5
55
330
2
100
AcDbEntity
  8
0
100
AcDbLine
 10
-61.96981234588253
 20
-32.36007283534169
 30
0.0
 11
-61.58861294748253
 21
-32.37338309454168
 31
0.0
  0
LINE
  5
56
330
2
100
AcDbEntity
  8
0
100
AcDbLine
 10
-61.50828262428253
 20
-32.37620074574168
 30
0.0
 11
-61.58871018428252
 21
-32.37337966574168
 31
0.0
  0
LINE
  5
57
330
2
100
AcDbEntity
  8
0
100
AcDbLine
 10
-61.48305129148252
 20
-32.37708748974168
 30
0.0
 11
-61.50839198748252
 21
-32.37619688494168
 31
0.0
  0
LINE
  5
58
330
2
100
AcDbEntity
  8
0
100
AcDbLine
 10
-62.30384332348254
 20
-32.34841215054168
 30
0.0
 11
-62.22912301148253
 21
-32.35101886894168
 31
0.0
  0
LINE
  5
59
330
2
100
AcDbEntity
  8
0
100
AcDbLine
 10
-62.22925044508253
 20
-32.35101443534169
 30
0.0
 11
-62.06320545308253
 21
-32.35681415694168
 31
0.0
  0
LINE
  5
5A
330
2
100
AcDbEntity
  8
0
100
AcDbLine
 10
-62.50290611228253
 20
-32.34149152974168
 30
0.0
 11
-62.44006816668252
 21
-32.34367264494168
 31
0.0
  0
LINE
  5
5B
330
2
100
AcDbEntity
  8
0
100
AcDbLine
 10
-62.44017486428254
 20
-32.34366895214168
 30
0.0
 11
-62.43536334908253
 21
-32.34383651694168
 31
0.0
  0
LINE
  5
5C
330
2
100
AcDbEntity
  8
0
100
AcDbLine
 10
-63.63478052988253
 20
-32.28854541934168
 30
0.0
 11
-63.51182379068252
 21
-32.30093199854168
 31
0.0
  0
LWPOLYLINE
  5
5D
330
2
100
AcDbEntity
  8
0
100
AcDbPolyline
 90
        3
 70
     0
 43
0.0
 10
-63.51183542588253
 20
-32.30093098734168
 10
-63.40116714108253
 20
-32.30910894574167
 10
-63.30365212828253
 20
-32.31376152654168
  0
LINE
  5
5E
330
2
100
AcDbEntity
  8
0
100
AcDbLine
 10
-63.10520610108253
 20
-32.32063735854168
 30
0.0
 11
-62.90800676508253
 21
-32.32746625454168
 31
0.0
  0
LINE
  5
5F
330
2
100
AcDbEntity
  8
0
100
AcDbLine
 10
-63.10520610108253
 20
-32.32063735854168
 30
0.0
 11
-63.10833767068253
 21
-32.32052858734168
 31
0.0
  0
LINE
  5
60
330
2
100
AcDbEntity
  8
0
100
AcDbLine
 10
-63.83573246588253
 20
-32.29535938574168
 30
0.0
 11
-63.10489539868253
 21
-32.32064811214168
 31
0.0
  0
LINE
  5
61
330
2
100
AcDbEntity
  8
0
100
AcDbLine
 10
-62.90832190588253
 20
-32.32745535534168
 30
0.0
 11
-62.43509079708252
 21
-32.34384597294168
 31
0.0
  0
LWPOLYLINE
  5
62
330
2
100
AcDbEntity
  8
0
100
AcDbPolyline
 90
        4
 70
     0
 43
0.0
 10
-62.50283250748253
 20
-32.34149407214168
 10
-62.56072802748253
 20
-32.33948672334168
 10
-62.61202352508252
 20
-32.33770963694168
 10
-62.65801175548252
 20
-32.33611728974167
  0
LINE
  5
63
330
2
100
AcDbEntity
  8
0
100
AcDbLine
 10
-61.34718293788253
 20
-32.38022649134169
 30
0.0
 11
-62.94909240348252
 21
-32.32566922094168
 31
0.0
  0
LINE
  5
64
330
2
100
AcDbEntity
  8
0
100
AcDbLine
 10
-60.99969075388253
 20
-32.39408590894168
 30
0.0
 11
-60.89499634908253
 21
-32.39776563214168
 31
0.0
  0
LINE
  5
65
330
2
100
AcDbEntity
  8
0
100
AcDbLine
 10
-56.65340946748253
 20
-34.02699183534169
 30
0.0
 11
-56.65340946748253
 21
-33.58760577934168
 31
0.0
  0
LINE
  5
66
330
2
100
AcDbEntity
  8
0
100
AcDbLine
 10
-57.71926110588252
 20
-32.50637734574169
 30
0.0
 11
-57.15373359868253
 21
-32.52479540014168
 31
0.0
  0
LINE
  5
67
330
2
100
AcDbEntity
  8
0
100
AcDbLine
 10
-58.98575011548253
 20
-32.46400388814169
 30
0.0
 11
-58.84573871388252
 21
-32.46876097934169
 31
0.0
  0
LINE
  5
68
330
2
100
AcDbEntity
  8
0
100
AcDbLine
 10
-58.56406214268253
 20
-32.47827872654168
 30
0.0
 11
-58.42222241468252
 21
-32.48304399694168
 31
0.0
  0
LINE
  5
69
330
2
100
AcDbEntity
  8
0
100
AcDbLine
 10
-58.79058442588252
 20
-32.47063141774168
 30
0.0
 11
-58.26345349468252
 21
-32.48835655054168
 31
0.0
  0
LINE
  5
6A
330
2
100
AcDbEntity
  8
0
100
AcDbLine
 10
-58.26399985468253
 20
-32.48833828654168
 30
0.0
 11
-57.71875179388253
 21
-32.50639409934168
 31
0.0
  0
LINE
  5
6B
330
2
100
AcDbEntity
  8
0
100
AcDbLine
 10
-60.52207855868252
 20
-32.41084870734168
 30
0.0
 11
-60.65809840188252
 21
-32.40608152174168
 31
0.0
  0
LINE
  5
6C
330
2
100
AcDbEntity
  8
0
100
AcDbLine
 10
-60.70732895228252
 20
-32.40435602894168
 30
0.0
 11
-60.65797122588254
 21
-32.40608600974168
 31
0.0
  0
LINE
  5
6D
330
2
100
AcDbEntity
  8
0
100
AcDbLine
 10
-60.26554705948253
 20
-32.41982296654168
 30
0.0
 11
-59.79181649148253
 21
-32.43630865774168
 31
0.0
  0
LINE
  5
6E
330
2
100
AcDbEntity
  8
0
100
AcDbLine
 10
-60.24087851388253
 20
-32.42068295214169
 30
0.0
 11
-60.10161237308253
 21
-32.42554044494168
 31
0.0
  0
LINE
  5
6F
330
2
100
AcDbEntity
  8
0
100
AcDbLine
 10
-60.24086228988252
 20
-32.42068348814168
 30
0.0
 11
-60.26517348668253
 21
-32.41983604334169
 31
0.0
  0
LINE
  5
70
330
2
100
AcDbEntity
  8
0
100
AcDbLine
 10
-59.79231579548252
 20
-32.43629132174168
 30
0.0
 11
-59.29908100988253
 21
-32.45329921134168
 31
0.0
  0
LINE
  5
71
330
2
100
AcDbEntity
  8
0
100
AcDbLine
 10
-59.29963734908253
 20
-32.45328009934169
 30
0.0
 11
-58.79001691068253
 21
-32.47065066734168
 31
0.0
  0
LINE
  5
72
330
2
100
AcDbEntity
  8
0
100
AcDbLine
 10
-55.93927385468252
 20
-32.56331120334168
 30
0.0
 11
-55.58450967388253
 21
-32.57431116494168
 31
0.0
  0
LINE
  5
73
330
2
100
AcDbEntity
  8
0
100
AcDbLine
 10
-55.88711678108253
 20
-32.56493527534169
 30
0.0
 11
-55.27494822268252
 21
-32.58382040494168
 31
0.0
  0
LINE
  5
74
330
2
100
AcDbEntity
  8
0
100
AcDbLine
 10
-55.27514220348253
 20
-32.58381446734169
 30
0.0
 11
-54.82620625628253
 21
-32.59745886254168
 31
0.0
  0
LINE
  5
75
330
2
100
AcDbEntity
  8
0
100
AcDbLine
 10
-56.45350566108253
 20
-32.54664180974168
 30
0.0
 11
-56.22043024988252
 21
-32.55449333134169
 31
0.0
  0
LINE
  5
76
330
2
100
AcDbEntity
  8
0
100
AcDbLine
 10
-56.16323307708253
 20
-32.55609545614168
 30
0.0
 11
-56.42847494908252
 21
-32.54747009454169
 31
0.0
  0
LINE
  5
77
330
2
100
AcDbEntity
  8
0
100
AcDbLine
 10
-57.55233434908253
 20
-32.51184615694168
 30
0.0
 11
-57.15421176348254
 21
-32.52477994254168
 31
0.0
  0
LINE
  5
78
330
2
100
AcDbEntity
  8
0
100
AcDbLine
 10
-57.15421176348254
 20
-32.52477994254168
 30
0.0
 11
-56.56250818428254
 21
-32.54371712654168
 31
0.0
  0
LINE
  5
79
330
2
100
AcDbEntity
  8
0
100
AcDbLine
 10
-56.07775358268253
 20
-32.55898750894168
 30
0.0
 11
-56.26252911708253
 21
-32.55319189134168
 31
0.0
  0
LINE
  5
7A
330
2
100
AcDbEntity
  8
0
100
AcDbLine
 10
-55.85928672348252
 20
-32.56575471534169
 30
0.0
 11
-56.16323307708253
 21
-32.55609545614168
 31
0.0
  0
LINE
  5
7B
330
2
100
AcDbEntity
  8
0
100
AcDbLine
 10
-56.56296451388254
 20
-32.54370263854168
 30
0.0
 11
-55.93883509788253
 21
-32.56332488014168
 31
0.0
  0
LWPOLYLINE
  5
7C
330
2
100
AcDbEntity
  8
0
100
AcDbPolyline
 90
        3
 70
     0
 43
0.0
 10
-56.45426233308253
 20
-33.04176996654168
 10
-56.53603413308252
 20
-33.05537504334167
 10
-56.59966371228254
 20
-33.06627619374168
  0
LINE
  5
7D
330
2
100
AcDbEntity
  8
0
100
AcDbLine
 10
-56.65340946588253
 20
-33.07571359374168
 30
0.0
 11
-56.59695313468254
 21
-33.06581181134168
 31
0.0
  0
LINE
  5
7E
330
2
100
AcDbEntity
  8
0
100
AcDbLine
 10
-56.65340946748253
 20
-33.58760577934168
 30
0.0
 11
-56.65340946748253
 21
-33.07571306254168
 31
0.0
  0
LINE
  5
7F
330
2
100
AcDbEntity
  8
0
100
AcDbLine
 10
-54.24583369948253
 20
-40.32323679534168
 30
0.0
 11
-54.24583369948253
 21
-33.60695327374168
 31
0.0
  0
LINE
  5
80
330
2
100
AcDbEntity
  8
0
  6
HIDDEN
100
AcDbLine
 10
-44.86834481628252
 20
-31.66826663214168
 30
0.0
 11
-48.25762691228253
 21
-31.89523687374169
 31
0.0
  0
LWPOLYLINE
  5
81
330
2
100
AcDbEntity
  8
0
100
AcDbPolyline
 90
       33
 70
     0
 43
0.0
 10
-48.29117162428253
 20
-33.90935003534168
 10
-48.16681611708253
 20
-33.92205005934167
 10
-48.02245098268253
 20
-33.93670982094167
 10
-47.88317261468253
 20
-33.95064664334167
 10
-47.74026416188253
 20
-33.96468223374167
 10
-47.58683932028254
 20
-33.97941145454167
 10
-47.41816354428253
 20
-33.99514643854168
 10
-47.23487082108252
 20
-34.01164695694168
 10
-47.03833964988253
 20
-34.02863951534168
 10
-46.83091456508252
 20
-34.04582244814168
 10
-46.61266328668253
 20
-34.06306521934168
 10
-46.38219988828253
 20
-34.08026767694168
 10
-46.13856717788253
 20
-34.09723521454167
 10
-45.88087558268253
 20
-34.11371203374168
 10
-45.60941044508253
 20
-34.12943688334168
 10
-45.32941207068252
 20
-34.14399363214168
 10
-45.05084238268253
 20
-34.15688252814168
 10
-44.78398623388253
 20
-34.16780558414168
 10
-44.53429966588252
 20
-34.17682135694168
 10
-44.29902574748253
 20
-34.18428809134168
 10
-44.07460196988253
 20
-34.19050216334167
 10
-43.85776854108253
 20
-34.19566853134168
 10
-43.64779493788252
 20
-34.19987260334168
 10
-43.44505843868252
 20
-34.20318089614168
 10
-43.24972012828253
 20
-34.20571316654168
 10
-43.06109558108253
 20
-34.20760029774168
 10
-42.87872458108252
 20
-34.20896563694167
 10
-42.70203866908253
 20
-34.20992738734168
 10
-42.53044298108252
 20
-34.21058088014167
 10
-42.36338513788253
 20
-34.21100169454168
 10
-42.20035579068253
 20
-34.21124978414168
 10
-42.04086719708253
 20
-34.21137274734167
 10
-41.88447262268252
 20
-34.21140774254168
  0
LWPOLYLINE
  5
82
330
2
100
AcDbEntity
  8
0
100
AcDbPolyline
 90
        5
 70
     0
 43
0.0
 10
-48.68839209148252
 20
-32.76527141614168
 10
-47.72780930748253
 20
-32.78846141774168
 10
-47.71306800828253
 20
-32.78914108974167
 10
-47.69840537628252
 20
-32.79007912654167
 10
-47.68381995228253
 20
-32.79127275694168
  0
LINE
  5
83
330
2
100
AcDbEntity
  8
0
100
AcDbLine
 10
-47.74262010268252
 20
-32.78804352974168
 30
0.0
 11
-48.41593785308252
 21
-32.78633964974168
 31
0.0
  0
LWPOLYLINE
  5
84
330
2
100
AcDbEntity
  8
0
100
AcDbPolyline
 90
       26
 70
     0
 43
0.0
 10
-49.00360877148253
 20
-33.39449398574168
 10
-48.99443156348254
 20
-33.45232485134168
 10
-48.97584888188252
 20
-33.51694784654167
 10
-48.94993835708253
 20
-33.57676265934168
 10
-48.91829514428252
 20
-33.63049076974167
 10
-48.88282611708253
 20
-33.67727746894168
 10
-48.84546561788252
 20
-33.71687268974167
 10
-48.80793867068253
 20
-33.74956647054168
 10
-48.77154701628253
 20
-33.77607656654168
 10
-48.73702702428253
 20
-33.79739007374168
 10
-48.70464753788254
 20
-33.81452650254168
 10
-48.67437678108252
 20
-33.82839295214167
 10
-48.64599847388253
 20
-33.83974305774168
 10
-48.61918050428252
 20
-33.84918271534167
 10
-48.59348402748253
 20
-33.85719971374168
 10
-48.56847678588252
 20
-33.86415778574168
 10
-48.54378114428254
 20
-33.87031860814168
 10
-48.51906235868253
 20
-33.87587310254168
 10
-48.49403023548252
 20
-33.88095974734167
 10
-48.46839676508253
 20
-33.88568519534167
 10
-48.44184793948253
 20
-33.89013561294167
 10
-48.41408062588254
 20
-33.89437465134168
 10
-48.38481587548253
 20
-33.89844708174168
 10
-48.35375451068253
 20
-33.90238880814168
 10
-48.32058261788254
 20
-33.90622639694167
 10
-48.29106143708253
 20
-33.90936128814168
  0
LINE
  5
85
330
2
100
AcDbEntity
  8
0
100
AcDbLine
 10
-48.53669914268252
 20
-33.96836144654168
 30
0.0
 11
-48.53680551548253
 21
-33.96856489614168
 31
0.0
  0
LINE
  5
86
330
2
100
AcDbEntity
  8
0
100
AcDbLine
 10
-48.53066833468253
 20
-33.84374165614168
 30
0.0
 11
-48.53058707548253
 21
-33.84353706734168
 31
0.0
  0
LINE
  5
87
330
2
100
AcDbEntity
  8
0
  6
HIDDEN
100
AcDbLine
 10
-48.25751826268252
 20
-31.89522959854169
 30
0.0
 11
-51.34811797148252
 21
-32.22777054254168
 31
0.0
  0
LINE
  5
88
330
2
100
AcDbEntity
  8
0
100
AcDbLine
 10
-51.22075545148253
 20
-32.70057144654169
 30
0.0
 11
-51.52346696988253
 21
-32.69238299374169
 31
0.0
  0
LINE
  5
89
330
2
100
AcDbEntity
  8
0
  6
HIDDEN
100
AcDbLine
 10
-54.12587844188253
 20
-32.62981144974169
 30
0.0
 11
-51.34804317788253
 21
-32.22776249454168
 31
0.0
  0
LINE
  5
8A
330
2
100
AcDbEntity
  8
0
100
AcDbLine
 10
-52.12509276188253
 20
-32.67583913614169
 30
0.0
 11
-52.42242913948253
 21
-32.66753400494168
 31
0.0
  0
LINE
  5
8B
330
2
100
AcDbEntity
  8
0
100
AcDbLine
 10
-51.52303886748253
 20
-32.69239468814169
 30
0.0
 11
-51.85600734908253
 21
-32.68327824654169
 31
0.0
  0
LINE
  5
8C
330
2
100
AcDbEntity
  8
0
100
AcDbLine
 10
-52.12547292348253
 20
-32.67582852814168
 30
0.0
 11
-51.82534685948254
 21
-32.68412589934168
 31
0.0
  0
LINE
  5
8D
330
2
100
AcDbEntity
  8
0
100
AcDbLine
 10
-54.12587746428252
 20
-32.62981138734168
 30
0.0
 11
-54.15281657308253
 21
-32.63418802734168
 31
0.0
  0
LINE
  5
8E
330
2
100
AcDbEntity
  8
0
100
AcDbLine
 10
-54.34402628668253
 20
-32.61192066414168
 30
0.0
 11
-53.82879299388253
 21
-32.62715190894168
 31
0.0
  0
LINE
  5
8F
330
2
100
AcDbEntity
  8
0
100
AcDbLine
 10
-53.82906801148253
 20
-32.62714381614169
 30
0.0
 11
-53.28483520668253
 21
-32.64298141614168
 31
0.0
  0
LINE
  5
90
330
2
100
AcDbEntity
  8
0
100
AcDbLine
 10
-53.00269399228253
 20
-32.65108859214169
 30
0.0
 11
-53.28512483548253
 21
-32.64297302734169
 31
0.0
  0
LINE
  5
91
330
2
100
AcDbEntity
  8
0
100
AcDbLine
 10
-52.71487393948253
 20
-32.65928460334169
 30
0.0
 11
-53.00300473628253
 21
-32.65107966894168
 31
0.0
  0
LINE
  5
92
330
2
100
AcDbEntity
  8
0
100
AcDbLine
 10
-52.42208891548253
 20
-32.66754359534168
 30
0.0
 11
-52.71519909308253
 21
-32.65927535054168
 31
0.0
  0
LINE
  5
93
330
2
100
AcDbEntity
  8
0
100
AcDbLine
 10
-50.61787820668254
 20
-32.71659679534169
 30
0.0
 11
-50.91925841308253
 21
-32.70863364974168
 31
0.0
  0
LINE
  5
94
330
2
100
AcDbEntity
  8
0
100
AcDbLine
 10
-50.31907394108253
 20
-32.72439399694168
 30
0.0
 11
-50.61835361148253
 21
-32.71658426254168
 31
0.0
  0
LINE
  5
95
330
2
100
AcDbEntity
  8
0
100
AcDbLine
 10
-50.02362435708253
 20
-32.73200608014168
 30
0.0
 11
-50.31961752508253
 21
-32.72437985294168
 31
0.0
  0
LINE
  5
96
330
2
100
AcDbEntity
  8
0
100
AcDbLine
 10
-49.72975792988252
 20
-32.73948073294168
 30
0.0
 11
-50.02431859228252
 21
-32.73198825934168
 31
0.0
  0
LINE
  5
97
330
2
100
AcDbEntity
  8
0
100
AcDbLine
 10
-50.91881932188252
 20
-32.70864537134169
 30
0.0
 11
-51.22119236188253
 21
-32.70055964654168
 31
0.0
  0
LINE
  5
98
330
2
100
AcDbEntity
  8
0
100
AcDbLine
 10
-49.07980001468253
 20
-32.75568786414168
 30
0.0
 11
-48.68759018268253
 21
-32.76529091374168
 31
0.0
  0
LINE
  5
99
330
2
100
AcDbEntity
  8
0
100
AcDbLine
 10
-48.84500855708252
 20
-32.78511059054168
 30
0.0
 11
-49.26984084508252
 21
-32.78375145454168
 31
0.0
  0
LINE
  5
9A
330
2
100
AcDbEntity
  8
0
100
AcDbLine
 10
-48.33707466428252
 20
-32.78655248974168
 30
0.0
 11
-48.90793541788252
 21
-32.78491958894168
 31
0.0
  0
LINE
  5
9B
330
2
100
AcDbEntity
  8
0
100
AcDbLine
 10
-49.00423214748252
 20
-33.38786484494169
 30
0.0
 11
-49.00423617788253
 21
-33.38781775534168
 31
0.0
  0
LINE
  5
9C
330
2
100
AcDbEntity
  8
0
100
AcDbLine
 10
-49.01725179228254
 20
-33.23904941294169
 30
0.0
 11
-49.00406948348252
 21
-33.38968282254168
 31
0.0
  0
LINE
  5
9D
330
2
100
AcDbEntity
  8
0
100
AcDbLine
 10
-49.12876480828252
 20
-33.39866418574168
 30
0.0
 11
-49.12855225628253
 21
-33.40104237614168
 31
0.0
  0
LINE
  5
9E
330
2
100
AcDbEntity
  8
0
100
AcDbLine
 10
-49.00406254428253
 20
-33.38976280014168
 30
0.0
 11
-49.00361791548253
 21
-33.39440299694168
 31
0.0
  0
LINE
  5
9F
330
2
100
AcDbEntity
  8
0
100
AcDbLine
 10
-49.00421695068253
 20
-33.38802641614168
 30
0.0
 11
-49.00422486428253
 21
-33.38794431534168
 31
0.0
  0
LWPOLYLINE
  5
A0
330
2
100
AcDbEntity
  8
0
100
AcDbPolyline
 90
       19
 70
     0
 43
0.0
 10
-49.49761565148254
 20
-32.78294177774167
 10
-49.47118020508253
 20
-32.78458191694168
 10
-49.44156460508253
 20
-32.78810132494168
 10
-49.41059215068253
 20
-32.79372437614168
 10
-49.37857881788253
 20
-32.80169697934168
 10
-49.34574025788252
 20
-32.81227326414168
 10
-49.31237165788252
 20
-32.82568066254167
 10
-49.27880359708253
 20
-32.84212044334168
 10
-49.24539929308252
 20
-32.86176252334168
 10
-49.21255493948253
 20
-32.88473818574168
 10
-49.18069653148252
 20
-32.91113342254168
 10
-49.15027104828253
 20
-32.94098706574168
 10
-49.12168514108252
 20
-32.97436002734168
 10
-49.09534480348253
 20
-33.01134072814168
 10
-49.07172339708253
 20
-33.05198420174168
 10
-49.05136651708253
 20
-33.09629384814167
 10
-49.03489265148252
 20
-33.14420193454167
 10
-49.02299045948253
 20
-33.19554722894167
 10
-49.01725179228254
 20
-33.23904941294168
  0
LINE
  5
A1
330
2
100
AcDbEntity
  8
0
100
AcDbLine
 10
-49.42333498588253
 20
-32.74717343374168
 30
0.0
 11
-49.07923813148252
 21
-32.75570166734169
 31
0.0
  0
LWPOLYLINE
  5
A2
330
2
100
AcDbEntity
  8
0
100
AcDbPolyline
 90
        5
 70
     0
 43
0.0
 10
-49.22743502268253
 20
-32.78389603374167
 10
-49.42945045948253
 20
-32.78317744494168
 10
-49.45040211068253
 20
-32.78309846094168
 10
-49.46762514108254
 20
-32.78303302414168
 10
-49.49836632988253
 20
-32.78291570094168
  0
ARC
  5
A3
330
2
100
AcDbEntity
  8
0
100
AcDbCircle
 10
-49.51534907708253
 20
-33.28262720494169
 30
0.0
 40
0.5
100
AcDbArc
 50
5.0
 51
87.9674711408
  0
LINE
  5
A4
330
2
100
AcDbEntity
  8
0
100
AcDbLine
 10
-49.42318852828252
 20
-32.74717712974168
 30
0.0
 11
-49.73039494908253
 21
-32.73946459054168
 31
0.0
  0
LWPOLYLINE
  5
A5
330
2
100
AcDbEntity
  8
0
100
AcDbPolyline
 90
       13
 70
     0
 43
0.0
 10
-46.64704810108253
 20
-33.95708294734168
 10
-46.69761490428252
 20
-33.95087423214167
 10
-46.74725684188253
 20
-33.93856296014168
 10
-46.79535945468252
 20
-33.92030156814168
 10
-46.84132733468253
 20
-33.89631613294167
 10
-46.88459150748252
 20
-33.86690357134168
 10
-46.92461645308253
 20
-33.83242796174168
 10
-46.96090674748252
 20
-33.79331604654167
 10
-46.99301318588253
 20
-33.75005194574168
 10
-47.02053833628252
 20
-33.70317116974168
 10
-47.04314146748252
 20
-33.65325399374167
 10
-47.06054275388253
 20
-33.60091827854168
 10
-47.07252679868253
 20
-33.54681156814168
  0
LINE
  5
A6
330
2
100
AcDbEntity
  8
0
100
AcDbLine
 10
-44.97747318588253
 20
-34.13671750574168
 30
0.0
 11
-44.85075092508252
 21
-34.14384849454168
 31
0.0
  0
LINE
  5
A7
330
2
100
AcDbEntity
  8
0
100
AcDbLine
 10
-44.95328954748252
 20
-34.13793682894168
 30
0.0
 11
-45.00305527068252
 21
-34.13529178734168
 31
0.0
  0
LINE
  5
A8
330
2
100
AcDbEntity
  8
0
100
AcDbLine
 10
-45.59078812188253
 20
-33.96790064014168
 30
0.0
 11
-45.63650865948253
 21
-33.96670500494169
 31
0.0
  0
LINE
  5
A9
330
2
100
AcDbEntity
  8
0
100
AcDbLine
 10
-45.63650865948253
 20
-33.96670500494169
 30
0.0
 11
-45.68304935548252
 21
-33.96563430734168
 31
0.0
  0
LINE
  5
AA
330
2
100
AcDbEntity
  8
0
100
AcDbLine
 10
-45.68304935548252
 20
-33.96563430734168
 30
0.0
 11
-45.75257645468252
 21
-33.96426355374169
 31
0.0
  0
LINE
  5
AB
330
2
100
AcDbEntity
  8
0
100
AcDbLine
 10
-45.75257645468252
 20
-33.96426355374169
 30
0.0
 11
-45.84243705468253
 21
-33.96281185934168
 31
0.0
  0
LINE
  5
AC
330
2
100
AcDbEntity
  8
0
100
AcDbLine
 10
-45.84243705468253
 20
-33.96281185934168
 30
0.0
 11
-45.97140583548252
 21
-33.96117401134169
 31
0.0
  0
LINE
  5
AD
330
2
100
AcDbEntity
  8
0
100
AcDbLine
 10
-46.32590120828253
 20
-33.95796009774168
 30
0.0
 11
-46.46599191068253
 21
-33.95697022254168
 31
0.0
  0
LINE
  5
AE
330
2
100
AcDbEntity
  8
0
100
AcDbLine
 10
-46.46599191068253
 20
-33.95697022254168
 30
0.0
 11
-46.55849607228252
 21
-33.95661045294168
 31
0.0
  0
LINE
  5
AF
330
2
100
AcDbEntity
  8
0
100
AcDbLine
 10
-46.55849607228252
 20
-33.95661045294168
 30
0.0
 11
-46.59935760668253
 21
-33.95665873294168
 31
0.0
  0
LINE
  5
B0
330
2
100
AcDbEntity
  8
0
100
AcDbLine
 10
-46.59935760668253
 20
-33.95665873294168
 30
0.0
 11
-46.62422516988253
 21
-33.95681139374168
 31
0.0
  0
LINE
  5
B1
330
2
100
AcDbEntity
  8
0
100
AcDbLine
 10
-46.62422516988253
 20
-33.95681139374168
 30
0.0
 11
-46.64704810108253
 21
-33.95708294734169
 31
0.0
  0
LINE
  5
B2
330
2
100
AcDbEntity
  8
0
100
AcDbLine
 10
-45.97140583548252
 20
-33.96117401134169
 30
0.0
 11
-46.32590120828253
 21
-33.95796009774168
 31
0.0
  0
ARC
  5
B3
330
2
100
AcDbEntity
  8
0
100
AcDbCircle
 10
-42.45478030908252
 20
-34.44823679534168
 30
0.0
 40
0.25
100
AcDbArc
 50
225.0
 51
270.0
  0
LINE
  5
B4
330
2
100
AcDbEntity
  8
0
100
AcDbLine
 10
-42.45363471708252
 20
-34.69823679534168
 30
0.0
 11
-42.45477875548253
 21
-34.69823679534168
 31
0.0
  0
LWPOLYLINE
  5
B5
330
2
100
AcDbEntity
  8
0
100
AcDbPolyline
 90
       13
 70
     0
 43
0.0
 10
-43.08215009788253
 20
-34.21198324814167
 10
-43.08242731708253
 20
-34.21191773294168
 10
-43.08157026108253
 20
-34.21214319214168
 10
-43.07927521308252
 20
-34.21280035374167
 10
-43.07539692828252
 20
-34.21402338574167
 10
-43.06978947708252
 20
-34.21598800334168
 10
-43.06231238428253
 20
-34.21892514094167
 10
-43.05287736828252
 20
-34.22312096814168
 10
-43.04143492988252
 20
-34.22894148494167
 10
-43.02802823708252
 20
-34.23682943534168
 10
-43.01286972988252
 20
-34.24727014574168
 10
-42.99629577948252
 20
-34.26082100494168
 10
-42.98629054268253
 20
-34.27028015694168
  0
LWPOLYLINE
  5
B6
330
2
100
AcDbEntity
  8
0
100
AcDbPolyline
 90
        4
 70
     0
 43
0.0
 10
-43.10014846908252
 20
-34.21216506094168
 10
-43.05512777628253
 20
-34.21823574734168
 10
-43.00000272028252
 20
-34.22356073454167
 10
-42.93785714748253
 20
-34.22765576814168
  0
LINE
  5
B7
330
2
100
AcDbEntity
  8
0
100
AcDbLine
 10
-44.40789625308252
 20
-34.16810024494168
 30
0.0
 11
-44.26899351868253
 21
-34.17533129934168
 31
0.0
  0
LINE
  5
B8
330
2
100
AcDbEntity
  8
0
100
AcDbLine
 10
-44.26899351868253
 20
-34.17533129934168
 30
0.0
 11
-44.12247956668252
 21
-34.18271076654169
 31
0.0
  0
LINE
  5
B9
330
2
100
AcDbEntity
  8
0
100
AcDbLine
 10
-44.12247956668252
 20
-34.18271076654169
 30
0.0
 11
-44.02142033788253
 21
-34.18763604014168
 31
0.0
  0
LINE
  5
BA
330
2
100
AcDbEntity
  8
0
100
AcDbLine
 10
-44.02142033788253
 20
-34.18763604014168
 30
0.0
 11
-43.91796599868253
 21
-34.19252547214169
 31
0.0
  0
LINE
  5
BB
330
2
100
AcDbEntity
  8
0
100
AcDbLine
 10
-43.91796599868253
 20
-34.19252547214169
 30
0.0
 11
-43.81216388988252
 21
-34.19735353294168
 31
0.0
  0
LINE
  5
BC
330
2
100
AcDbEntity
  8
0
100
AcDbLine
 10
-43.81216388988252
 20
-34.19735353294168
 30
0.0
 11
-43.70405248828252
 21
-34.20209301934169
 31
0.0
  0
LINE
  5
BD
330
2
100
AcDbEntity
  8
0
100
AcDbLine
 10
-43.70405248828252
 20
-34.20209301934169
 30
0.0
 11
-43.59365601468252
 21
-34.20671517134168
 31
0.0
  0
LINE
  5
BE
330
2
100
AcDbEntity
  8
0
100
AcDbLine
 10
-42.93785714748253
 20
-34.22765576814168
 30
0.0
 11
-42.87021052188253
 21
-34.23040451054168
 31
0.0
  0
LINE
  5
BF
330
2
100
AcDbEntity
  8
0
100
AcDbLine
 10
-43.59365601468252
 20
-34.20671517134168
 30
0.0
 11
-43.48098257948253
 21
-34.21118965934168
 31
0.0
  0
LWPOLYLINE
  5
C0
330
2
100
AcDbEntity
  8
0
100
AcDbPolyline
 90
       11
 70
     0
 43
0.0
 10
-43.48098257948253
 20
-34.21118965934168
 10
-43.42378948348252
 20
-34.21336163374167
 10
-43.36602224508253
 20
-34.21548460494168
 10
-43.30768240348253
 20
-34.21755408174168
 10
-43.24877170268253
 20
-34.21956543854168
 10
-43.18929284028253
 20
-34.22151391374168
 10
-43.12924948508253
 20
-34.22339461134168
 10
-43.06864166908252
 20
-34.22520262734168
 10
-43.00745017308253
 20
-34.22693347214168
 10
-42.94565873308252
 20
-34.22858329934168
 10
-42.84831091388253
 20
-34.23098490254167
  0
LINE
  5
C1
330
2
100
AcDbEntity
  8
0
100
AcDbLine
 10
-44.38006784508253
 20
-34.16292939214168
 30
0.0
 11
-44.46236112188252
 21
-34.15989424014169
 31
0.0
  0
LINE
  5
C2
330
2
100
AcDbEntity
  8
0
100
AcDbLine
 10
-44.29361813468253
 20
-34.16593300654168
 30
0.0
 11
-44.38006784508253
 21
-34.16292939214168
 31
0.0
  0
LINE
  5
C3
330
2
100
AcDbEntity
  8
0
100
AcDbLine
 10
-44.20325279868253
 20
-34.16887537134168
 30
0.0
 11
-44.29361813468253
 21
-34.16593300654168
 31
0.0
  0
LINE
  5
C4
330
2
100
AcDbEntity
  8
0
100
AcDbLine
 10
-44.10923531548253
 20
-34.17172777774168
 30
0.0
 11
-44.20325279868253
 21
-34.16887537134168
 31
0.0
  0
LINE
  5
C5
330
2
100
AcDbEntity
  8
0
100
AcDbLine
 10
-44.01186198108253
 20
-34.17446249774168
 30
0.0
 11
-44.10923531548253
 21
-34.17172777774168
 31
0.0
  0
LINE
  5
C6
330
2
100
AcDbEntity
  8
0
100
AcDbLine
 10
-42.86454213148252
 20
-34.23055477614168
 30
0.0
 11
-42.86187526588252
 21
-34.23063892654168
 31
0.0
  0
LINE
  5
C7
330
2
100
AcDbEntity
  8
0
100
AcDbLine
 10
-43.91145800348252
 20
-34.17705323214168
 30
0.0
 11
-44.01186198108253
 21
-34.17446249774168
 31
0.0
  0
LWPOLYLINE
  5
C8
330
2
100
AcDbEntity
  8
0
100
AcDbPolyline
 90
       21
 70
     0
 43
0.0
 10
-42.84820248348252
 20
-34.23098759534168
 10
-42.86187526588252
 20
-34.23063892654168
 10
-42.88543646588253
 20
-34.22989548334168
 10
-42.90759082268253
 20
-34.22901698894168
 10
-42.92833683228252
 20
-34.22801961294168
 10
-42.94768382588253
 20
-34.22691966414168
 10
-42.96565529308253
 20
-34.22573575534168
 10
-42.98224939228252
 20
-34.22448881454168
 10
-42.99747998428253
 20
-34.22319882414168
 10
-43.01137724668253
 20
-34.22188570414167
 10
-43.02395144828253
 20
-34.22057130094168
 10
-43.03521972988252
 20
-34.21927653774167
 10
-43.04523274108253
 20
-34.21801857134168
 10
-43.05402258588253
 20
-34.21681676654167
 10
-43.06161008028253
 20
-34.21569157934168
 10
-43.06801273308252
 20
-34.21466407374168
 10
-43.07325219388252
 20
-34.21375540334167
 10
-43.07733336988252
 20
-34.21299100494167
 10
-43.08024555228253
 20
-34.21240183854168
 10
-43.08195930428253
 20
-34.21202721934168
 10
-43.08215009788253
 20
-34.21198324814167
  0
LINE
  5
C9
330
2
100
AcDbEntity
  8
0
100
AcDbLine
 10
-43.80835698748252
 20
-34.17947588174168
 30
0.0
 11
-43.91145800348252
 21
-34.17705323214168
 31
0.0
  0
LINE
  5
CA
330
2
100
AcDbEntity
  8
0
100
AcDbLine
 10
-43.70276102748252
 20
-34.18171119854168
 30
0.0
 11
-43.80835698748252
 21
-34.17947588174168
 31
0.0
  0
LINE
  5
CB
330
2
100
AcDbEntity
  8
0
100
AcDbLine
 10
-43.59485246588252
 20
-34.18373938734168
 30
0.0
 11
-43.70276102748252
 21
-34.18171119854168
 31
0.0
  0
LINE
  5
CC
330
2
100
AcDbEntity
  8
0
100
AcDbLine
 10
-42.94503719708252
 20
-34.19125258894168
 30
0.0
 11
-42.95764433628252
 21
-34.19109232814168
 31
0.0
  0
LINE
  5
CD
330
2
100
AcDbEntity
  8
0
100
AcDbLine
 10
-43.01393619388252
 20
-34.19037179374169
 30
0.0
 11
-43.02116160828252
 21
-34.19030046254168
 31
0.0
  0
LWPOLYLINE
  5
CE
330
2
100
AcDbEntity
  8
0
100
AcDbPolyline
 90
       10
 70
     0
 43
0.0
 10
-43.05225260188253
 20
-34.19004252974168
 10
-43.14136667868253
 20
-34.18943475854168
 10
-43.19997724028254
 20
-34.18894912494168
 10
-43.25804644028252
 20
-34.18839808974168
 10
-43.31555299068253
 20
-34.18778156174168
 10
-43.37247743548252
 20
-34.18709959214167
 10
-43.42886560188254
 20
-34.18635232814168
 10
-43.48473042268253
 20
-34.18554167374168
 10
-43.54006268828253
 20
-34.18466992494168
 10
-43.59485246588252
 20
-34.18373938734168
  0
LWPOLYLINE
  5
CF
330
2
100
AcDbEntity
  8
0
100
AcDbPolyline
 90
        8
 70
     0
 43
0.0
 10
-43.07294740188253
 20
-34.18996443374167
 10
-43.11280098428253
 20
-34.19023990574167
 10
-43.14063099228252
 20
-34.19128866414168
 10
-43.15645279708252
 20
-34.19327642414168
 10
-43.16038494748252
 20
-34.19636989614168
 10
-43.15252688028252
 20
-34.20071985774168
 10
-43.13257206428253
 20
-34.20613718894168
 10
-43.10014846908252
 20
-34.21216506094168
  0
LINE
  5
D0
330
2
100
AcDbEntity
  8
0
100
AcDbLine
 10
-42.63155700348252
 20
-34.62501348974169
 30
0.0
 11
-42.98619381948252
 21
-34.27037667374168
 31
0.0
  0
LWPOLYLINE
  5
D1
330
2
100
AcDbEntity
  8
0
100
AcDbPolyline
 90
        4
 70
     0
 43
0.0
 10
-42.77456016668253
 20
-34.19373804174168
 10
-42.94503719708252
 20
-34.19125258894168
 10
-43.01393619388252
 20
-34.19037179374168
 10
-43.05289588828253
 20
-34.19003869614167
  0
LINE
  5
D2
330
2
100
AcDbEntity
  8
0
100
AcDbLine
 10
-44.85075092508252
 20
-34.14384849454168
 30
0.0
 11
-44.61793035548253
 21
-34.15679200014168
 31
0.0
  0
LINE
  5
D3
330
2
100
AcDbEntity
  8
0
100
AcDbLine
 10
-44.88604839388253
 20
-34.14136060974168
 30
0.0
 11
-44.95328954748252
 21
-34.13793682894168
 31
0.0
  0
LINE
  5
D4
330
2
100
AcDbEntity
  8
0
100
AcDbLine
 10
-44.80500083868252
 20
-34.14530217454168
 30
0.0
 11
-44.88604839388253
 21
-34.14136060974168
 31
0.0
  0
LINE
  5
D5
330
2
100
AcDbEntity
  8
0
100
AcDbLine
 10
-44.74565079868253
 20
-34.14806538734168
 30
0.0
 11
-44.80500083868252
 21
-34.14530217454168
 31
0.0
  0
LINE
  5
D6
330
2
100
AcDbEntity
  8
0
100
AcDbLine
 10
-44.68185497308252
 20
-34.15092252494168
 30
0.0
 11
-44.74565079868253
 21
-34.14806538734168
 31
0.0
  0
LINE
  5
D7
330
2
100
AcDbEntity
  8
0
100
AcDbLine
 10
-44.61342377948253
 20
-34.15386010894168
 30
0.0
 11
-44.68185497308252
 21
-34.15092252494168
 31
0.0
  0
LINE
  5
D8
330
2
100
AcDbEntity
  8
0
100
AcDbLine
 10
-44.54022520988253
 20
-34.15686017614168
 30
0.0
 11
-44.61342377948253
 21
-34.15386010894168
 31
0.0
  0
LINE
  5
D9
330
2
100
AcDbEntity
  8
0
100
AcDbLine
 10
-44.61793035548253
 20
-34.15679200014168
 30
0.0
 11
-44.40789625308252
 21
-34.16810024494168
 31
0.0
  0
LINE
  5
DA
330
2
100
AcDbEntity
  8
0
100
AcDbLine
 10
-44.46236112188252
 20
-34.15989424014169
 30
0.0
 11
-44.54022520988253
 21
-34.15686017614168
 31
0.0
  0
LWPOLYLINE
  5
DB
330
2
100
AcDbEntity
  8
0
100
AcDbPolyline
 90
        4
 70
     0
 43
0.0
 10
-47.07252694108253
 20
-33.54681157134168
 10
-47.09535568508252
 20
-33.42173986734167
 10
-47.11607428028253
 20
-33.30619277614168
 10
-47.13472183388252
 20
-33.20008175694168
  0
LWPOLYLINE
  5
DC
330
2
100
AcDbEntity
  8
0
100
AcDbPolyline
 90
        4
 70
     0
 43
0.0
 10
-47.14128842268253
 20
-33.16669570414168
 10
-47.13873701468253
 20
-33.17775730094167
 10
-47.13654832188253
 20
-33.18888318254168
 10
-47.13472175388253
 20
-33.20008175374168
  0
LINE
  5
DD
330
2
100
AcDbEntity
  8
0
100
AcDbLine
 10
-47.14125169308252
 20
-33.16675379214168
 30
0.0
 11
-47.14420565788252
 21
-33.15568661454168
 31
0.0
  0
LINE
  5
DE
330
2
100
AcDbEntity
  8
0
100
AcDbLine
 10
-47.14415511548253
 20
-33.15576366734168
 30
0.0
 11
-47.14749417148254
 21
-33.14471745614168
 31
0.0
  0
LINE
  5
DF
330
2
100
AcDbEntity
  8
0
100
AcDbLine
 10
-47.14742875868252
 20
-33.14481397774168
 30
0.0
 11
-47.15115745468253
 21
-33.13378764974168
 31
0.0
  0
LINE
  5
E0
330
2
100
AcDbEntity
  8
0
100
AcDbLine
 10
-47.15107866588252
 20
-33.13389660334169
 30
0.0
 11
-47.15518942108253
 21
-33.12292289614168
 31
0.0
  0
LINE
  5
E1
330
2
100
AcDbEntity
  8
0
100
AcDbLine
 10
-47.15510323868253
 20
-33.12302757134168
 30
0.0
 11
-47.15958341628253
 21
-33.11214278734169
 31
0.0
  0
LINE
  5
E2
330
2
100
AcDbEntity
  8
0
100
AcDbLine
 10
-47.15949253788252
 20
-33.11223847694168
 30
0.0
 11
-47.16433656508253
 21
-33.10145363534168
 31
0.0
  0
LINE
  5
E3
330
2
100
AcDbEntity
  8
0
100
AcDbLine
 10
-47.16424147708252
 20
-33.10154152494169
 30
0.0
 11
-47.16944596988253
 21
-33.09086092814168
 31
0.0
  0
LINE
  5
E4
330
2
100
AcDbEntity
  8
0
100
AcDbLine
 10
-47.16934760028253
 20
-33.09094105454168
 30
0.0
 11
-47.17490837948253
 21
-33.08037021934168
 31
0.0
  0
LINE
  5
E5
330
2
100
AcDbEntity
  8
0
100
AcDbLine
 10
-47.17480749308252
 20
-33.08044290094168
 30
0.0
 11
-47.18072023868252
 21
-33.06998701614169
 31
0.0
  0
LINE
  5
E6
330
2
100
AcDbEntity
  8
0
100
AcDbLine
 10
-47.18061760508253
 20
-33.07005250414168
 30
0.0
 11
-47.18687768188253
 21
-33.05971680334168
 31
0.0
  0
LINE
  5
E7
330
2
100
AcDbEntity
  8
0
100
AcDbLine
 10
-47.18677402588252
 20
-33.05977536974168
 30
0.0
 11
-47.19337653628253
 21
-33.04956503854168
 31
0.0
  0
LINE
  5
E8
330
2
100
AcDbEntity
  8
0
100
AcDbLine
 10
-47.19327255868252
 20
-33.04961694894169
 30
0.0
 11
-47.20021233308253
 21
-33.03953714734169
 31
0.0
  0
LINE
  5
E9
330
2
100
AcDbEntity
  8
0
100
AcDbLine
 10
-47.20010869308253
 20
-33.03958267374168
 30
0.0
 11
-47.20738030108252
 21
-33.02963851534169
 31
0.0
  0
LINE
  5
EA
330
2
100
AcDbEntity
  8
0
100
AcDbLine
 10
-47.20727763068253
 20
-33.02967793614168
 30
0.0
 11
-47.21487537788253
 21
-33.01987450254169
 31
0.0
  0
LINE
  5
EB
330
2
100
AcDbEntity
  8
0
100
AcDbLine
 10
-47.21477427228252
 20
-33.01990809134168
 30
0.0
 11
-47.22269221308252
 21
-33.01025041774169
 31
0.0
  0
LINE
  5
EC
330
2
100
AcDbEntity
  8
0
100
AcDbLine
 10
-47.22259324828253
 20
-33.01027844174169
 30
0.0
 11
-47.23082520508252
 21
-33.00077149454168
 31
0.0
  0
LINE
  5
ED
330
2
100
AcDbEntity
  8
0
100
AcDbLine
 10
-47.23072888988252
 20
-33.00079425774169
 30
0.0
 11
-47.23926845308253
 21
-32.99144294894169
 31
0.0
  0
LINE
  5
EE
330
2
100
AcDbEntity
  8
0
100
AcDbLine
 10
-47.23917524988253
 20
-32.99146076814168
 30
0.0
 11
-47.24801566908253
 21
-32.98227005614168
 31
0.0
  0
LINE
  5
EF
330
2
100
AcDbEntity
  8
0
100
AcDbLine
 10
-47.24792612028252
 20
-32.98228312814169
 30
0.0
 11
-47.25706040828252
 21
-32.97325789934169
 31
0.0
  0
LINE
  5
F0
330
2
100
AcDbEntity
  8
0
100
AcDbLine
 10
-47.25697500348252
 20
-32.97326645774168
 30
0.0
 11
-47.26631521628253
 21
-32.96441574414169
 31
0.0
  0
LWPOLYLINE
  5
F1
330
2
100
AcDbEntity
  8
0
100
AcDbPolyline
 90
        6
 70
     0
 43
0.0
 10
-47.31719414908252
 20
-32.92282989134168
 10
-47.30651011068252
 20
-32.93077688494168
 10
-47.29608073308253
 20
-32.93891309134168
 10
-47.28591368828253
 20
-32.94723397774168
 10
-47.27601641468253
 20
-32.95573495374168
 10
-47.26639625148253
 20
-32.96441124494168
  0
LWPOLYLINE
  5
F2
330
2
100
AcDbEntity
  8
0
100
AcDbPolyline
 90
        3
 70
     0
 43
0.0
 10
-47.31713970428252
 20
-32.92281818254168
 10
-47.32807665148253
 20
-32.91506235374168
 10
-47.33925255708252
 20
-32.90750474254168
  0
LINE
  5
F3
330
2
100
AcDbEntity
  8
0
100
AcDbLine
 10
-47.35069587228252
 20
-32.90016727854168
 30
0.0
 11
-47.33929497468253
 21
-32.90752091854168
 31
0.0
  0
LWPOLYLINE
  5
F4
330
2
100
AcDbEntity
  8
0
100
AcDbPolyline
 90
       27
 70
     0
 43
0.0
 10
-47.35065959388252
 20
-32.90014930094168
 10
-47.36229094748253
 20
-32.89299920814168
 10
-47.37413843228253
 20
-32.88605839214167
 10
-47.38619223068252
 20
-32.87933148494168
 10
-47.39844499868254
 20
-32.87282150094168
 10
-47.41088302908252
 20
-32.86653452494167
 10
-47.42348096988253
 20
-32.86048140654168
 10
-47.43622077628252
 20
-32.85466799854168
 10
-47.44909504828252
 20
-32.84909471694168
 10
-47.46209707388253
 20
-32.84376176014168
 10
-47.47522070268253
 20
-32.83866920494168
 10
-47.48846026268252
 20
-32.83381708654168
 10
-47.50181056828252
 20
-32.82920540974168
 10
-47.51526689788252
 20
-32.82483419214168
 10
-47.52882498588252
 20
-32.82070348494168
 10
-47.54248099708253
 20
-32.81681341294167
 10
-47.55623151068252
 20
-32.81316418574167
 10
-47.57007349308253
 20
-32.80975613774168
 10
-47.58400428028252
 20
-32.80658974254168
 10
-47.59802154748252
 20
-32.80366563374168
 10
-47.61212328668253
 20
-32.80098463374168
 10
-47.62630777308253
 20
-32.79854776334168
 10
-47.64057354428253
 20
-32.79635626574167
 10
-47.65491936028253
 20
-32.79441162094168
 10
-47.66934419068252
 20
-32.79271555534168
 10
-47.68384708188253
 20
-32.79127007054167
 10
-47.69842747228253
 20
-32.79007741134167
  0
LINE
  5
F5
330
2
100
AcDbEntity
  8
0
100
AcDbLine
 10
-47.37416238908252
 20
-32.88607913294169
 30
0.0
 11
-47.36232106428253
 21
-32.89301870254169
 31
0.0
  0
LINE
  5
F6
330
2
100
AcDbEntity
  8
0
100
AcDbLine
 10
-47.52879036508253
 20
-32.82072148494168
 30
0.0
 11
-47.51523522748253
 21
-32.82485337934168
 31
0.0
  0
LINE
  5
F7
330
2
100
AcDbEntity
  8
0
100
AcDbLine
 10
-47.55619252348252
 20
-32.81317951374168
 30
0.0
 11
-47.54244392828252
 21
-32.81683011854168
 31
0.0
  0
LWPOLYLINE
  5
F8
330
2
100
AcDbEntity
  8
0
100
AcDbPolyline
 90
        4
 70
     0
 43
0.0
 10
-47.61208256668253
 20
-32.80099401294167
 10
-47.59798030908252
 20
-32.80367652334168
 10
-47.58396317948252
 20
-32.80660213934167
 10
-47.57003315228253
 20
-32.80977002254167
  0
LINE
  5
F9
330
2
100
AcDbEntity
  8
0
100
AcDbLine
 10
-47.64053595068253
 20
-32.79636272334168
 30
0.0
 11
-47.62626826108252
 21
-32.79855565774168
 31
0.0
  0
LINE
  5
FA
330
2
100
AcDbEntity
  8
0
100
AcDbLine
 10
-47.66931274908253
 20
-32.79271938254168
 30
0.0
 11
-47.65488443388252
 21
-32.79441671534168
 31
0.0
  0
LINE
  5
FB
330
2
100
AcDbEntity
  8
0
100
AcDbLine
 10
-47.72781817468252
 20
-32.78846108174168
 30
0.0
 11
-47.74262012188252
 21
-32.78804352974168
 31
0.0
  0
LWPOLYLINE
  5
FC
330
2
100
AcDbEntity
  8
0
  6
HIDDEN
100
AcDbPolyline
 90
        3
 70
     0
 43
0.0
 10
-28.24043118908253
 20
-32.62986960014168
 10
-31.02371238588253
 20
-32.22711726254168
 10
-34.10974318748253
 20
-31.89517775854167
  0
LINE
  5
FD
330
2
100
AcDbEntity
  8
0
100
AcDbLine
 10
-34.76393005148253
 20
-32.79127921134168
 30
0.0
 11
-19.05814945788253
 21
-32.31359514094168
 31
0.0
  0
LINE
  5
FE
330
2
100
AcDbEntity
  8
CENTER
 48
4.0
100
AcDbLine
 10
-41.18333372428252
 20
-38.3336644930781
 30
0.0
 11
-41.18333372428252
 21
-31.06280909760526
 31
0.0
  0
LINE
  5
101
330
2
100
AcDbEntity
  8
0
  6
HIDDEN
100
AcDbLine
 10
-37.49406600988253
 20
-31.66845998734168
 30
0.0
 11
-34.10970366428253
 21
-31.89517978734169
 31
0.0
  0
LWPOLYLINE
  5
102
330
2
100
AcDbEntity
  8
0
100
AcDbPolyline
 90
       13
 70
     0
 43
0.0
 10
-34.71147932988253
 20
-33.94366996494167
 10
-34.86097561948253
 20
-33.94851798414168
 10
-34.93860358428253
 20
-33.95092432814168
 10
-35.01699860348253
 20
-33.95316780014168
 10
-35.09473343068252
 20
-33.95512033614168
 10
-35.17187973468253
 20
-33.95672951214168
 10
-35.24888331228253
 20
-33.95797024654167
 10
-35.32617687868253
 20
-33.95882798414167
 10
-35.40390129308252
 20
-33.95928790894168
 10
-35.48213862908252
 20
-33.95933781614167
 10
-35.56087784988253
 20
-33.95896719694167
 10
-35.63997949148253
 20
-33.95818667214168
 10
-35.73077458588253
 20
-33.95693275694168
  0
LWPOLYLINE
  5
103
330
2
100
AcDbEntity
  8
0
100
AcDbPolyline
 90
       13
 70
     0
 43
0.0
 10
-35.71961929628253
 20
-33.95708299694168
 10
-35.66905287388253
 20
-33.95087625134168
 10
-35.61941091868253
 20
-33.93856652014167
 10
-35.57130800028252
 20
-33.92030620174168
 10
-35.52533963388252
 20
-33.89632136174167
 10
-35.48207490748252
 20
-33.86690893614167
 10
-35.44204944508253
 20
-33.83243304974168
 10
-35.40575876188252
 20
-33.79332051534167
 10
-35.37365214268253
 20
-33.75005554894168
 10
-35.34612707228252
 20
-33.70317376814168
 10
-35.32352431708253
 20
-33.65325557294168
 10
-35.30612370588253
 20
-33.60091894734168
 10
-35.29414071388252
 20
-33.54681207854167
  0
LWPOLYLINE
  5
104
330
2
100
AcDbEntity
  8
0
100
AcDbPolyline
 90
       32
 70
     0
 43
0.0
 10
-40.32580101308252
 20
-34.21137274734167
 10
-40.16631261148252
 20
-34.21124978414168
 10
-40.00328346588253
 20
-34.21100169774168
 10
-39.83622583868252
 20
-34.21058088334167
 10
-39.66463037948253
 20
-34.20992739534168
 10
-39.48794471388252
 20
-34.20896564974167
 10
-39.30557397468253
 20
-34.20760031534168
 10
-39.11694970428253
 20
-34.20571319534168
 10
-38.92161168668252
 20
-34.20318093614167
 10
-38.71887550108253
 20
-34.19987265934167
 10
-38.50890220508253
 20
-34.19566860494168
 10
-38.29206907708253
 20
-34.19050225774167
 10
-38.06764562908253
 20
-34.18428820974168
 10
-37.83237212508252
 20
-34.17682150574167
 10
-37.58268609308252
 20
-34.16780577294167
 10
-37.31583057788252
 20
-34.15688276974167
 10
-37.03726136988253
 20
-34.14399392814168
 10
-36.75726315868253
 20
-34.12943722414168
 10
-36.48579775548252
 20
-34.11371239694168
 10
-36.22810563868253
 20
-34.09723557774167
 10
-35.98447238588252
 20
-34.08026802894168
 10
-35.75400855228252
 20
-34.06306556174168
 10
-35.53575694588252
 20
-34.04582278094167
 10
-35.32833159068252
 20
-34.02863984014167
 10
-35.13180014268253
 20
-34.01164727054168
 10
-34.94850713948252
 20
-33.99514674094167
 10
-34.77983111868252
 20
-33.97941174254167
 10
-34.62640605308253
 20
-33.96468250734168
 10
-34.48349736508252
 20
-33.95064689934168
 10
-34.34421873788252
 20
-33.93671005454168
 10
-34.19985339868253
 20
-33.92205027534168
 10
-34.07549577948252
 20
-33.90935003534168
  0
LWPOLYLINE
  5
105
330
2
100
AcDbEntity
  8
0
100
AcDbPolyline
 90
       16
 70
     0
 43
0.0
 10
-39.50517403548252
 20
-34.23067369774168
 10
-39.43763089308252
 20
-34.22901039854168
 10
-39.37062109308253
 20
-34.22724535534168
 10
-39.30416484668252
 20
-34.22538060654167
 10
-39.23827764188253
 20
-34.22342089934168
 10
-39.17296127708253
 20
-34.22137223054168
 10
-39.10821681788253
 20
-34.21924048174167
 10
-39.04404582428253
 20
-34.21703141134168
 10
-38.98044940028252
 20
-34.21475063374168
 10
-38.91742710108252
 20
-34.21240359214167
 10
-38.85497619388253
 20
-34.20999544654168
 10
-38.79309164828253
 20
-34.20753105294168
 10
-38.73177069628252
 20
-34.20501518894168
 10
-38.67101276028252
 20
-34.20245254574167
 10
-38.61081936348253
 20
-34.19984773454167
 10
-38.49214222428253
 20
-34.19452963854168
  0
LWPOLYLINE
  5
106
330
2
100
AcDbEntity
  8
0
100
AcDbPolyline
 90
       21
 70
     0
 43
0.0
 10
-37.95119907868253
 20
-34.16164504974168
 10
-38.04928189148253
 20
-34.16512582894167
 10
-38.10073288188253
 20
-34.16685560174168
 10
-38.15365572348253
 20
-34.16856717774168
 10
-38.20794165308253
 20
-34.17025253294168
 10
-38.26347598748253
 20
-34.17190397134167
 10
-38.32013858748253
 20
-34.17351418894168
 10
-38.37780534908253
 20
-34.17507634414167
 10
-38.43639800188252
 20
-34.17658534574167
 10
-38.49588262268253
 20
-34.17803750414167
 10
-38.55622147228253
 20
-34.17942916014168
 10
-38.61737294268253
 20
-34.18075668494167
 10
-38.67927807228253
 20
-34.18201593614168
 10
-38.74190422908253
 20
-34.18320316014168
 10
-38.80522515388253
 20
-34.18431478414167
 10
-38.86921589788252
 20
-34.18534731374168
 10
-38.93385276348253
 20
-34.18629732174167
 10
-38.99911321948252
 20
-34.18716144334168
 10
-39.06501165628253
 20
-34.18793713614167
 10
-39.13159052188253
 20
-34.18862451694168
 10
-39.19880826108253
 20
-34.18922387694168
  0
LWPOLYLINE
  5
107
330
2
100
AcDbEntity
  8
0
100
AcDbPolyline
 90
       23
 70
     0
 43
0.0
 10
-36.88985566908253
 20
-33.97141605454168
 10
-36.99167870108253
 20
-33.97468198894168
 10
-37.10471906428253
 20
-33.97848813614167
 10
-37.23020844188252
 20
-33.98292549294168
 10
-37.36942854748253
 20
-33.98808308654167
 10
-37.52551330108252
 20
-33.99411400014168
 10
-37.70394068668252
 20
-34.00128652814167
 10
-37.90499276668252
 20
-34.00970788974167
 10
-38.11948986908253
 20
-34.01909102894168
 10
-38.34128515228252
 20
-34.02929854254168
 10
-38.57387889468252
 20
-34.04061098734167
 10
-38.82924973628253
 20
-34.05361274734168
 10
-39.10921794428253
 20
-34.06819085934167
 10
-39.40366144188253
 20
-34.08300454414168
 10
-39.67414325468253
 20
-34.09506564814167
 10
-39.91246947868252
 20
-34.10390553454168
 10
-40.12884602108252
 20
-34.11038425614167
 10
-40.33134367548252
 20
-34.11515731854168
 10
-40.52188019708252
 20
-34.11857590734168
 10
-40.70172042748253
 20
-34.12091139534167
 10
-40.87320419228253
 20
-34.12239377294167
 10
-41.03486282748252
 20
-34.12317643694168
 10
-41.18333369948253
 20
-34.12339853294168
  0
LWPOLYLINE
  5
108
330
2
100
AcDbEntity
  8
0
100
AcDbPolyline
 90
       12
 70
     0
 43
0.0
 10
-39.38037693468253
 20
-34.27028023374168
 10
-39.37107847228253
 20
-34.26145511054168
 10
-39.35459419228253
 20
-34.24786741134168
 10
-39.33953850268252
 20
-34.23740205454168
 10
-39.32620642908253
 20
-34.22947481934168
 10
-39.31477805148253
 20
-34.22359166734167
 10
-39.30528543388253
 20
-34.21931484174168
 10
-39.29768492828253
 20
-34.21628804334167
 10
-39.29191705308253
 20
-34.21423874094168
 10
-39.28785627708252
 20
-34.21293998574167
 10
-39.28536315548253
 20
-34.21221603214168
 10
-39.28438552348252
 20
-34.21195457454167
  0
LWPOLYLINE
  5
109
330
2
100
AcDbEntity
  8
0
100
AcDbPolyline
 90
        8
 70
     0
 43
0.0
 10
-39.29372023548252
 20
-34.18996443374167
 10
-39.25386663068252
 20
-34.19023990094167
 10
-39.22603657308252
 20
-34.19128865294168
 10
-39.21021468828253
 20
-34.19327640174167
 10
-39.20628243068253
 20
-34.19636985934168
 10
-39.21414036348252
 20
-34.20071980174167
 10
-39.23409500828252
 20
-34.20613711534168
 10
-39.26651840028253
 20
-34.21216497614167
  0
LINE
  5
10A
330
2
100
AcDbEntity
  8
0
100
AcDbLine
 10
-39.19880826108253
 20
-34.18922387694169
 30
0.0
 11
-39.31441459868253
 21
-34.19004252974168
 31
0.0
  0
LWPOLYLINE
  5
10B
330
2
100
AcDbEntity
  8
0
100
AcDbPolyline
 90
        3
 70
     0
 43
0.0
 10
-39.31379337948253
 20
-34.19003882254168
 10
-39.36172203388252
 20
-34.19047131374168
 10
-39.43157116668253
 20
-34.19139450734167
  0
LINE
  5
10C
330
2
100
AcDbEntity
  8
0
100
AcDbLine
 10
-39.42880912348252
 20
-34.22765570894169
 30
0.0
 11
-39.49505287228253
 21
-34.23034747374169
 31
0.0
  0
LWPOLYLINE
  5
10D
330
2
100
AcDbEntity
  8
0
100
AcDbPolyline
 90
        4
 70
     0
 43
0.0
 10
-39.26651840028253
 20
-34.21216497614167
 10
-39.31153887388252
 20
-34.21823566094168
 10
-39.36666372828253
 20
-34.22356065934168
 10
-39.42880912348252
 20
-34.22765570894168
  0
LWPOLYLINE
  5
10E
330
2
100
AcDbEntity
  8
0
100
AcDbPolyline
 90
       22
 70
     0
 43
0.0
 10
-39.28438552348252
 20
-34.21195457454167
 10
-39.28429098428253
 20
-34.21193050254167
 10
-39.28452314268253
 20
-34.21198460654167
 10
-39.28597548028253
 20
-34.21230692814168
 10
-39.28859780028253
 20
-34.21284621774168
 10
-39.29235724028252
 20
-34.21356274574167
 10
-39.29723925468252
 20
-34.21442536814168
 10
-39.30324363548253
 20
-34.21540853614168
 10
-39.31038825628253
 20
-34.21649139854167
 10
-39.31869017148253
 20
-34.21765388494168
 10
-39.32816765948253
 20
-34.21887636974167
 10
-39.33884476828252
 20
-34.22013980334168
 10
-39.35077076188253
 20
-34.22142794894168
 10
-39.36397111868252
 20
-34.22272200654168
 10
-39.37845614748252
 20
-34.22400136334168
 10
-39.39424461468253
 20
-34.22524600494168
 10
-39.41136334588253
 20
-34.22643766414168
 10
-39.42981264028253
 20
-34.22755656014167
 10
-39.44959927068252
 20
-34.22858347214168
 10
-39.47075028348253
 20
-34.22950265134168
 10
-39.49325818428252
 20
-34.23029840014168
 10
-39.51845497308252
 20
-34.23098736174168
  0
ARC
  5
10F
330
2
100
AcDbEntity
  8
0
100
AcDbCircle
 10
-39.91188708988252
 20
-34.44823679534168
 30
0.0
 40
0.25
100
AcDbArc
 50
270.0
 51
315.0
  0
LINE
  5
110
330
2
100
AcDbEntity
  8
0
100
AcDbLine
 10
-40.63544109628253
 20
-34.21138511694168
 30
0.0
 11
-40.32580101308252
 21
-34.21137274734168
 31
0.0
  0
LINE
  5
111
330
2
100
AcDbEntity
  8
0
100
AcDbLine
 10
-40.59292080508252
 20
-34.19978156494169
 30
0.0
 11
-40.57001918908253
 21
-34.19979516174168
 31
0.0
  0
LINE
  5
112
330
2
100
AcDbEntity
  8
0
100
AcDbLine
 10
-39.91303273148253
 20
-34.69823679534168
 30
0.0
 11
-39.91188708988252
 21
-34.69823679534168
 31
0.0
  0
LINE
  5
113
330
2
100
AcDbEntity
  8
0
100
AcDbLine
 10
-40.44806797628253
 20
-34.19966238254168
 30
0.0
 11
-40.42252260188253
 21
-34.19965066734168
 31
0.0
  0
LINE
  5
114
330
2
100
AcDbEntity
  8
0
100
AcDbLine
 10
-40.30755648668253
 20
-34.19938592654168
 30
0.0
 11
-40.27955921308254
 21
-34.19933496174168
 31
0.0
  0
LINE
  5
115
330
2
100
AcDbEntity
  8
0
100
AcDbLine
 10
-40.17236532988252
 20
-34.19892319374168
 30
0.0
 11
-40.14205979548252
 21
-34.19881816174168
 31
0.0
  0
LINE
  5
116
330
2
100
AcDbEntity
  8
0
100
AcDbLine
 10
-40.04341516188254
 20
-34.19825921614168
 30
0.0
 11
-40.01102688988253
 21
-34.19808593614169
 31
0.0
  0
LINE
  5
117
330
2
100
AcDbEntity
  8
0
100
AcDbLine
 10
-39.92149171388253
 20
-34.19739554414168
 30
0.0
 11
-39.88745623068253
 21
-34.19714394894168
 31
0.0
  0
LINE
  5
118
330
2
100
AcDbEntity
  8
0
100
AcDbLine
 10
-39.80699715708253
 20
-34.19634948014168
 30
0.0
 11
-39.77221556828253
 21
-34.19601998414168
 31
0.0
  0
LINE
  5
119
330
2
100
AcDbEntity
  8
0
100
AcDbLine
 10
-39.70026369948253
 20
-34.19515600654168
 30
0.0
 11
-39.66605560828253
 21
-34.19476500974168
 31
0.0
  0
LINE
  5
11A
330
2
100
AcDbEntity
  8
0
100
AcDbLine
 10
-39.60169676828252
 20
-34.19387139214169
 30
0.0
 11
-39.56973931388253
 21
-34.19345531054168
 31
0.0
  0
LINE
  5
11B
330
2
100
AcDbEntity
  8
0
100
AcDbLine
 10
-39.38050904828253
 20
-34.27041214414169
 30
0.0
 11
-39.73511039548253
 21
-34.62501348974169
 31
0.0
  0
LWPOLYLINE
  5
11C
330
2
100
AcDbEntity
  8
0
100
AcDbPolyline
 90
       10
 70
     0
 43
0.0
 10
-39.43157116668253
 20
-34.19139450734167
 10
-39.60169676828252
 20
-34.19387139214168
 10
-39.70026369948253
 20
-34.19515600654168
 10
-39.80699715708253
 20
-34.19634948014167
 10
-39.92149171388253
 20
-34.19739554414167
 10
-40.04341516188254
 20
-34.19825921614167
 10
-40.17236532988252
 20
-34.19892319374167
 10
-40.30755648668253
 20
-34.19938592654168
 10
-40.44806797628253
 20
-34.19966238254168
 10
-40.59292080508252
 20
-34.19978156494168
  0
LINE
  5
11D
330
2
100
AcDbEntity
  8
0
100
AcDbLine
 10
-41.18333803388253
 20
-34.19961423694168
 30
0.0
 11
-41.62928084988253
 21
-34.19978585454169
 31
0.0
  0
LINE
  5
11E
330
2
100
AcDbEntity
  8
0
100
AcDbLine
 10
-40.59292080508252
 20
-34.19978156494169
 30
0.0
 11
-41.18333803388253
 21
-34.19961423694168
 31
0.0
  0
LINE
  5
11F
330
2
100
AcDbEntity
  8
0
100
AcDbLine
 10
-41.18333369948253
 20
-34.21120852174169
 30
0.0
 11
-40.63544109628253
 21
-34.21138511694168
 31
0.0
  0
LWPOLYLINE
  5
120
330
2
100
AcDbEntity
  8
0
100
AcDbPolyline
 90
       17
 70
     0
 43
0.0
 10
-39.51846172988253
 20
-34.23098752014168
 10
-39.56859674908253
 20
-34.23184034574168
 10
-39.64449743548253
 20
-34.23207929774167
 10
-39.72393352508253
 20
-34.23125841294167
 10
-39.80682221468252
 20
-34.22951214574168
 10
-39.89339381308252
 20
-34.22696477774167
 10
-39.98390769788253
 20
-34.22373716974168
 10
-40.07887011068253
 20
-34.21994238094168
 10
-40.17873412508253
 20
-34.21570175374167
 10
-40.28403531868252
 20
-34.21114742094168
 10
-40.39527216988253
 20
-34.20643441934168
 10
-40.51296172348253
 20
-34.20174498734168
 10
-40.63714648668252
 20
-34.19731104014168
 10
-40.76736660828252
 20
-34.19340297454168
 10
-40.90286757308253
 20
-34.19030939214168
 10
-41.04230062268253
 20
-34.18830638414168
 10
-41.18334442268252
 20
-34.18760936814168
  0
LINE
  5
121
330
2
100
AcDbEntity
  8
0
100
AcDbLine
 10
-35.73077458588253
 20
-33.95693275694169
 30
0.0
 11
-35.75471453948253
 21
-33.95672603694169
 31
0.0
  0
LINE
  5
122
330
2
100
AcDbEntity
  8
0
100
AcDbLine
 10
-35.75471453948253
 20
-33.95672603694169
 30
0.0
 11
-35.78066649148253
 21
-33.95662774574168
 31
0.0
  0
LINE
  5
123
330
2
100
AcDbEntity
  8
0
100
AcDbLine
 10
-35.78066649148253
 20
-33.95662774574168
 30
0.0
 11
-35.83789606428253
 21
-33.95668557294168
 31
0.0
  0
LINE
  5
124
330
2
100
AcDbEntity
  8
0
100
AcDbLine
 10
-35.83789606428253
 20
-33.95668557294168
 30
0.0
 11
-36.00497948828253
 21
-33.95769792494168
 31
0.0
  0
LINE
  5
125
330
2
100
AcDbEntity
  8
0
100
AcDbLine
 10
-36.00497948828253
 20
-33.95769792494168
 30
0.0
 11
-36.07862127708253
 21
-33.95827337454168
 31
0.0
  0
LINE
  5
126
330
2
100
AcDbEntity
  8
0
100
AcDbLine
 10
-36.07862127708253
 20
-33.95827337454168
 30
0.0
 11
-36.11647979548253
 21
-33.95858130094168
 31
0.0
  0
LINE
  5
127
330
2
100
AcDbEntity
  8
0
100
AcDbLine
 10
-36.11647979548253
 20
-33.95858130094168
 30
0.0
 11
-36.15491539708253
 21
-33.95890146414169
 31
0.0
  0
LINE
  5
128
330
2
100
AcDbEntity
  8
0
100
AcDbLine
 10
-36.39572406268253
 20
-33.96119986574168
 30
0.0
 11
-36.52445938588252
 21
-33.96284288814168
 31
0.0
  0
LINE
  5
129
330
2
100
AcDbEntity
  8
0
100
AcDbLine
 10
-36.52445938588252
 20
-33.96284288814168
 30
0.0
 11
-36.61410143548252
 21
-33.96429914574168
 31
0.0
  0
LINE
  5
12A
330
2
100
AcDbEntity
  8
0
100
AcDbLine
 10
-36.61410143548252
 20
-33.96429914574168
 30
0.0
 11
-36.68343725308253
 21
-33.96567416654169
 31
0.0
  0
LINE
  5
12B
330
2
100
AcDbEntity
  8
0
100
AcDbLine
 10
-36.68343725308253
 20
-33.96567416654169
 30
0.0
 11
-36.72992279228252
 21
-33.96675019694169
 31
0.0
  0
LINE
  5
12C
330
2
100
AcDbEntity
  8
0
100
AcDbLine
 10
-36.72992279228252
 20
-33.96675019694169
 30
0.0
 11
-36.77557939708252
 21
-33.96795199374168
 31
0.0
  0
LINE
  5
12D
330
2
100
AcDbEntity
  8
0
100
AcDbLine
 10
-36.77557939708252
 20
-33.96795199374168
 30
0.0
 11
-36.88985566908253
 21
-33.97141605454168
 31
0.0
  0
LINE
  5
12E
330
2
100
AcDbEntity
  8
0
100
AcDbLine
 10
-37.77657276988253
 20
-34.15483204654168
 30
0.0
 11
-37.86012646428253
 21
-34.15819236494168
 31
0.0
  0
LINE
  5
12F
330
2
100
AcDbEntity
  8
0
100
AcDbLine
 10
-37.70034236028253
 20
-34.15160062094168
 30
0.0
 11
-37.77657276988253
 21
-34.15483204654168
 31
0.0
  0
LINE
  5
130
330
2
100
AcDbEntity
  8
0
100
AcDbLine
 10
-37.63026455228252
 20
-34.14848676014168
 30
0.0
 11
-37.70034236028253
 21
-34.15160062094168
 31
0.0
  0
LINE
  5
131
330
2
100
AcDbEntity
  8
0
100
AcDbLine
 10
-37.56539468668252
 20
-34.14547877774168
 30
0.0
 11
-37.63026455228252
 21
-34.14848676014168
 31
0.0
  0
LINE
  5
132
330
2
100
AcDbEntity
  8
0
100
AcDbLine
 10
-37.50544904508252
 20
-34.14258910894168
 30
0.0
 11
-37.56539468668252
 21
-34.14547877774168
 31
0.0
  0
LINE
  5
133
330
2
100
AcDbEntity
  8
0
100
AcDbLine
 10
-37.42688047228253
 20
-34.13863645134169
 30
0.0
 11
-37.50544904508252
 21
-34.14258910894168
 31
0.0
  0
LINE
  5
134
330
2
100
AcDbEntity
  8
0
100
AcDbLine
 10
-37.36359637948253
 20
-34.13529093294168
 30
0.0
 11
-37.42688047228253
 21
-34.13863645134169
 31
0.0
  0
LINE
  5
135
330
2
100
AcDbEntity
  8
0
100
AcDbLine
 10
-37.74808900188253
 20
-34.15675649774168
 30
0.0
 11
-37.37248907548253
 21
-34.13578408974168
 31
0.0
  0
LINE
  5
136
330
2
100
AcDbEntity
  8
0
100
AcDbLine
 10
-36.15491539708253
 20
-33.95890146414169
 30
0.0
 11
-36.39572406268253
 21
-33.96119986574168
 31
0.0
  0
LINE
  5
137
330
2
100
AcDbEntity
  8
0
100
AcDbLine
 10
-38.49214222428253
 20
-34.19452963854169
 30
0.0
 11
-38.37579072188252
 21
-34.18909617934168
 31
0.0
  0
LINE
  5
138
330
2
100
AcDbEntity
  8
0
100
AcDbLine
 10
-38.37579072188252
 20
-34.18909617934168
 30
0.0
 11
-38.26184819068252
 21
-34.18358159534168
 31
0.0
  0
LINE
  5
139
330
2
100
AcDbEntity
  8
0
100
AcDbLine
 10
-38.26184819068252
 20
-34.18358159534168
 30
0.0
 11
-38.15063217948253
 21
-34.17802960174168
 31
0.0
  0
LINE
  5
13A
330
2
100
AcDbEntity
  8
0
100
AcDbLine
 10
-38.15063217948253
 20
-34.17802960174168
 30
0.0
 11
-38.04288879708252
 21
-34.17250505934168
 31
0.0
  0
LINE
  5
13B
330
2
100
AcDbEntity
  8
0
100
AcDbLine
 10
-38.04288879708252
 20
-34.17250505934168
 30
0.0
 11
-37.88944900988252
 21
-34.16441428974168
 31
0.0
  0
LINE
  5
13C
330
2
100
AcDbEntity
  8
0
100
AcDbLine
 10
-37.86012646428253
 20
-34.15819236494168
 30
0.0
 11
-37.95119907868253
 21
-34.16164504974168
 31
0.0
  0
LINE
  5
13D
330
2
100
AcDbEntity
  8
0
100
AcDbLine
 10
-37.88944900988252
 20
-34.16441428974168
 30
0.0
 11
-37.74808900188253
 21
-34.15675649774168
 31
0.0
  0
LINE
  5
13E
330
2
100
AcDbEntity
  8
0
  6
HIDDEN
100
AcDbLine
 10
-37.49409323548252
 20
-31.66845805934169
 30
0.0
 11
-41.18333190588252
 21
-31.58387563854168
 31
0.0
  0
LWPOLYLINE
  5
13F
330
2
100
AcDbEntity
  8
0
100
AcDbPolyline
 90
       11
 70
     0
 43
0.0
 10
-33.83608032828253
 20
-33.84353696974168
 10
-33.78122874588253
 20
-33.83780978574167
 10
-33.72734194268252
 20
-33.82607775214168
 10
-33.67507551068253
 20
-33.80848359854168
 10
-33.62506533148253
 20
-33.78524137294167
 10
-33.57791983388253
 20
-33.75663383534168
 10
-33.53421260508253
 20
-33.72300902734168
 10
-33.49447540028252
 20
-33.68477603854167
 10
-33.45919166428252
 20
-33.64240001134167
 10
-33.42879065308252
 20
-33.59639648014168
 10
-33.40364223868252
 20
-33.54732513294168
  0
LWPOLYLINE
  5
140
330
2
100
AcDbEntity
  8
0
100
AcDbPolyline
 90
       11
 70
     0
 43
0.0
 10
-33.83599906588253
 20
-33.84374165294168
 10
-33.78115611708253
 20
-33.83800488334168
 10
-33.72727879708253
 20
-33.82626506094168
 10
-33.67502240988253
 20
-33.80866497614167
 10
-33.62502253788253
 20
-33.78541869934167
 10
-33.57788732668252
 20
-33.75680897134167
 10
-33.53419007068252
 20
-33.72318376494168
 10
-33.49446225628253
 20
-33.68495206094168
 10
-33.45918708508253
 20
-33.64257886574167
 10
-33.42879360508253
 20
-33.59657955694167
 10
-33.40365148668253
 20
-33.54751361774168
  0
LWPOLYLINE
  5
141
330
2
100
AcDbEntity
  8
0
100
AcDbPolyline
 90
       13
 70
     0
 43
0.0
 10
-33.83599906588253
 20
-33.84374165614168
 10
-33.83533951228253
 20
-33.85036382894168
 10
-33.83858276188253
 20
-33.85678458894167
 10
-33.84570378908253
 20
-33.86299828494168
 10
-33.85666536668253
 20
-33.86899956814168
 10
-33.87142180028253
 20
-33.87478510094168
 10
-33.88991231708253
 20
-33.88035531054168
 10
-33.91210355228253
 20
-33.88572092334168
 10
-33.93797592348252
 20
-33.89088994414167
 10
-33.96746892668252
 20
-33.89585659214167
 10
-34.00046061148252
 20
-33.90060791854168
 10
-34.03687179068252
 20
-33.90514402894167
 10
-34.07549578908252
 20
-33.90935003694168
  0
LINE
  5
142
330
2
100
AcDbEntity
  8
0
100
AcDbLine
 10
-33.83608032348253
 20
-33.84353706734168
 30
0.0
 11
-33.83599906428253
 21
-33.84374165614168
 31
0.0
  0
LWPOLYLINE
  5
143
330
2
100
AcDbEntity
  8
0
100
AcDbPolyline
 90
       12
 70
     0
 43
0.0
 10
-34.07560634588253
 20
-33.90936132654168
 10
-34.11956002588253
 20
-33.91356333934167
 10
-34.16563762428252
 20
-33.91744202414168
 10
-34.21471705788252
 20
-33.92109344174168
 10
-34.26668835548253
 20
-33.92451573134168
 10
-34.32144560668253
 20
-33.92771111054168
 10
-34.37882866748252
 20
-33.93068292654167
 10
-34.43918056828252
 20
-33.93347423534168
 10
-34.50279058748252
 20
-33.93613710734168
 10
-34.56971508028253
 20
-33.93871096494168
 10
-34.63951461468252
 20
-33.94121757294168
 10
-34.71147932988253
 20
-33.94366996494167
  0
LINE
  5
144
330
2
100
AcDbEntity
  8
0
100
AcDbLine
 10
-32.86957880508252
 20
-32.78296076014168
 30
0.0
 11
-32.86830106908253
 21
-32.78291570094168
 31
0.0
  0
LINE
  5
145
330
2
100
AcDbEntity
  8
0
100
AcDbLine
 10
-33.40365148668253
 20
-33.54751361774168
 30
0.0
 11
-33.38405239388253
 21
-33.49578301454168
 31
0.0
  0
LINE
  5
146
330
2
100
AcDbEntity
  8
0
100
AcDbLine
 10
-33.38406652828253
 20
-33.49597783054168
 30
0.0
 11
-33.37025944828252
 21
-33.44239724334169
 31
0.0
  0
LINE
  5
147
330
2
100
AcDbEntity
  8
0
100
AcDbLine
 10
-33.37027694268252
 20
-33.44259901774168
 30
0.0
 11
-33.36305803228252
 21
-33.39448806574168
 31
0.0
  0
LINE
  5
148
330
2
100
AcDbEntity
  8
0
100
AcDbLine
 10
-33.37025944828252
 20
-33.44239724334169
 30
0.0
 11
-33.36259804028253
 21
-33.38968421614168
 31
0.0
  0
LINE
  5
149
330
2
100
AcDbEntity
  8
0
100
AcDbLine
 10
-33.36305803228252
 20
-33.39448806574168
 30
0.0
 11
-33.36304948348252
 21
-33.39440299534168
 31
0.0
  0
LINE
  5
14A
330
2
100
AcDbEntity
  8
0
100
AcDbLine
 10
-33.36304948348252
 20
-33.39440299534168
 30
0.0
 11
-33.36268001308252
 21
-33.39057936974168
 31
0.0
  0
LINE
  5
14B
330
2
100
AcDbEntity
  8
0
100
AcDbLine
 10
-33.36243871548252
 20
-33.38790341294169
 30
0.0
 11
-33.36268001308252
 21
-33.39057936974168
 31
0.0
  0
LINE
  5
14C
330
2
100
AcDbEntity
  8
0
100
AcDbLine
 10
-33.23811533148253
 20
-33.40104446574168
 30
0.0
 11
-33.23790257148253
 21
-33.39866399694168
 31
0.0
  0
LINE
  5
14D
330
2
100
AcDbEntity
  8
0
100
AcDbLine
 10
-33.36259804028253
 20
-33.38968421614168
 30
0.0
 11
-33.34941560668252
 21
-33.23904941294169
 31
0.0
  0
LWPOLYLINE
  5
14E
330
2
100
AcDbEntity
  8
0
100
AcDbPolyline
 90
        4
 70
     0
 43
0.0
 10
-34.11028535228253
 20
-32.78676632334168
 10
-34.27649563388253
 20
-32.78719460974168
 10
-34.36171003068253
 20
-32.78740813134167
 10
-34.44811468028253
 20
-32.78762085614168
  0
LWPOLYLINE
  5
14F
330
2
100
AcDbEntity
  8
0
100
AcDbPolyline
 90
        3
 70
     0
 43
0.0
 10
-33.87365013468253
 20
-32.78612784974168
 10
-34.02962357948253
 20
-32.78655257294168
 10
-34.11028535228253
 20
-32.78676632334168
  0
LINE
  5
150
330
2
100
AcDbEntity
  8
0
100
AcDbLine
 10
-33.87365013468253
 20
-32.78612784974169
 30
0.0
 11
-33.79866181628253
 21
-32.78591812814168
 31
0.0
  0
LINE
  5
151
330
2
100
AcDbEntity
  8
0
100
AcDbLine
 10
-33.72584773628253
 20
-32.78571094094168
 30
0.0
 11
-33.79874110108252
 21
-32.78591835214168
 31
0.0
  0
LINE
  5
152
330
2
100
AcDbEntity
  8
0
100
AcDbLine
 10
-33.58721312348253
 20
-32.78530650734168
 30
0.0
 11
-33.72592150908252
 21
-32.78571115214168
 31
0.0
  0
LINE
  5
153
330
2
100
AcDbEntity
  8
0
100
AcDbLine
 10
-33.52165884028252
 20
-32.78511059054168
 30
0.0
 11
-33.58728803388252
 21
-32.78530672814168
 31
0.0
  0
LWPOLYLINE
  5
154
330
2
100
AcDbEntity
  8
0
100
AcDbPolyline
 90
        3
 70
     0
 43
0.0
 10
-33.34064194588252
 20
-32.78455268974168
 10
-33.45873198108253
 20
-32.78491958894167
 10
-33.52172835388252
 20
-32.78511080014168
  0
LWPOLYLINE
  5
155
330
2
100
AcDbEntity
  8
0
100
AcDbPolyline
 90
        3
 70
     0
 43
0.0
 10
-33.18493933948252
 20
-32.78404908174167
 10
-33.28575609628252
 20
-32.78437798894167
 10
-33.34064194588252
 20
-32.78455268974168
  0
LINE
  5
156
330
2
100
AcDbEntity
  8
0
100
AcDbLine
 10
-33.18493118588253
 20
-32.78404905454169
 30
0.0
 11
-33.13923237628253
 21
-32.78389603374168
 31
0.0
  0
LINE
  5
157
330
2
100
AcDbEntity
  8
0
100
AcDbLine
 10
-33.05778951228252
 20
-32.78361581934168
 30
0.0
 11
-33.13924575068253
 21
-32.78389607854168
 31
0.0
  0
LWPOLYLINE
  5
158
330
2
100
AcDbEntity
  8
0
100
AcDbPolyline
 90
        3
 70
     0
 43
0.0
 10
-32.96187712988252
 20
-32.78326954574168
 10
-33.02222640188253
 20
-32.78348975534167
 10
-33.05778951228252
 20
-32.78361581934167
  0
LWPOLYLINE
  5
159
330
2
100
AcDbEntity
  8
0
100
AcDbPolyline
 90
        3
 70
     0
 43
0.0
 10
-32.86830106908253
 20
-32.78291570094168
 10
-32.93721693948252
 20
-32.78317744494168
 10
-32.96187930428253
 20
-32.78326955374168
  0
ARC
  5
15A
330
2
100
AcDbEntity
  8
0
100
AcDbCircle
 10
-32.85131832188253
 20
-33.28262720494169
 30
0.0
 40
0.5
100
AcDbArc
 50
92.0929642749
 51
175.0
  0
LINE
  5
15B
330
2
100
AcDbEntity
  8
0
100
AcDbLine
 10
-34.91757235068253
 20
-32.84909471694168
 30
0.0
 11
-34.93044662268252
 21
-32.85466799854168
 31
0.0
  0
LWPOLYLINE
  5
15C
330
2
100
AcDbEntity
  8
0
100
AcDbPolyline
 90
       31
 70
     0
 43
0.0
 10
-35.02737242428253
 20
-32.90752091854168
 10
-35.01597152508253
 20
-32.90016727854168
 10
-35.00434633468252
 20
-32.89301870254168
 10
-34.99250500988253
 20
-32.88607913294168
 10
-34.98045732188252
 20
-32.87935320494168
 10
-34.96821055868252
 20
-32.87284393294167
 10
-34.95577832828253
 20
-32.86655738254168
 10
-34.94318608348253
 20
-32.86050448974167
 10
-34.93045185308253
 20
-32.85469112494168
 10
-34.91758285788253
 20
-32.84911764974168
 10
-34.90458581308253
 20
-32.84378429454168
 10
-34.89146682108253
 20
-32.83869115054168
 10
-34.87823152668252
 20
-32.83383826574168
 10
-34.86488508028253
 20
-32.82922566414168
 10
-34.85143217148253
 20
-32.82485337934168
 10
-34.83787703388253
 20
-32.82072148494167
 10
-34.82422347068252
 20
-32.81683011854168
 10
-34.81047487548252
 20
-32.81317951374168
 10
-34.79663424668252
 20
-32.80977002254167
 10
-34.78270421948252
 20
-32.80660213934167
 10
-34.76868708988253
 20
-32.80367652334168
 10
-34.75458483068253
 20
-32.80099401294167
 10
-34.74039913788253
 20
-32.79855565774168
 10
-34.72613144828253
 20
-32.79636272334168
 10
-34.71178296508253
 20
-32.79441671534168
 10
-34.69735464988252
 20
-32.79271938254167
 10
-34.68284744668252
 20
-32.79127275694168
 10
-34.66826202268252
 20
-32.79007912654167
 10
-34.65359939068253
 20
-32.78914108974167
 10
-34.63885808988253
 20
-32.78846141774168
 10
-34.62404730268252
 20
-32.78804352974168
  0
LINE
  5
15D
330
2
100
AcDbEntity
  8
0
100
AcDbLine
 10
-35.02741484188253
 20
-32.90750474254169
 30
0.0
 11
-35.03859074748253
 21
-32.91506235374169
 31
0.0
  0
LWPOLYLINE
  5
15E
330
2
100
AcDbEntity
  8
0
100
AcDbPolyline
 90
        6
 70
     0
 43
0.0
 10
-35.09065098428253
 20
-32.95573495374168
 10
-35.08075371068253
 20
-32.94723397774168
 10
-35.07058666588253
 20
-32.93891309134168
 10
-35.06015728828252
 20
-32.93077688494168
 10
-35.04947324988252
 20
-32.92282989134168
 10
-35.03854225788252
 20
-32.91507644014168
  0
LWPOLYLINE
  5
15F
330
2
100
AcDbEntity
  8
0
100
AcDbPolyline
 90
        3
 70
     0
 43
0.0
 10
-35.09072734748253
 20
-32.95573571214168
 10
-35.10035218268253
 20
-32.96441574414168
 10
-35.10969239388252
 20
-32.97326645774168
  0
LINE
  5
160
330
2
100
AcDbEntity
  8
0
100
AcDbLine
 10
-35.11874127868253
 20
-32.98228312814169
 30
0.0
 11
-35.10960699068253
 21
-32.97325789934169
 31
0.0
  0
LINE
  5
161
330
2
100
AcDbEntity
  8
0
100
AcDbLine
 10
-35.12749214908252
 20
-32.99146076814168
 30
0.0
 11
-35.11865172988253
 21
-32.98227005614168
 31
0.0
  0
LWPOLYLINE
  5
162
330
2
100
AcDbEntity
  8
0
100
AcDbPolyline
 90
        3
 70
     0
 43
0.0
 10
-35.12749214908252
 20
-32.99146076814167
 10
-35.13593850908253
 20
-33.00079425774168
 10
-35.14407415068252
 20
-33.01027844174168
  0
LWPOLYLINE
  5
163
330
2
100
AcDbEntity
  8
0
100
AcDbPolyline
 90
        4
 70
     0
 43
0.0
 10
-35.15189312668252
 20
-33.01990809134167
 10
-35.14397518428252
 20
-33.01025041774168
 10
-35.13584219388252
 20
-33.00077149454168
 10
-35.12739894588253
 20
-32.99144294894168
  0
LINE
  5
164
330
2
100
AcDbEntity
  8
0
100
AcDbLine
 10
-35.15938976828252
 20
-33.02967793614168
 30
0.0
 11
-35.15179202108253
 21
-33.01987450254169
 31
0.0
  0
LINE
  5
165
330
2
100
AcDbEntity
  8
0
100
AcDbLine
 10
-35.16655870588252
 20
-33.03958267374168
 30
0.0
 11
-35.15928709788252
 21
-33.02963851534169
 31
0.0
  0
LINE
  5
166
330
2
100
AcDbEntity
  8
0
100
AcDbLine
 10
-35.17339484028252
 20
-33.04961694894169
 30
0.0
 11
-35.16645506588253
 21
-33.03953714734169
 31
0.0
  0
LINE
  5
167
330
2
100
AcDbEntity
  8
0
100
AcDbLine
 10
-35.17989337148253
 20
-33.05977536974168
 30
0.0
 11
-35.17329086108253
 21
-33.04956503854168
 31
0.0
  0
LINE
  5
168
330
2
100
AcDbEntity
  8
0
100
AcDbLine
 10
-35.18604979388253
 20
-33.07005250414168
 30
0.0
 11
-35.17978971708252
 21
-33.05971680334168
 31
0.0
  0
LINE
  5
169
330
2
100
AcDbEntity
  8
0
100
AcDbLine
 10
-35.19185990588252
 20
-33.08044290094168
 30
0.0
 11
-35.18594716028252
 21
-33.06998701614169
 31
0.0
  0
LINE
  5
16A
330
2
100
AcDbEntity
  8
0
100
AcDbLine
 10
-35.19731979868252
 20
-33.09094105454168
 30
0.0
 11
-35.19175901948253
 21
-33.08037021934168
 31
0.0
  0
LINE
  5
16B
330
2
100
AcDbEntity
  8
0
100
AcDbLine
 10
-35.20242592028253
 20
-33.10154152494169
 30
0.0
 11
-35.19722142908253
 21
-33.09086092814168
 31
0.0
  0
LINE
  5
16C
330
2
100
AcDbEntity
  8
0
100
AcDbLine
 10
-35.20717486108253
 20
-33.11223847694168
 30
0.0
 11
-35.20233083388252
 21
-33.10145363534168
 31
0.0
  0
LINE
  5
16D
330
2
100
AcDbEntity
  8
0
100
AcDbLine
 10
-35.21156416028253
 20
-33.12302757134168
 30
0.0
 11
-35.20708398268253
 21
-33.11214278734169
 31
0.0
  0
LINE
  5
16E
330
2
100
AcDbEntity
  8
0
100
AcDbLine
 10
-35.21558873308253
 20
-33.13389660334169
 30
0.0
 11
-35.21147797788252
 21
-33.12292289614168
 31
0.0
  0
LINE
  5
16F
330
2
100
AcDbEntity
  8
0
100
AcDbLine
 10
-35.21923864028252
 20
-33.14481397774168
 30
0.0
 11
-35.21550994428253
 21
-33.13378764974168
 31
0.0
  0
LINE
  5
170
330
2
100
AcDbEntity
  8
0
100
AcDbLine
 10
-35.22251228348252
 20
-33.15576366734168
 30
0.0
 11
-35.21917322748253
 21
-33.14471745614168
 31
0.0
  0
LINE
  5
171
330
2
100
AcDbEntity
  8
0
100
AcDbLine
 10
-35.22541570588252
 20
-33.16675379214168
 30
0.0
 11
-35.22246173948252
 21
-33.15568661454168
 31
0.0
  0
LWPOLYLINE
  5
172
330
2
100
AcDbEntity
  8
0
100
AcDbPolyline
 90
        4
 70
     0
 43
0.0
 10
-35.22541570588252
 20
-33.16675379214167
 10
-35.22795398748253
 20
-33.17779575374167
 10
-35.23013042908253
 20
-33.18890223054168
 10
-35.23194558268253
 20
-33.20008175534168
  0
LWPOLYLINE
  5
173
330
2
100
AcDbEntity
  8
0
100
AcDbPolyline
 90
        4
 70
     0
 43
0.0
 10
-35.29414029948253
 20
-33.54681157454168
 10
-35.27131202108252
 20
-33.42174156494167
 10
-35.25059325788252
 20
-33.30619355854167
 10
-35.23194556508252
 20
-33.20008175694168
  0
LINE
  5
174
330
2
100
AcDbEntity
  8
0
100
AcDbLine
 10
-34.68282031708253
 20
-32.79127007054168
 30
0.0
 11
-34.69732320668252
 21
-32.79271555534168
 31
0.0
  0
LINE
  5
175
330
2
100
AcDbEntity
  8
0
100
AcDbLine
 10
-34.71174803868253
 20
-32.79441162094169
 30
0.0
 11
-34.72609385468253
 21
-32.79635626574168
 31
0.0
  0
LINE
  5
176
330
2
100
AcDbEntity
  8
0
100
AcDbLine
 10
-34.74035962588253
 20
-32.79854776334168
 30
0.0
 11
-34.75454411228253
 21
-32.80098463374168
 31
0.0
  0
LINE
  5
177
330
2
100
AcDbEntity
  8
0
100
AcDbLine
 10
-34.44811468028253
 20
-32.78762085614168
 30
0.0
 11
-34.62404729628252
 21
-32.78804352974168
 31
0.0
  0
LINE
  5
178
330
2
100
AcDbEntity
  8
0
  6
HIDDEN
100
AcDbLine
 10
-20.97371783548253
 20
-35.06980343854168
 30
0.0
 11
-21.37343605628252
 21
-39.63860360174168
 31
0.0
  0
LINE
  5
179
330
2
100
AcDbEntity
  8
0
  6
HIDDEN
100
AcDbLine
 10
-20.49583369948253
 20
-40.32323679534168
 30
0.0
 11
-20.49583369948253
 21
-35.35448679534168
 31
0.0
  0
LINE
  5
17A
330
2
100
AcDbEntity
  8
0
  6
HIDDEN
100
AcDbLine
 10
-25.71325793148253
 20
-40.32323679534168
 30
0.0
 11
-25.71325793148253
 21
-34.02699182574169
 31
0.0
  0
LINE
  5
17B
330
2
100
AcDbEntity
  8
0
100
AcDbLine
 10
-19.87083369948253
 20
-40.32323679534168
 30
0.0
 11
-19.87083369948253
 21
-35.35448663534168
 31
0.0
  0
LINE
  5
17C
330
2
100
AcDbEntity
  8
0
100
AcDbLine
 10
-28.12083369948253
 20
-40.32323679534168
 30
0.0
 11
-28.12083369948253
 21
-33.60695327374168
 31
0.0
  0
ARC
  5
17D
330
2
100
AcDbEntity
  8
0
100
AcDbCircle
 10
-22.49608531868253
 20
-39.57323679534168
 30
0.0
 40
0.75
100
AcDbArc
 50
184.9999917116999
 51
269.9999011672999
  0
LINE
  5
17E
330
2
100
AcDbEntity
  8
0
100
AcDbLine
 10
-23.37866819708253
 20
-38.09055326574169
 30
0.0
 11
-23.24323135228253
 21
-39.63860349454168
 31
0.0
  0
LINE
  5
17F
330
2
100
AcDbEntity
  8
0
100
AcDbLine
 10
-26.99323134268253
 20
-39.63860360174168
 30
0.0
 11
-27.11487267548253
 21
-38.24823679534169
 31
0.0
  0
ARC
  5
180
330
2
100
AcDbEntity
  8
0
100
AcDbCircle
 10
-26.24608531868253
 20
-39.57323679534168
 30
0.0
 40
0.75
100
AcDbArc
 50
185.0
 51
270.0
  0
LINE
  5
181
330
2
100
AcDbEntity
  8
0
100
AcDbLine
 10
-25.71325793148253
 20
-38.24823679534169
 30
0.0
 11
-27.11487267548253
 21
-38.24823679534169
 31
0.0
  0
LINE
  5
182
330
2
100
AcDbEntity
  8
0
100
AcDbLine
 10
-23.75224119868252
 20
-37.74823679534168
 30
0.0
 11
-25.71325793148253
 21
-37.74823679534168
 31
0.0
  0
ARC
  5
183
330
2
100
AcDbEntity
  8
0
100
AcDbCircle
 10
-23.75224119868252
 20
-38.12323679534168
 30
0.0
 40
0.375
100
AcDbArc
 50
5.000019213299999
 51
90.0
  0
LWPOLYLINE
  5
184
330
2
100
AcDbEntity
  8
0
100
AcDbPolyline
 90
       25
 70
     0
 43
0.0
 10
-27.73195999548252
 20
-33.67507336494168
 10
-27.34372197468252
 20
-33.74529545774167
 10
-26.95710753308253
 20
-33.81742723534168
 10
-26.57324640988253
 20
-33.89122637134168
 10
-26.19306068828253
 20
-33.96646684014168
 10
-25.81775132828252
 20
-34.04284471374168
 10
-25.44820916988253
 20
-34.12009564334168
 10
-25.08566060508252
 20
-34.19786379054168
 10
-24.73095572988252
 20
-34.27585200014168
 10
-24.38530266748253
 20
-34.35366555054168
 10
-24.04950314748252
 20
-34.43098197454168
 10
-23.72469918108252
 20
-34.50738514254167
 10
-23.41162980028252
 20
-34.58253853454167
 10
-23.11132778588252
 20
-34.65602422734168
 10
-22.82445404348253
 20
-34.72750509294167
 10
-22.55189859548252
 20
-34.79658100654168
 10
-22.29423100668252
 20
-34.86292829934168
 10
-22.05217943708253
 20
-34.92618164974167
 10
-21.82621439228252
 20
-34.98604368494167
 10
-21.61689935228253
 20
-35.04219634254168
 10
-21.42460511068253
 20
-35.09437869934168
 10
-21.24974261788253
 20
-35.14232696174168
 10
-21.09258922428253
 20
-35.18582336814167
 10
-20.95342629308253
 20
-35.22466029454168
 10
-20.83244903548252
 20
-35.25866652014168
  0
LWPOLYLINE
  5
185
330
2
100
AcDbEntity
  8
0
100
AcDbPolyline
 90
       28
 70
     0
 43
0.0
 10
-28.12083369948253
 20
-33.60695327374168
 10
-27.70008510108253
 20
-33.67507336494168
 10
-27.28002429308253
 20
-33.74529545774167
 10
-26.86172014268253
 20
-33.81742723534168
 10
-26.44639499228253
 20
-33.89122637134168
 10
-26.03504650748253
 20
-33.96646684014168
 10
-25.62897408348253
 20
-34.04284471374168
 10
-25.22914158588253
 20
-34.12009564334168
 10
-24.83687592508252
 20
-34.19786379054168
 10
-24.45309688028252
 20
-34.27585200014168
 10
-24.07911159868253
 20
-34.35366555054168
 10
-23.71578752828253
 20
-34.43098197454168
 10
-23.36436028508252
 20
-34.50738514254167
 10
-23.02562948028253
 20
-34.58253853454167
 10
-22.70071254748252
 20
-34.65602422734168
 10
-22.39032456348252
 20
-34.72750509294167
 10
-22.09542850428252
 20
-34.79658100654168
 10
-21.81664062268252
 20
-34.86292829934168
 10
-21.55474875868253
 20
-34.92618164974167
 10
-21.31026199068253
 20
-34.98604368494167
 10
-21.08378997948253
 20
-35.04219634254168
 10
-20.87573391388252
 20
-35.09437869934168
 10
-20.68653843068253
 20
-35.14232696174168
 10
-20.51650361308253
 20
-35.18582336814167
 10
-20.36593388348252
 20
-35.22466029454168
 10
-20.23504045788253
 20
-35.25866652014168
 10
-20.12401768188253
 20
-35.28768878094167
 10
-20.03300341628252
 20
-35.31160296014167
  0
LINE
  5
186
330
2
100
AcDbEntity
  8
0
100
AcDbLine
 10
-25.71325793148253
 20
-34.02699182574169
 30
0.0
 11
-25.71325793148253
 21
-33.58759818254169
 31
0.0
  0
LINE
  5
187
330
2
100
AcDbEntity
  8
0
  6
HIDDEN
100
AcDbLine
 10
-26.65804024348253
 20
-32.90251131854168
 30
0.0
 11
-25.92661065948253
 21
-33.03934775374168
 31
0.0
  0
LINE
  5
188
330
2
100
AcDbEntity
  8
0
100
AcDbLine
 10
-26.65804304988252
 20
-32.90251013774168
 30
0.0
 11
-27.41609181148253
 21
-32.76788576974169
 31
0.0
  0
LINE
  5
189
330
2
100
AcDbEntity
  8
0
100
AcDbLine
 10
-28.24043228988253
 20
-32.62986951854168
 30
0.0
 11
-28.21348743068253
 21
-32.63424723534169
 31
0.0
  0
LINE
  5
18A
330
2
100
AcDbEntity
  8
0
100
AcDbLine
 10
-27.73195918428253
 20
-33.67507350894168
 30
0.0
 11
-28.12083369948253
 21
-33.60695327374168
 31
0.0
  0
LINE
  5
18B
330
2
100
AcDbEntity
  8
0
100
AcDbLine
 10
-28.21348758108253
 20
-32.63424818574168
 30
0.0
 11
-27.41608921948253
 21
-32.76788612974168
 31
0.0
  0
LINE
  5
18C
330
2
100
AcDbEntity
  8
0
100
AcDbLine
 10
-25.71325793148253
 20
-33.07571386414168
 30
0.0
 11
-25.71325793148253
 21
-33.58759818254169
 31
0.0
  0
LWPOLYLINE
  5
18D
330
2
100
AcDbEntity
  8
0
100
AcDbPolyline
 90
        4
 70
     0
 43
0.0
 10
-25.71607436028253
 20
-33.07474660654168
 10
-25.74302065948252
 20
-33.06870236494168
 10
-25.79676740188253
 20
-33.05897433614168
 10
-25.87209088988252
 20
-33.04765590734167
  0
LINE
  5
18E
330
2
100
AcDbEntity
  8
0
100
AcDbLine
 10
-25.76749329788252
 20
-33.06619092974168
 30
0.0
 11
-25.71325793148253
 21
-33.07571358414168
 31
0.0
  0
LINE
  5
18F
330
2
100
AcDbEntity
  8
0
100
AcDbLine
 10
-25.83110925468253
 20
-33.05529441774168
 30
0.0
 11
-25.76749329788252
 21
-33.06619092974168
 31
0.0
  0
LINE
  5
190
330
2
100
AcDbEntity
  8
0
100
AcDbLine
 10
-25.92661065948253
 20
-33.03934775374168
 30
0.0
 11
-25.83110925468253
 21
-33.05529441774168
 31
0.0
  0
LWPOLYLINE
  5
191
330
2
100
AcDbEntity
  8
0
100
AcDbPolyline
 90
        3
 70
     0
 43
0.0
 10
-25.87209081468252
 20
-33.04765544014168
 10
-25.90623076508252
 20
-33.04275927534168
 10
-25.94106766588252
 20
-33.03668693294167
  0
LINE
  5
192
330
2
100
AcDbEntity
  8
0
100
AcDbLine
 10
-20.96520880188252
 20
-34.97254474094168
 30
0.0
 11
-20.97371783548253
 21
-35.06980343854168
 31
0.0
  0
LINE
  5
193
330
2
100
AcDbEntity
  8
0
100
AcDbLine
 10
-20.49583369948253
 20
-35.35448679534168
 30
0.0
 11
-20.50521352188252
 21
-35.35179282094169
 31
0.0
  0
LINE
  5
194
330
2
100
AcDbEntity
  8
0
100
AcDbLine
 10
-20.64571754268253
 20
-35.31160304334168
 30
0.0
 11
-20.49583369948253
 21
-35.35448663534168
 31
0.0
  0
LINE
  5
195
330
2
100
AcDbEntity
  8
0
100
AcDbLine
 10
-20.72983707708253
 20
-35.28768878094168
 30
0.0
 11
-20.64571783068252
 21
-35.31160296014168
 31
0.0
  0
LINE
  5
196
330
2
100
AcDbEntity
  8
0
100
AcDbLine
 10
-20.72983680188252
 20
-35.28768885934168
 30
0.0
 11
-20.83244832028252
 21
-35.25866672174168
 31
0.0
  0
LINE
  5
197
330
2
100
AcDbEntity
  8
0
100
AcDbLine
 10
-19.87083369948253
 20
-35.35448679534168
 30
0.0
 11
-19.88098235868253
 21
-35.35179282094169
 31
0.0
  0
LINE
  5
198
330
2
100
AcDbEntity
  8
0
100
AcDbLine
 10
-19.91141878748253
 20
-35.34372167214168
 30
0.0
 11
-19.87083369948253
 21
-35.35448663534168
 31
0.0
  0
LINE
  5
199
330
2
100
AcDbEntity
  8
0
100
AcDbLine
 10
-20.03300341628252
 20
-35.31160296014168
 30
0.0
 11
-19.91141878748253
 21
-35.34372167214168
 31
0.0
  0
LINE
  5
19A
330
2
100
AcDbEntity
  8
0
100
AcDbLine
 10
-19.87083369948253
 20
-35.35448679534168
 30
0.0
 11
-20.49583369948253
 21
-35.35448679534168
 31
0.0
  0
LINE
  5
19B
330
2
100
AcDbEntity
  8
0
100
AcDbLine
 10
-17.98609818588252
 20
-32.27698508494168
 30
0.0
 11
-17.92655980348253
 21
-32.27511905454168
 31
0.0
  0
LWPOLYLINE
  5
19C
330
2
100
AcDbEntity
  8
0
100
AcDbPolyline
 90
        5
 70
     0
 43
0.0
 10
-18.43450016188252
 20
-32.29205297134168
 10
-18.42719159548252
 20
-32.29180323054168
 10
-18.42359067548253
 20
-32.29168023534167
 10
-18.42002471868252
 20
-32.29155846894168
 10
-18.41649327068252
 20
-32.29143791374168
  0
LINE
  5
19D
330
2
100
AcDbEntity
  8
0
100
AcDbLine
 10
-18.43820804988253
 20
-32.29217972814169
 30
0.0
 11
-18.43449993788253
 21
-32.29205296334169
 31
0.0
  0
LINE
  5
19E
330
2
100
AcDbEntity
  8
0
100
AcDbLine
 10
-18.44195271388253
 20
-32.29230777774168
 30
0.0
 11
-18.43820827388252
 21
-32.29217973614168
 31
0.0
  0
LINE
  5
19F
330
2
100
AcDbEntity
  8
0
100
AcDbLine
 10
-18.48406991068253
 20
-32.29375047534169
 30
0.0
 11
-18.43082789308252
 21
-32.29192746894169
 31
0.0
  0
LINE
  5
1A0
330
2
100
AcDbEntity
  8
0
100
AcDbLine
 10
-18.53093270428253
 20
-32.29535930894168
 30
0.0
 11
-18.51313380028253
 21
-32.29474846574168
 31
0.0
  0
LINE
  5
1A1
330
2
100
AcDbEntity
  8
0
100
AcDbLine
 10
-19.06301527068252
 20
-32.31376152654169
 30
0.0
 11
-18.50852797788252
 21
-32.29459019534168
 31
0.0
  0
LWPOLYLINE
  5
1A2
330
2
100
AcDbEntity
  8
0
100
AcDbPolyline
 90
       15
 70
     0
 43
0.0
 10
-18.50852797788252
 20
-32.29459019534167
 10
-18.49197824508253
 20
-32.29402184974168
 10
-18.48800620828252
 20
-32.29388553134167
 10
-18.48406991068253
 20
-32.29375047534168
 10
-18.48016401308252
 20
-32.29361649774168
 10
-18.47628415068253
 20
-32.29348344814168
 10
-18.47242635388252
 20
-32.29335119054168
 10
-18.46858682908252
 20
-32.29321959694168
 10
-18.46476188348252
 20
-32.29308853774168
 10
-18.46094790908253
 20
-32.29295789294168
 10
-18.45714138428252
 20
-32.29282753774167
 10
-18.45333888348253
 20
-32.29269736014168
 10
-18.44953709308252
 20
-32.29256724174168
 10
-18.44573344988252
 20
-32.29243709934168
 10
-18.44195249148252
 20
-32.29230777134167
  0
LINE
  5
1A3
330
2
100
AcDbEntity
  8
0
100
AcDbLine
 10
-18.51313468028253
 20
-32.29474849614168
 30
0.0
 11
-18.50422399548253
 21
-32.29444233454168
 31
0.0
  0
LWPOLYLINE
  5
1A4
330
2
100
AcDbEntity
  8
0
100
AcDbPolyline
 90
        3
 70
     0
 43
0.0
 10
-19.06434881148253
 20
-32.31380749134167
 10
-18.89671989788253
 20
-32.30799946414168
 10
-18.73837290748253
 20
-32.30251827214168
  0
LWPOLYLINE
  5
1A5
330
2
100
AcDbEntity
  8
0
100
AcDbPolyline
 90
        8
 70
     0
 43
0.0
 10
-18.09631895548253
 20
-32.16965181294168
 10
-18.27977867708253
 20
-32.21380080974167
 10
-18.44563019388253
 20
-32.24664293454168
 10
-18.59583127868252
 20
-32.27090976174167
 10
-18.73187465148252
 20
-32.28854401934167
 10
-18.85483197308252
 20
-32.30093098734168
 10
-18.96550025788252
 20
-32.30910894574167
 10
-19.06301527068252
 20
-32.31376152654168
  0
LINE
  5
1A6
330
2
100
AcDbEntity
  8
0
100
AcDbLine
 10
-18.11308959068253
 20
-32.28114714094168
 30
0.0
 11
-17.98609818588252
 21
-32.27698508494168
 31
0.0
  0
LINE
  5
1A7
330
2
100
AcDbEntity
  8
0
100
AcDbLine
 10
-18.42456120668252
 20
-32.29170417934168
 30
0.0
 11
-18.07914010428253
 21
-32.27998191854168
 31
0.0
  0
LWPOLYLINE
  5
1A8
330
2
100
AcDbEntity
  8
0
100
AcDbPolyline
 90
       19
 70
     0
 43
0.0
 10
-63.40939248508252
 20
-12.51640739854168
 10
-63.69679395868253
 20
-12.48934180014168
 10
-64.39545095548253
 20
-12.41803876174167
 10
-65.07426592828252
 20
-12.34152340014167
 10
-65.74199939548254
 20
-12.25923414894168
 10
-66.40085430108253
 20
-12.17119327214167
 10
-67.05229430908253
 20
-12.07749437934168
 10
-67.69763365948254
 20
-11.97824614894167
 10
-68.33494036668253
 20
-11.87408805294168
 10
-68.95810833468252
 20
-11.76652935534168
 10
-69.56116616988253
 20
-11.65729768174167
 10
-70.13822985308252
 20
-11.54828590254167
 10
-70.68622977468253
 20
-11.44086917774168
 10
-71.20368711548252
 20
-11.33605535694167
 10
-71.68926060348252
 20
-11.23475874894168
 10
-72.14184534908253
 20
-11.13779770734168
 10
-72.56064636668253
 20
-11.04588261454167
 10
-72.94520865788253
 20
-10.95960793614167
 10
-73.28982438748252
 20
-10.88073818414168
  0
LWPOLYLINE
  5
1A9
330
2
100
AcDbEntity
  8
0
100
AcDbPolyline
 90
       39
 70
     0
 43
0.0
 10
-69.68479666268253
 20
-18.79653369134167
 10
-69.65811616028253
 20
-18.85749444174168
 10
-69.63950621948253
 20
-18.90028099374168
 10
-69.61751343388252
 20
-18.95111536974168
 10
-69.59209087868252
 20
-19.01023666254167
 10
-69.56266613788253
 20
-19.07912579534168
 10
-69.52883745628253
 20
-19.15891727854168
 10
-69.49067929148253
 20
-19.24969420014168
 10
-69.45150525628253
 20
-19.34376630894168
 10
-69.41544274268252
 20
-19.43119418254168
 10
-69.38149552508253
 20
-19.51435370734167
 10
-69.34588544668253
 20
-19.60256388974168
 10
-69.30555063068253
 20
-19.70363577774168
 10
-69.25983823548254
 20
-19.81949141774168
 10
-69.20942456348253
 20
-19.94857575054167
 10
-69.15431934748252
 20
-20.09113369134168
 10
-69.09434684988252
 20
-20.24793814574167
 10
-69.02904242428252
 20
-20.42061456014168
 10
-68.95782735388252
 20
-20.61122370894167
 10
-68.88003103068253
 20
-20.82221776494167
 10
-68.79491520188253
 20
-21.05647544814168
 10
-68.70159753628252
 20
-21.31754677454168
 10
-68.59892809308252
 20
-21.61008064014168
 10
-68.48531051228253
 20
-21.94074032974167
 10
-68.35928315548253
 20
-22.31658367694168
 10
-68.22067474428251
 20
-22.74205256494167
 10
-68.07948690108253
 20
-23.18984039854167
 10
-67.94633411548253
 20
-23.62754399694168
 10
-67.82254731868253
 20
-24.04954458094167
 10
-67.70345232988254
 20
-24.47217670574168
 10
-67.58012875548252
 20
-24.93163198574168
 10
-67.44760449628254
 20
-25.45489365774168
 10
-67.31946199548253
 20
-25.99335540814168
 10
-67.20677653308253
 20
-26.49316693454167
 10
-67.11228005308253
 20
-26.93044227534168
 10
-67.03110251228252
 20
-27.31785607054168
 10
-66.95947962908253
 20
-27.66619393134168
 10
-66.89550992508253
 20
-27.98023825774168
 10
-66.78594156828253
 20
-28.51956915054167
  0
LWPOLYLINE
  5
1AA
330
2
100
AcDbEntity
  8
0
100
AcDbPolyline
 90
       10
 70
     0
 43
0.0
 10
-68.56000340348254
 20
-14.69744419854168
 10
-64.75353498268254
 20
-14.69678952654167
 10
-63.94786611228252
 20
-14.69675335854167
 10
-63.13099268828253
 20
-14.69678069294167
 10
-62.30525883708253
 20
-14.69687485134168
 10
-61.47313986268253
 20
-14.69694607214167
 10
-60.63537292028253
 20
-14.69687557134167
 10
-59.79119182108252
 20
-14.69666353614167
 10
-58.94100020828253
 20
-14.69641348814167
 10
-58.08552152668252
 20
-14.69623659214168
  0
LWPOLYLINE
  5
1AB
330
2
100
AcDbEntity
  8
0
100
AcDbPolyline
 90
        5
 70
     0
 43
0.0
 10
-76.96194936348253
 20
-11.69225755054167
 10
-77.05827214108253
 20
-12.44023448174167
 10
-77.12732117308252
 20
-13.19117568174167
 10
-77.16903302748253
 20
-13.94438885134167
 10
-77.18332751228253
 20
-14.69823679534167
  0
LWPOLYLINE
  5
1AC
330
2
100
AcDbEntity
  8
0
100
AcDbPolyline
 90
        7
 70
     0
 43
0.0
 10
-71.81593079868253
 20
-14.45583616814167
 10
-72.29039571708253
 20
-13.67210876814167
 10
-72.73662934268253
 20
-12.99481603854167
 10
-73.16631648348253
 20
-12.39543862894168
 10
-73.59103194268252
 20
-11.85042446414167
 10
-74.01051344668252
 20
-11.35542124974167
 10
-74.42583769948253
 20
-10.90496706094167
  0
LWPOLYLINE
  5
1AD
330
2
100
AcDbEntity
  8
0
100
AcDbPolyline
 90
       11
 70
     0
 43
0.0
 10
-69.52295056188254
 20
-19.77778564014167
 10
-69.43955920508253
 20
-20.04308709774167
 10
-69.33581828508252
 20
-20.33567329454168
 10
-69.21905631548253
 20
-20.65867969294168
 10
-69.09524177628253
 20
-21.02035253134168
 10
-68.96757813788252
 20
-21.42821972014167
 10
-68.83280234268252
 20
-21.89275665934168
 10
-68.70442860988252
 20
-22.35737988174168
 10
-68.58524620988252
 20
-22.80359396974167
 10
-68.45746496188252
 20
-23.30590158734167
 10
-68.34924794748252
 20
-23.75984570254168
  0
LWPOLYLINE
  5
1AE
330
2
100
AcDbEntity
  8
0
100
AcDbPolyline
 90
       21
 70
     0
 43
0.0
 10
-68.34924759228252
 20
-23.75984724654168
 10
-68.23911253308253
 20
-24.25594265454167
 10
-68.14976975708254
 20
-24.68563151694167
 10
-68.07032211068253
 20
-25.08985610894168
 10
-67.99853604348253
 20
-25.47516019854167
 10
-67.93269194428254
 20
-25.84779770094167
 10
-67.87216801148253
 20
-26.20979088654168
 10
-67.81686934908254
 20
-26.56087029774168
 10
-67.76676723548253
 20
-26.90050724974168
 10
-67.72185981948253
 20
-27.22808063054167
 10
-67.68199640028253
 20
-27.54429228654167
 10
-67.64713170428253
 20
-27.84996071694168
 10
-67.61740044188252
 20
-28.14537394574168
 10
-67.59305292028253
 20
-28.43110102414168
 10
-67.57468396508253
 20
-28.70741691854168
 10
-67.56140736028253
 20
-28.97384459534168
 10
-67.55025673148253
 20
-29.23166188494167
 10
-67.53716635548252
 20
-29.48183726574168
 10
-67.51795292028254
 20
-29.72202304334167
 10
-67.48832754428253
 20
-29.95046485934167
 10
-67.46015998588252
 20
-30.10077951854167
  0
LWPOLYLINE
  5
1AF
330
2
100
AcDbEntity
  8
0
100
AcDbPolyline
 90
       15
 70
     0
 43
0.0
 10
-68.34924759228252
 20
-23.75984724654168
 10
-68.32355620668252
 20
-23.87235413934168
 10
-68.18422688828253
 20
-24.51691558094168
 10
-68.04179027868253
 20
-25.24057487694168
 10
-67.90530609468253
 20
-26.00903493294168
 10
-67.79718118748252
 20
-26.69156517614168
 10
-67.71420181948252
 20
-27.28669028974167
 10
-67.65207347708252
 20
-27.80444765294168
 10
-67.60749080508253
 20
-28.25501501934168
 10
-67.57811931868253
 20
-28.64900001934167
 10
-67.55964877948253
 20
-29.01403770254168
 10
-67.54524422908253
 20
-29.33760675214168
 10
-67.52706003388252
 20
-29.62241929934167
 10
-67.49983047068252
 20
-29.87392614254167
 10
-67.46016002108253
 20
-30.10077934734168
  0
LWPOLYLINE
  5
1B0
330
2
100
AcDbEntity
  8
0
100
AcDbPolyline
 90
        7
 70
     0
 43
0.0
 10
-69.70071162908252
 20
-18.76045216174168
 10
-69.94780607388253
 20
-18.18027171534168
 10
-70.22335185788254
 20
-17.55892344654167
 10
-70.53892712028252
 20
-16.87860923214168
 10
-70.90925724828252
 20
-16.12072555374167
 10
-71.34127390108253
 20
-15.30549748334167
 10
-71.81593079868253
 20
-14.45583616814167
  0
LWPOLYLINE
  5
1B1
330
2
100
AcDbEntity
  8
0
100
AcDbPolyline
 90
       10
 70
     0
 43
0.0
 10
-69.52295056188254
 20
-19.77778564014167
 10
-69.55944693948253
 20
-19.63945295534168
 10
-69.59056639228254
 20
-19.50083852334167
 10
-69.61268390588253
 20
-19.38005178254167
 10
-69.62796047548252
 20
-19.27253467694168
 10
-69.63983124828252
 20
-19.16997132334167
 10
-69.65010714588252
 20
-19.07074832974168
 10
-69.66130814908253
 20
-18.96456280654168
 10
-69.67680088348252
 20
-18.84664599054168
 10
-69.70071162908252
 20
-18.76045216174168
  0
LINE
  5
1B2
330
2
100
AcDbEntity
  8
0
100
AcDbLine
 10
-69.70071162908252
 20
-18.76045216174168
 30
0.0
 11
-69.68479666268253
 21
-18.79653369134168
 31
0.0
  0
LWPOLYLINE
  5
1B3
330
2
100
AcDbEntity
  8
0
100
AcDbPolyline
 90
        6
 70
     0
 43
0.0
 10
-76.61595042268253
 20
-14.69829205454167
 10
-74.50204678268253
 20
-14.69796996494168
 10
-74.03757559868253
 20
-14.69792421934168
 10
-73.54064972188253
 20
-14.69788504814167
 10
-73.01254405148253
 20
-14.69785132334167
 10
-71.25481481788253
 20
-14.69776070574168
  0
LINE
  5
1B4
330
2
100
AcDbEntity
  8
0
100
AcDbLine
 10
-77.18332751228253
 20
-14.69823679534168
 30
0.0
 11
-76.61595042268253
 21
-14.69829205454168
 31
0.0
  0
LWPOLYLINE
  5
1B5
330
2
100
AcDbEntity
  8
0
100
AcDbPolyline
 90
        3
 70
     0
 43
0.0
 10
-71.25481481788253
 20
-14.69776070574168
 10
-70.61584096028252
 20
-14.69771900494168
 10
-68.56000340348254
 20
-14.69744419854168
  0
LINE
  5
1B6
330
2
100
AcDbEntity
  8
0
100
AcDbLine
 10
-68.95810833468252
 20
-11.76652935534168
 30
0.0
 11
-68.95854265788253
 21
-11.76645247694168
 31
0.0
  0
LINE
  5
1B7
330
2
100
AcDbEntity
  8
0
100
AcDbLine
 10
-68.33494036668253
 20
-11.87408805294168
 30
0.0
 11
-68.33533555388253
 21
-11.87402160814168
 31
0.0
  0
LINE
  5
1B8
330
2
100
AcDbEntity
  8
0
100
AcDbLine
 10
-67.69763365948254
 20
-11.97824614894168
 30
0.0
 11
-67.69798856348254
 21
-11.97818982894168
 31
0.0
  0
LINE
  5
1B9
330
2
100
AcDbEntity
  8
0
100
AcDbLine
 10
-73.28983611868252
 20
-10.88073547054168
 30
0.0
 11
-73.55290649308253
 21
-10.82108944174169
 31
0.0
  0
LWPOLYLINE
  5
1BA
330
2
100
AcDbEntity
  8
0
100
AcDbPolyline
 90
        7
 70
     0
 43
0.0
 10
-73.28984358428252
 20
-10.88073374574167
 10
-73.55211526748252
 20
-10.82126224494167
 10
-73.80483464828254
 20
-10.76606860014167
 10
-74.04006640668253
 20
-10.71653312654168
 10
-74.25644831228253
 20
-10.67248320494167
 10
-74.45274266748254
 20
-10.63376148494167
 10
-74.62443052668253
 20
-10.60081710254167
  0
ARC
  5
1BB
330
2
100
AcDbEntity
  8
0
100
AcDbCircle
 10
-75.53979623708253
 20
-11.90174916174169
 30
0.0
 40
1.4375
100
AcDbArc
 50
89.9999999975
 51
171.62025507
  0
LINE
  5
1BC
330
2
100
AcDbEntity
  8
0
100
AcDbLine
 10
-73.66239209148253
 20
-10.79717790254169
 30
0.0
 11
-73.80589866428252
 21
-10.76584453774168
 31
0.0
  0
LINE
  5
1BD
330
2
100
AcDbEntity
  8
0
100
AcDbLine
 10
-73.92403514428252
 20
-10.74096717134167
 30
0.0
 11
-74.04114178908253
 21
-10.71631420494168
 31
0.0
  0
ARC
  5
1BE
330
2
100
AcDbEntity
  8
0
100
AcDbCircle
 10
-75.46161359068253
 20
-11.90174917134169
 30
0.0
 40
1.437500009599999
100
AcDbArc
 50
78.2795006449
 51
89.99999993779999
  0
ARC
  5
1BF
330
2
100
AcDbEntity
  8
0
100
AcDbCircle
 10
-75.46161359068253
 20
-11.90174917134169
 30
0.0
 40
1.437500009599999
100
AcDbArc
 50
43.90093907719999
 51
78.2756547101
  0
LINE
  5
1C0
330
2
100
AcDbEntity
  8
0
100
AcDbLine
 10
-75.53979623708253
 20
-10.46424916174169
 30
0.0
 11
-75.46161358908253
 21
-10.46424916174169
 31
0.0
  0
LINE
  5
1C1
330
2
100
AcDbEntity
  8
0
100
AcDbLine
 10
-75.15567221628254
 20
-10.49709516974168
 30
0.0
 11
-75.16950885468253
 21
-10.49424034254168
 31
0.0
  0
LINE
  5
1C2
330
2
100
AcDbEntity
  8
0
100
AcDbLine
 10
-75.10979018588253
 20
-10.50641709614168
 30
0.0
 11
-75.16960333788254
 21
-10.49422073774168
 31
0.0
  0
LINE
  5
1C3
330
2
100
AcDbEntity
  8
0
100
AcDbLine
 10
-74.15975572988253
 20
-10.69216738574168
 30
0.0
 11
-74.25733050268252
 21
-10.67230918094168
 31
0.0
  0
LINE
  5
1C4
330
2
100
AcDbEntity
  8
0
100
AcDbLine
 10
-75.07925608348253
 20
-10.51252076974168
 30
0.0
 11
-75.10999824508252
 21
-10.50637482574168
 31
0.0
  0
LINE
  5
1C5
330
2
100
AcDbEntity
  8
0
100
AcDbLine
 10
-74.37842202908253
 20
-10.64842223694168
 30
0.0
 11
-74.45331720188253
 21
-10.63365124014168
 31
0.0
  0
LINE
  5
1C6
330
2
100
AcDbEntity
  8
0
100
AcDbLine
 10
-74.98104072828252
 20
-10.53199399054167
 30
0.0
 11
-75.03214234428253
 21
-10.52193866254168
 31
0.0
  0
LINE
  5
1C7
330
2
100
AcDbEntity
  8
0
100
AcDbLine
 10
-74.84770405948253
 20
-10.55800335374168
 30
0.0
 11
-74.92358936988253
 21
-10.54329750414169
 31
0.0
  0
LINE
  5
1C8
330
2
100
AcDbEntity
  8
0
100
AcDbLine
 10
-74.62318479068253
 20
-10.60105614094168
 30
0.0
 11
-74.62429993788252
 21
-10.60084075054167
 31
0.0
  0
LWPOLYLINE
  5
1C9
330
2
100
AcDbEntity
  8
0
100
AcDbPolyline
 90
        5
 70
     0
 43
0.0
 10
-74.62429080348252
 20
-10.60084247854167
 10
-74.78557064188253
 20
-10.57004314094167
 10
-74.92314777788251
 20
-10.54338438574168
 10
-75.03178591548253
 20
-10.52200991214167
 10
-75.10979018588253
 20
-10.50641709614168
  0
LINE
  5
1CA
330
2
100
AcDbEntity
  8
0
100
AcDbLine
 10
-74.62429993788252
 20
-10.60084075054167
 30
0.0
 11
-74.75808512508253
 21
-10.57529109934168
 31
0.0
  0
LINE
  5
1CB
330
2
100
AcDbEntity
  8
0
100
AcDbLine
 10
-74.75808512508253
 20
-10.57529109934168
 30
0.0
 11
-74.78596198268252
 21
-10.56996731054168
 31
0.0
  0
LINE
  5
1CC
330
2
100
AcDbEntity
  8
0
100
AcDbLine
 10
-70.68622977468253
 20
-11.44086917774169
 30
0.0
 11
-70.68673455068253
 21
-11.44076852174168
 31
0.0
  0
LINE
  5
1CD
330
2
100
AcDbEntity
  8
0
100
AcDbLine
 10
-72.14184534908253
 20
-11.13779770734169
 30
0.0
 11
-72.14234612668253
 21
-11.13768906094168
 31
0.0
  0
LINE
  5
1CE
330
2
100
AcDbEntity
  8
0
100
AcDbLine
 10
-71.68926060348252
 20
-11.23475874894168
 30
0.0
 11
-71.68976823388253
 21
-11.23465136974168
 31
0.0
  0
LINE
  5
1CF
330
2
100
AcDbEntity
  8
0
100
AcDbLine
 10
-71.20368711548252
 20
-11.33605535694168
 30
0.0
 11
-71.20419665148253
 21
-11.33595054894168
 31
0.0
  0
LINE
  5
1D0
330
2
100
AcDbEntity
  8
0
100
AcDbLine
 10
-72.56064636668253
 20
-11.04588261454168
 30
0.0
 11
-72.56113689148254
 21
-11.04577371694168
 31
0.0
  0
LINE
  5
1D1
330
2
100
AcDbEntity
  8
0
100
AcDbLine
 10
-69.56116616988253
 20
-11.65729768174168
 30
0.0
 11
-69.56163396668253
 21
-11.65721105934169
 31
0.0
  0
LINE
  5
1D2
330
2
100
AcDbEntity
  8
0
100
AcDbLine
 10
-70.13822985308252
 20
-11.54828590254167
 30
0.0
 11
-70.13872140188252
 21
-11.54819123054169
 31
0.0
  0
LWPOLYLINE
  5
1D3
330
2
100
AcDbEntity
  8
0
  6
HIDDEN
100
AcDbPolyline
 90
       18
 70
     0
 43
0.0
 10
-35.79599606268253
 20
-17.05355335854167
 10
-36.42316300348253
 20
-17.05073838254168
 10
-37.05474371388253
 20
-17.04816685934167
 10
-37.68767009468253
 20
-17.04589097454167
 10
-38.32173362748253
 20
-17.04394391214168
 10
-38.95672275068253
 20
-17.04235327214168
 10
-39.59242709948253
 20
-17.04114108974168
 10
-40.22863913308252
 20
-17.04032385294168
 10
-40.86515558908253
 20
-17.03991253614168
 10
-41.50177348828252
 20
-17.03991262094167
 10
-42.13828984188253
 20
-17.04032410734167
 10
-42.77450165308252
 20
-17.04114150894167
 10
-43.41020565148252
 20
-17.04235384974167
 10
-44.04519431708253
 20
-17.04394464014167
 10
-44.67925732028253
 20
-17.04589184334167
 10
-45.31218314908253
 20
-17.04816785614167
 10
-45.94376330908253
 20
-17.05073949294167
 10
-46.57067133628252
 20
-17.05355335854167
  0
LWPOLYLINE
  5
1D4
330
2
100
AcDbEntity
  8
0
  6
HIDDEN
100
AcDbPolyline
 90
       17
 70
     0
 43
0.0
 10
-47.53318804188253
 20
-18.37714134254167
 10
-46.74363546588253
 20
-18.34733869294167
 10
-45.95038696988253
 20
-18.32138206734168
 10
-45.15663646428253
 20
-18.29940495694168
 10
-44.36247379868253
 20
-18.28141443694168
 10
-43.56798978428253
 20
-18.26741618734168
 10
-42.77327350588253
 20
-18.25741445294168
 10
-41.97840584348253
 20
-18.25141206574168
 10
-41.18346257308252
 20
-18.24941065614167
 10
-40.38851931548252
 20
-18.25141076814168
 10
-39.59365166108253
 20
-18.25741185934168
 10
-38.79893534428252
 20
-18.26741229614167
 10
-38.00445123708253
 20
-18.28140924974167
 10
-37.21028844828252
 20
-18.29939847534168
 10
-36.41653782108253
 20
-18.32137429294167
 10
-35.62328923068253
 20
-18.34732962574167
 10
-34.83347935708252
 20
-18.37714134254167
  0
LWPOLYLINE
  5
1D5
330
2
100
AcDbEntity
  8
0
100
AcDbPolyline
 90
       20
 70
     0
 43
0.0
 10
-42.37031825628252
 20
-16.16411921134168
 10
-42.36609217628253
 20
-16.09246590094167
 10
-42.35221797788253
 20
-15.98939629294167
 10
-42.32981884348252
 20
-15.88979017454167
 10
-42.29992439548253
 20
-15.79532283694168
 10
-42.26386782748252
 20
-15.70729956014167
 10
-42.22254975228253
 20
-15.62552731854168
 10
-42.17627690108253
 20
-15.54910661614168
 10
-42.12515884348252
 20
-15.47742459374167
 10
-42.06890311068252
 20
-15.40979781454167
 10
-42.00725418428253
 20
-15.34602551054168
 10
-41.93953035068253
 20
-15.28582335214167
 10
-41.86495721628253
 20
-15.22924908494168
 10
-41.78279452348253
 20
-15.17675716014167
 10
-41.69349232028253
 20
-15.12969577934167
 10
-41.59796161788253
 20
-15.08942220014168
 10
-41.49724816188252
 20
-15.05705433934167
 10
-41.39370972668253
 20
-15.03368699374168
 10
-41.28883972988252
 20
-15.01965504974168
 10
-41.18333369948253
 20
-15.01497728334167
  0
LWPOLYLINE
  5
1D6
330
2
100
AcDbEntity
  8
0
100
AcDbPolyline
 90
       20
 70
     0
 43
0.0
 10
-42.37062940348252
 20
-16.17420834414167
 10
-42.36645900828253
 20
-16.10339778254167
 10
-42.35254488988252
 20
-15.99972455694168
 10
-42.32988191068253
 20
-15.89916098414167
 10
-42.29970034588252
 20
-15.80420936334168
 10
-42.26341822748253
 20
-15.71606529774167
 10
-42.22203300188252
 20
-15.63451830894168
 10
-42.17593683228253
 20
-15.55864217934167
 10
-42.12508141788252
 20
-15.48748299854167
 10
-42.06903615868253
 20
-15.42019805774168
 10
-42.00750402748252
 20
-15.35659910734167
 10
-41.93980632188252
 20
-15.29645466734167
 10
-41.86530053148253
 20
-15.23995373134168
 10
-41.78332684348252
 20
-15.18758409774167
 10
-41.69389542268253
 20
-15.14044687534168
 10
-41.59799650908253
 20
-15.10002991054167
 10
-41.49758776988252
 20
-15.06776824174167
 10
-41.39416700828252
 20
-15.04440859374168
 10
-41.28896038268253
 20
-15.03031624494167
 10
-41.18333369948253
 20
-15.02563138254167
  0
LINE
  5
1D7
330
2
100
AcDbEntity
  8
CENTER
 48
4.0
100
AcDbLine
 10
-37.94533781969018
 20
-16.17059159802335
 30
0.0
 11
-44.42132957927478
 21
-16.17059159802335
 31
0.0
  0
LWPOLYLINE
  5
1D8
330
2
100
AcDbEntity
  8
0
100
AcDbPolyline
 90
        4
 70
     0
 43
0.0
 10
-58.08552152668252
 20
-14.69623659214168
 10
-51.98824338588252
 20
-14.69651533294167
 10
-46.65303684508252
 20
-14.69634687374168
 10
-41.18333369948253
 20
-14.69626460494168
  0
LWPOLYLINE
  5
1D9
330
2
100
AcDbEntity
  8
0
100
AcDbPolyline
 90
       24
 70
     0
 43
0.0
 10
-41.18333369948253
 20
-20.75720022094167
 10
-41.53687657628252
 20
-20.75795206894167
 10
-41.88419214588252
 20
-20.76014343374168
 10
-42.22497975868252
 20
-20.76367804494168
 10
-42.55913921628253
 20
-20.76846639854167
 10
-42.88737214268252
 20
-20.77444606414168
 10
-43.21058060988252
 20
-20.78156137294168
 10
-43.52961038108253
 20
-20.78976182734167
 10
-43.84508196668252
 20
-20.79901758734167
 10
-44.15755956668252
 20
-20.80930398094167
 10
-44.62199176188252
 20
-20.82663330254168
 10
-45.08343310908253
 20
-20.84627037134168
 10
-45.54395418428252
 20
-20.86824599374168
 10
-46.00400316668252
 20
-20.89253686894168
 10
-46.46349733148253
 20
-20.91909442254168
 10
-46.92185269308253
 20
-20.94782314574167
 10
-47.37849390748253
 20
-20.97861991534168
 10
-47.83338146588252
 20
-21.01139813134167
 10
-48.28661912828252
 20
-21.04607457454167
 10
-48.73834790428253
 20
-21.08256303054167
 10
-49.63807306908252
 20
-21.16062968654168
 10
-50.53469511548254
 20
-21.24489558734168
 10
-51.43062709468253
 20
-21.33460609134167
 10
-52.32833369948252
 20
-21.42885208334168
  0
LWPOLYLINE
  5
1DA
330
2
100
AcDbEntity
  8
0
100
AcDbPolyline
 90
       20
 70
     0
 43
0.0
 10
-41.18333369948253
 20
-17.39301759694167
 10
-41.28675072188253
 20
-17.38852518254168
 10
-41.38937249308253
 20
-17.37508374894167
 10
-41.49028189468253
 20
-17.35283203854167
 10
-41.58864843868252
 20
-17.32200245454167
 10
-41.68312362108252
 20
-17.28316777454168
 10
-41.77131064828252
 20
-17.23784618254167
 10
-41.85177286428252
 20
-17.18779364814167
 10
-41.92444238908253
 20
-17.13429498094167
 10
-41.99030634428253
 20
-17.07773742734167
 10
-42.05087860028252
 20
-17.01751851694167
 10
-42.10793427708253
 20
-16.95185954894168
 10
-42.16268488668252
 20
-16.87840975374167
 10
-42.21444838428253
 20
-16.79615261134168
 10
-42.26127265948252
 20
-16.70562785454167
 10
-42.30091967548253
 20
-16.60915583054168
 10
-42.33181268988253
 20
-16.51013910254168
 10
-42.35375941628253
 20
-16.40982477614167
 10
-42.36680003228252
 20
-16.30910618254168
 10
-42.37112537148253
 20
-16.20851154094168
  0
LWPOLYLINE
  5
1DB
330
2
100
AcDbEntity
  8
0
100
AcDbPolyline
 90
       20
 70
     0
 43
0.0
 10
-41.18333369948253
 20
-17.38080994414167
 10
-41.28581039068253
 20
-17.37640176494167
 10
-41.38760485628253
 20
-17.36319568974167
 10
-41.48773343868252
 20
-17.34132683214167
 10
-41.58573484348252
 20
-17.31089454414167
 10
-41.68060145628253
 20
-17.27220949934168
 10
-41.77043128668252
 20
-17.22627731854167
 10
-41.85287048828253
 20
-17.17505538094168
 10
-41.92783567548253
 20
-17.11969410094168
 10
-41.99546525148252
 20
-17.06119833934168
 10
-42.05614307068252
 20
-17.00030781614168
 10
-42.11262231548253
 20
-16.93469545134168
 10
-42.16679662108252
 20
-16.86124596334167
 10
-42.21752452348252
 20
-16.77964177774167
 10
-42.26345930428253
 20
-16.68981879374167
 10
-42.30204875868253
 20
-16.59501683694168
 10
-42.33226381628253
 20
-16.49727239054168
 10
-42.35397544188252
 20
-16.39681438574167
 10
-42.36674983228252
 20
-16.29617628334168
 10
-42.37083369948253
 20
-16.19811346734168
  0
LINE
  5
1DC
330
2
100
AcDbEntity
  8
0
100
AcDbLine
 10
-57.29715535868253
 20
-12.72242523534169
 30
0.0
 11
-27.24651101788252
 21
-12.72602155534168
 31
0.0
  0
LWPOLYLINE
  5
1DD
330
2
100
AcDbEntity
  8
0
100
AcDbPolyline
 90
       31
 70
     0
 43
0.0
 10
-52.32833369948252
 20
-21.42885208334168
 10
-52.49344429468253
 20
-21.44663693294167
 10
-52.65452520348254
 20
-21.46425560334167
 10
-52.81150461148254
 20
-21.48167212654168
 10
-52.96431070748252
 20
-21.49885053774168
 10
-53.11287167548252
 20
-21.51575486894167
 10
-53.25716505468253
 20
-21.53235629134167
 10
-53.39736579068253
 20
-21.54865451854168
 10
-53.53369818108252
 20
-21.56465640014168
 10
-53.66638652348253
 20
-21.58036878734167
 10
-53.79565511388253
 20
-21.59579853134168
 10
-53.92171504348254
 20
-21.61095249614167
 10
-54.04472458428253
 20
-21.62583761294168
 10
-54.16482879708254
 20
-21.64046082094167
 10
-54.28217274908253
 20
-21.65482906574168
 10
-54.39690150268252
 20
-21.66894928814168
 10
-54.53686253628252
 20
-21.68626376974168
 10
-54.67328762428252
 20
-21.70322957294168
 10
-54.80650040508253
 20
-21.71987469934168
 10
-54.93682451708252
 20
-21.73622715534168
 10
-55.06458001468253
 20
-21.75231547534168
 10
-55.19007262268253
 20
-21.76817030254167
 10
-55.31360448028253
 20
-21.78382281134167
 10
-55.43547772988254
 20
-21.79930417454168
 10
-55.59593437468253
 20
-21.81973740014167
 10
-55.75479661948254
 20
-21.84001821774168
 10
-55.91288156508253
 20
-21.86024305614167
 10
-56.38730745628253
 20
-21.92112803694168
 10
-56.86338489628252
 20
-21.98233888974167
 10
-57.33947381628254
 20
-22.04325170254168
 10
-57.81395559548252
 20
-22.10283835694168
  0
LWPOLYLINE
  5
1DE
330
2
100
AcDbEntity
  8
0
100
AcDbPolyline
 90
        3
 70
     0
 43
0.0
 10
-66.78594156828253
 20
-28.51956915054167
 10
-66.73933237308253
 20
-28.74800923854167
 10
-66.56019929148252
 20
-29.62263626894167
  0
LWPOLYLINE
  5
1DF
330
2
100
AcDbEntity
  8
0
100
AcDbPolyline
 90
        4
 70
     0
 43
0.0
 10
-66.56019929148252
 20
-29.62263626894167
 10
-66.52729220508253
 20
-29.78253039854168
 10
-66.49429405628253
 20
-29.94188599694167
 10
-66.46125970428252
 20
-30.09994500814168
  0
LWPOLYLINE
  5
1E0
330
2
100
AcDbEntity
  8
0
100
AcDbPolyline
 90
        5
 70
     0
 43
0.0
 10
-66.46125970428252
 20
-30.09994500814168
 10
-66.41650800508253
 20
-30.27799766574168
 10
-66.35738303868253
 20
-30.45416389134167
 10
-66.28414570908254
 20
-30.62668615214167
 10
-66.19664710748253
 20
-30.79503040014167
  0
LWPOLYLINE
  5
1E1
330
2
100
AcDbEntity
  8
0
100
AcDbPolyline
 90
       27
 70
     0
 43
0.0
 10
-57.81395559548252
 20
-22.10283835694168
 10
-58.08625781948252
 20
-22.13757493934168
 10
-58.35934116508252
 20
-22.17463731214167
 10
-58.63305800188253
 20
-22.21397230734167
 10
-58.90715372188253
 20
-22.25544788654168
 10
-59.18135908188252
 20
-22.29889999854167
 10
-59.45545326748253
 20
-22.34411540494168
 10
-59.72922480828253
 20
-22.39085625614168
 10
-60.00245117948253
 20
-22.43883546094168
 10
-60.27481760348253
 20
-22.48772879054168
 10
-60.54565132508253
 20
-22.53711269774167
 10
-60.81420059708253
 20
-22.58653235854168
 10
-61.07975565148253
 20
-22.63550714574167
 10
-61.25476570748253
 20
-22.66766733774167
 10
-61.42781979868253
 20
-22.69925709614168
 10
-61.59860350908253
 20
-22.73012018734168
 10
-61.76681474268253
 20
-22.76009967214168
 10
-61.93220067388253
 20
-22.78903578574168
 10
-62.09452078908253
 20
-22.81676804974168
 10
-62.21409578108253
 20
-22.83667935214168
 10
-62.33165865628253
 20
-22.85574749134168
 10
-62.44705710748252
 20
-22.87389673934168
 10
-62.56013882908253
 20
-22.89105136334168
 10
-62.67078969628252
 20
-22.90714688494168
 10
-62.77904832668252
 20
-22.92216384334167
 10
-62.88499151708253
 20
-22.93609402894168
 10
-62.98869607228253
 20
-22.94892923054168
  0
LINE
  5
1E2
330
2
100
AcDbEntity
  8
0
100
AcDbLine
 10
-51.98824338588252
 20
-14.69651533294168
 30
0.0
 11
-57.18604883388252
 21
-14.69622625614168
 31
0.0
  0
LWPOLYLINE
  5
1E3
330
2
100
AcDbEntity
  8
0
100
AcDbPolyline
 90
        9
 70
     0
 43
0.0
 10
-58.33944502428253
 20
-12.71964380494167
 10
-59.08197751708253
 20
-12.71356281294168
 10
-59.79374116348253
 20
-12.70021097294168
 10
-60.47445484828252
 20
-12.68049586254168
 10
-61.13495106748253
 20
-12.65483935534167
 10
-61.78544526588253
 20
-12.62321505614168
 10
-62.43858006748252
 20
-12.58508182734167
 10
-63.10776763868253
 20
-12.53934993934168
 10
-63.46141110748252
 20
-12.51245069774167
  0
LWPOLYLINE
  5
1E4
330
2
100
AcDbEntity
  8
0
100
AcDbPolyline
 90
        8
 70
     0
 43
0.0
 10
-59.08197751708253
 20
-12.71356281294168
 10
-59.08303979868253
 20
-12.71354839374168
 10
-59.79484226108253
 20
-12.70018457134167
 10
-60.47554929788253
 20
-12.68045868494167
 10
-61.13600041308252
 20
-12.65479343054168
 10
-61.78642125468253
 20
-12.62316285454168
 10
-62.43946534748253
 20
-12.58502580014167
 10
-63.10828087388252
 20
-12.53931090094168
  0
LINE
  5
1E5
330
2
100
AcDbEntity
  8
0
100
AcDbLine
 10
-64.75353498268254
 20
-14.69678952654168
 30
0.0
 11
-65.54621526108252
 21
-14.69687689134168
 31
0.0
  0
LINE
  5
1E6
330
2
100
AcDbEntity
  8
0
100
AcDbLine
 10
-65.74199939548254
 20
-12.25923414894168
 30
0.0
 11
-65.74223501308253
 21
-12.25920388014168
 31
0.0
  0
LINE
  5
1E7
330
2
100
AcDbEntity
  8
0
100
AcDbLine
 10
-65.07426592828252
 20
-12.34152340014168
 30
0.0
 11
-65.07445954268253
 21
-12.34150055214168
 31
0.0
  0
LINE
  5
1E8
330
2
100
AcDbEntity
  8
0
100
AcDbLine
 10
-64.39545095548253
 20
-12.41803876174168
 30
0.0
 11
-64.39559836668252
 21
-12.41802292334168
 31
0.0
  0
LINE
  5
1E9
330
2
100
AcDbEntity
  8
0
100
AcDbLine
 10
-67.05229430908253
 20
-12.07749437934168
 30
0.0
 11
-67.05261048348254
 21
-12.07744731214168
 31
0.0
  0
LINE
  5
1EA
330
2
100
AcDbEntity
  8
0
100
AcDbLine
 10
-66.40085430108253
 20
-12.17119327214168
 30
0.0
 11
-66.40113079228253
 21
-12.17115490094168
 31
0.0
  0
LWPOLYLINE
  5
1EB
330
2
100
AcDbEntity
  8
0
100
AcDbPolyline
 90
        4
 70
     0
 43
0.0
 10
-63.46101207228253
 20
-12.51248213134167
 10
-63.42795334748252
 20
-12.51513950734167
 10
-63.39390901308252
 20
-12.51801024014168
 10
-63.36559583708253
 20
-12.52053195374167
  0
LINE
  5
1EC
330
2
100
AcDbEntity
  8
0
100
AcDbLine
 10
-63.10828087388253
 20
-12.53931090094168
 30
0.0
 11
-63.45514177468253
 21
-12.51294407534167
 31
0.0
  0
LINE
  5
1ED
330
2
100
AcDbEntity
  8
0
100
AcDbLine
 10
-63.69679395868252
 20
-12.48934180014168
 30
0.0
 11
-63.69688941788253
 21
-12.48933256974169
 31
0.0
  0
LINE
  5
1EE
330
2
100
AcDbEntity
  8
0
100
AcDbLine
 10
-63.36556765788253
 20
-12.52053453614168
 30
0.0
 11
-63.40939248508252
 21
-12.51640739854168
 31
0.0
  0
LINE
  5
1EF
330
2
100
AcDbEntity
  8
0
100
AcDbLine
 10
-58.08552152508252
 20
-14.69623658734168
 30
0.0
 11
-58.08477194268252
 21
-14.71424915534169
 31
0.0
  0
LINE
  5
1F0
330
2
100
AcDbEntity
  8
0
100
AcDbLine
 10
-57.18604883388252
 20
-14.69622505134168
 30
0.0
 11
-57.18604459388252
 21
-14.71424851694168
 31
0.0
  0
LWPOLYLINE
  5
1F1
330
2
100
AcDbEntity
  8
0
100
AcDbPolyline
 90
        3
 70
     0
 43
0.0
 10
-57.29737647708252
 20
-12.72233433294167
 10
-57.91223909948253
 20
-12.72080365454167
 10
-58.19061400188253
 20
-12.72005840654167
  0
LINE
  5
1F2
330
2
100
AcDbEntity
  8
0
100
AcDbLine
 10
-57.29715535868253
 20
-12.72242523534169
 30
0.0
 11
-57.90743154908253
 21
-12.72087810094169
 31
0.0
  0
LINE
  5
1F3
330
2
100
AcDbEntity
  8
0
100
AcDbLine
 10
-57.91223909948252
 20
-12.72080365454168
 30
0.0
 11
-57.90745139228253
 21
-12.72087804814168
 31
0.0
  0
LINE
  5
1F4
330
2
100
AcDbEntity
  8
0
100
AcDbLine
 10
-57.91272818428253
 20
-12.72080234574168
 30
0.0
 11
-58.19023668508254
 21
-12.72010871214168
 31
0.0
  0
LINE
  5
1F5
330
2
100
AcDbEntity
  8
0
100
AcDbLine
 10
-58.19061392508253
 20
-12.72005840654168
 30
0.0
 11
-58.23751997148253
 21
-12.71992903374167
 31
0.0
  0
LINE
  5
1F6
330
2
100
AcDbEntity
  8
0
100
AcDbLine
 10
-58.19061388828252
 20
-12.72005840654168
 30
0.0
 11
-58.33944575868253
 21
-12.71964376814167
 31
0.0
  0
LINE
  5
1F7
330
2
100
AcDbEntity
  8
0
100
AcDbLine
 10
-58.29482802748254
 20
-12.71976933934168
 30
0.0
 11
-58.33944597148252
 21
-12.71964376654167
 31
0.0
  0
LINE
  5
1F8
330
2
100
AcDbEntity
  8
0
100
AcDbLine
 10
-58.19023668508254
 20
-12.72010871214168
 30
0.0
 11
-58.33905823548253
 21
-12.71968779854168
 31
0.0
  0
LWPOLYLINE
  5
1F9
330
2
100
AcDbEntity
  8
0
  6
HIDDEN
100
AcDbPolyline
 90
       18
 70
     0
 43
0.0
 10
-49.00093273788254
 20
-16.33296503214168
 10
-48.95812198108252
 20
-16.32933030894167
 10
-48.91526985148253
 20
-16.32896822894167
 10
-48.87239896668252
 20
-16.33185210254167
 10
-48.82950050268253
 20
-16.33799752494168
 10
-48.78657354588253
 20
-16.34746416174168
 10
-48.74359435068253
 20
-16.36036612014167
 10
-48.70077149468253
 20
-16.37677924334167
 10
-48.65834184188253
 20
-16.39675339214167
 10
-48.61638573788252
 20
-16.42041494574168
 10
-48.57503204348252
 20
-16.44790325134168
 10
-48.53468336028253
 20
-16.47917345614168
 10
-48.49573704668253
 20
-16.51411089934167
 10
-48.45836600828253
 20
-16.55276642574168
 10
-48.42291031708253
 20
-16.59502746894168
 10
-48.38979789148253
 20
-16.64060680494168
 10
-48.35936423708253
 20
-16.68924416654168
 10
-48.33843768508252
 20
-16.72764977774167
  0
LWPOLYLINE
  5
1FA
330
2
100
AcDbEntity
  8
0
  6
HIDDEN
100
AcDbPolyline
 90
        4
 70
     0
 43
0.0
 10
-49.00093273788254
 20
-16.33296503214168
 10
-49.88966704028253
 20
-16.44917813614168
 10
-50.77719897148253
 20
-16.57790925134167
 10
-51.66339624348252
 20
-16.71914691694168
  0
LWPOLYLINE
  5
1FB
330
2
100
AcDbEntity
  8
0
  6
HIDDEN
100
AcDbPolyline
 90
       27
 70
     0
 43
0.0
 10
-46.57067138108253
 20
-17.05355336014167
 10
-46.69390822748252
 20
-17.05310486094167
 10
-46.81813347228252
 20
-17.05052710094167
 10
-46.93979520348253
 20
-17.04584193294168
 10
-47.05844715388252
 20
-17.03910192974167
 10
-47.17366073788253
 20
-17.03037566254167
 10
-47.28502589148253
 20
-17.01974827534168
 10
-47.39214956508253
 20
-17.00732260174167
 10
-47.49464877308253
 20
-16.99322168014167
 10
-47.59216401628252
 20
-16.97758919214168
 10
-47.68436670588252
 20
-16.96058981134167
 10
-47.77096653948253
 20
-16.94240894094167
 10
-47.85171037468252
 20
-16.92325382734168
 10
-47.92638792028252
 20
-16.90335331374167
 10
-47.99484711228252
 20
-16.88295390894167
 10
-48.05698032668253
 20
-16.86232315374168
 10
-48.11272437948253
 20
-16.84175058094167
 10
-48.16208289628253
 20
-16.82153940334167
 10
-48.20512170588253
 20
-16.80200543054168
 10
-48.24195499068252
 20
-16.78348148494167
 10
-48.27275570748253
 20
-16.76631161934167
 10
-48.29781832508253
 20
-16.75080766574167
 10
-48.31749468188253
 20
-16.73726978414167
 10
-48.33211180508254
 20
-16.72604383214168
 10
-48.34199393788253
 20
-16.71752945294167
 10
-48.34749245628252
 20
-16.71218278094167
 10
-48.34806376028253
 20
-16.71157759374167
  0
LWPOLYLINE
  5
1FC
330
2
100
AcDbEntity
  8
0
  6
HIDDEN
100
AcDbPolyline
 90
       18
 70
     0
 43
0.0
 10
-51.72413165948253
 20
-17.91843325454168
 10
-51.56049057148253
 20
-17.97691172494167
 10
-51.37955958908253
 20
-18.03417698734168
 10
-51.19111078588253
 20
-18.08679575854167
 10
-50.99554153148253
 20
-18.13488969774167
 10
-50.79327784188253
 20
-18.17856507854168
 10
-50.58474059868252
 20
-18.21792371374167
 10
-50.37026452988254
 20
-18.25307511054168
 10
-50.15017056668253
 20
-18.28411812334167
 10
-49.92479411708252
 20
-18.31113826574168
 10
-49.69450722108253
 20
-18.33420866414167
 10
-49.45969487228253
 20
-18.35339606094167
 10
-49.22074870588253
 20
-18.36876265774167
 10
-48.97806743388253
 20
-18.38036680814168
 10
-48.73205528508252
 20
-18.38826368494167
 10
-48.48312286268253
 20
-18.39250568174168
 10
-48.23167770268253
 20
-18.39314282414167
 10
-47.98088698428253
 20
-18.39027311214167
  0
LWPOLYLINE
  5
1FD
330
2
100
AcDbEntity
  8
0
  6
HIDDEN
100
AcDbPolyline
 90
        8
 70
     0
 43
0.0
 10
-51.42683241628252
 20
-17.95147925294168
 10
-51.46510477308253
 20
-17.95629136654167
 10
-51.50589934268253
 20
-17.95826166094168
 10
-51.54839966908252
 20
-17.95706800654168
 10
-51.59192867708253
 20
-17.95254888494167
 10
-51.63599996508253
 20
-17.94462574894168
 10
-51.68009261148253
 20
-17.93329014734168
 10
-51.72413165788253
 20
-17.91843324814168
  0
LWPOLYLINE
  5
1FE
330
2
100
AcDbEntity
  8
0
  6
HIDDEN
100
AcDbPolyline
 90
       13
 70
     0
 43
0.0
 10
-51.72413165788253
 20
-17.91843324814168
 10
-51.76600923068253
 20
-17.90080833934168
 10
-51.80701221788253
 20
-17.87992617614168
 10
-51.84603651228252
 20
-17.85628832974168
 10
-51.88250914108252
 20
-17.83032890414168
 10
-51.91610547868252
 20
-17.80243635694167
 10
-51.94672358268253
 20
-17.77287078254168
 10
-51.97414843068253
 20
-17.74203574734168
 10
-51.99822740188253
 20
-17.71036277774167
 10
-52.01897598428253
 20
-17.67813806734167
 10
-52.03640988188253
 20
-17.64567776174168
 10
-52.05058776508252
 20
-17.61327203534168
 10
-52.06157357148253
 20
-17.58128519694167
  0
LWPOLYLINE
  5
1FF
330
2
100
AcDbEntity
  8
0
  6
HIDDEN
100
AcDbPolyline
 90
       24
 70
     0
 43
0.0
 10
-52.11109781148252
 20
-17.41223132014168
 10
-52.12224846748253
 20
-17.36774845934168
 10
-52.12997944508252
 20
-17.32395649294167
 10
-52.13441978268253
 20
-17.28103266894167
 10
-52.13570738748252
 20
-17.23909418574167
 10
-52.13397391228252
 20
-17.19822988334168
 10
-52.12934537468253
 20
-17.15854712654167
 10
-52.12193003708254
 20
-17.12007459214167
 10
-52.11183376188252
 20
-17.08290147214168
 10
-52.09914885308252
 20
-17.04708339374167
 10
-52.08392932348253
 20
-17.01261735214167
 10
-52.06625593308253
 20
-16.97960050094168
 10
-52.04614800028252
 20
-16.94803292334168
 10
-52.02362950588252
 20
-16.91796645774168
 10
-51.99874222108253
 20
-16.88949308974167
 10
-51.97142538588252
 20
-16.86261351534168
 10
-51.94171557788253
 20
-16.83745915374167
 10
-51.90957351388253
 20
-16.81410519374168
 10
-51.87493428508253
 20
-16.79264068494167
 10
-51.83781946748253
 20
-16.77322909134167
 10
-51.79810516668253
 20
-16.75597607854167
 10
-51.75583405148252
 20
-16.74108817134167
 10
-51.71093047068253
 20
-16.72873856334168
 10
-51.66339624348252
 20
-16.71914691694168
  0
LWPOLYLINE
  5
200
330
2
100
AcDbEntity
  8
0
  6
HIDDEN
100
AcDbPolyline
 90
        3
 70
     0
 43
0.0
 10
-52.06157357148253
 20
-17.58128519694167
 10
-52.08645797948253
 20
-17.49703053294167
 10
-52.11109781148252
 20
-17.41223132014168
  0
LWPOLYLINE
  5
201
330
2
100
AcDbEntity
  8
0
  6
HIDDEN
100
AcDbPolyline
 90
        4
 70
     0
 43
0.0
 10
-48.34806376028253
 20
-16.71157759374167
 10
-48.34899520508253
 20
-16.71054491054168
 10
-48.34698734428252
 20
-16.71322967854168
 10
-48.34214014428252
 20
-16.72085659534168
  0
LWPOLYLINE
  5
202
330
2
100
AcDbEntity
  8
0
  6
HIDDEN
100
AcDbPolyline
 90
        7
 70
     0
 43
0.0
 10
-48.33843768508252
 20
-16.72764977774167
 10
-48.33189793468253
 20
-16.74069687374168
 10
-48.30783451068253
 20
-16.79432707854168
 10
-48.28750305468253
 20
-16.84944049454168
 10
-48.27104419068253
 20
-16.90561184654167
 10
-48.25861835548252
 20
-16.96215189934167
 10
-48.25029638748254
 20
-17.01825126254168
  0
LWPOLYLINE
  5
203
330
2
100
AcDbEntity
  8
0
  6
HIDDEN
100
AcDbPolyline
 90
        4
 70
     0
 43
0.0
 10
-47.98088699548253
 20
-18.39027311374167
 10
-47.83319426748252
 20
-18.38703159534168
 10
-47.68198963708252
 20
-18.38259555534168
 10
-47.53318804028253
 20
-18.37714134254167
  0
LINE
  5
204
330
2
100
AcDbEntity
  8
0
100
AcDbLine
 10
-42.37034230748252
 20
-16.16411851054169
 30
0.0
 11
-42.37063379388253
 21
-16.17420821774168
 31
0.0
  0
LINE
  5
205
330
2
100
AcDbEntity
  8
0
100
AcDbLine
 10
-42.37083369948253
 20
-16.19811346734169
 30
0.0
 11
-42.37112537148253
 21
-16.20851154094169
 31
0.0
  0
LINE
  5
206
330
2
100
AcDbEntity
  8
0
100
AcDbLine
 10
-42.37083369948253
 20
-16.19811346734169
 30
0.0
 11
-42.37031825628252
 21
-16.16411921134169
 31
0.0
  0
LINE
  5
207
330
2
100
AcDbEntity
  8
0
100
AcDbLine
 10
-42.37112537148253
 20
-16.20851154094169
 30
0.0
 11
-42.37062940348252
 21
-16.17420834414168
 31
0.0
  0
LWPOLYLINE
  5
208
330
2
100
AcDbEntity
  8
0
100
AcDbPolyline
 90
       31
 70
     0
 43
0.0
 10
-24.55271180348252
 20
-22.10283835694168
 10
-25.02819446268253
 20
-22.04312442894168
 10
-25.50536298748252
 20
-21.98207163534168
 10
-25.98253420668253
 20
-21.92071998414167
 10
-26.45799415708252
 20
-21.85970420334168
 10
-26.61634154588253
 20
-21.83944684974167
 10
-26.77540709628253
 20
-21.81914139214168
 10
-26.93600473148253
 20
-21.79869183854167
 10
-27.05794130428252
 20
-21.78320389614167
 10
-27.18150063068253
 20
-21.76754958734167
 10
-27.30698583388253
 20
-21.75169759854168
 10
-27.43470004188253
 20
-21.73561661454167
 10
-27.56494985788252
 20
-21.71927585294167
 10
-27.69805581308253
 20
-21.70264667694168
 10
-27.83434191868252
 20
-21.68570098414168
 10
-27.97413218748252
 20
-21.66841066894168
 10
-28.08870170108253
 20
-21.65431263374168
 10
-28.20586652668252
 20
-21.63996902574167
 10
-28.32577194428253
 20
-21.62537281614167
 10
-28.44856323548252
 20
-21.61051697774168
 10
-28.57438568188253
 20
-21.59539448014168
 10
-28.70339778908252
 20
-21.57999829774168
 10
-28.83581097788253
 20
-21.56432142094168
 10
-28.97184988988253
 20
-21.54835684014167
 10
-29.11173917308252
 20
-21.53209754734167
 10
-29.25570347068253
 20
-21.51553653614168
 10
-29.40391799548253
 20
-21.49867393134167
 10
-29.55636022908253
 20
-21.48153839214168
 10
-29.71295822588253
 20
-21.46416570894167
 10
-29.87364003228252
 20
-21.44659167534168
 10
-30.03833369948253
 20
-21.42885208334168
  0
LWPOLYLINE
  5
209
330
2
100
AcDbEntity
  8
0
100
AcDbPolyline
 90
       27
 70
     0
 43
0.0
 10
-19.37797132668252
 20
-22.94892923054168
 10
-19.48167588188252
 20
-22.93609402894168
 10
-19.58761907388253
 20
-22.92216384334167
 10
-19.69587770268252
 20
-22.90714688494168
 10
-19.80652857148253
 20
-22.89105136174168
 10
-19.91961029308252
 20
-22.87389673934168
 10
-20.03500874588253
 20
-22.85574749134168
 10
-20.15257162108253
 20
-22.83667935054168
 10
-20.27214661148252
 20
-22.81676804974168
 10
-20.43446672828252
 20
-22.78903578414168
 10
-20.59985265788253
 20
-22.76009967214168
 10
-20.76806389148252
 20
-22.73012018734168
 10
-20.93884760188252
 20
-22.69925709454168
 10
-21.11190169148252
 20
-22.66766733774167
 10
-21.28691174908253
 20
-22.63550714574167
 10
-21.55246680188253
 20
-22.58653235854168
 10
-21.82101607388253
 20
-22.53711269774167
 10
-22.09184979548253
 20
-22.48772879054168
 10
-22.36421621948252
 20
-22.43883546094168
 10
-22.63744259228252
 20
-22.39085625614168
 10
-22.91121413148252
 20
-22.34411540494168
 10
-23.18530831708252
 20
-22.29889999854167
 10
-23.45951367708252
 20
-22.25544788654168
 10
-23.73360939708253
 20
-22.21397230734167
 10
-24.00732623388252
 20
-22.17463731214167
 10
-24.28040957948252
 20
-22.13757493934168
 10
-24.55271180348252
 20
-22.10283835694168
  0
LWPOLYLINE
  5
20A
330
2
100
AcDbEntity
  8
0
100
AcDbPolyline
 90
        4
 70
     0
 43
0.0
 10
-41.18333369948253
 20
-14.69626460494168
 10
-35.71116114268253
 20
-14.69634694414167
 10
-30.37546264028253
 20
-14.69651540174167
 10
-25.18061856348252
 20
-14.69622625614167
  0
LWPOLYLINE
  5
20B
330
2
100
AcDbEntity
  8
0
  6
HIDDEN
100
AcDbPolyline
 90
        4
 70
     0
 43
0.0
 10
-30.70327115708252
 20
-16.71914691694168
 10
-31.58946842588253
 20
-16.57790925134167
 10
-32.47700035868253
 20
-16.44917813614168
 10
-33.36573466108252
 20
-16.33296503214168
  0
LWPOLYLINE
  5
20C
330
2
100
AcDbEntity
  8
0
  6
HIDDEN
100
AcDbPolyline
 90
       18
 70
     0
 43
0.0
 10
-34.02822970908252
 20
-16.72764976814167
 10
-34.00730316188253
 20
-16.68924416654168
 10
-33.97686950748253
 20
-16.64060680494168
 10
-33.94375708188252
 20
-16.59502746894168
 10
-33.90830138908252
 20
-16.55276642574168
 10
-33.87093035228252
 20
-16.51411089934167
 10
-33.83198403868253
 20
-16.47917345614168
 10
-33.79163535548252
 20
-16.44790325134168
 10
-33.75028166108252
 20
-16.42041494574168
 10
-33.70832555708253
 20
-16.39675339214167
 10
-33.66589590428253
 20
-16.37677924334167
 10
-33.62307304828253
 20
-16.36036612014167
 10
-33.58009385308253
 20
-16.34746416174168
 10
-33.53716689628253
 20
-16.33799752494168
 10
-33.49426843228252
 20
-16.33185210254167
 10
-33.45139754588252
 20
-16.32896822894167
 10
-33.40854541788253
 20
-16.32933030894167
 10
-33.36573466108252
 20
-16.33296503214168
  0
LINE
  5
20D
330
2
100
AcDbEntity
  8
CENTER
 48
4.0
100
AcDbLine
 10
-41.18333369948247
 20
-19.40858747781566
 30
0.0
 11
-41.18333369948247
 21
-12.94860808463104
 31
0.0
  0
LWPOLYLINE
  5
20E
330
2
100
AcDbEntity
  8
0
100
AcDbPolyline
 90
       20
 70
     0
 43
0.0
 10
-39.99554202748253
 20
-16.20851154414168
 10
-39.99987887708252
 20
-16.30924260494167
 10
-40.01293780508253
 20
-16.40999747374168
 10
-40.03489285788252
 20
-16.51028033934167
 10
-40.06577277468252
 20
-16.60922652014167
 10
-40.10540752028252
 20
-16.70565806574167
 10
-40.15224336188253
 20
-16.79619191214167
 10
-40.20404618428253
 20
-16.87850443694168
 10
-40.25888447068253
 20
-16.95204552494168
 10
-40.31602375068253
 20
-17.01776916494168
 10
-40.37666658428253
 20
-17.07802091374168
 10
-40.44255699068253
 20
-17.13455902414168
 10
-40.51517464028252
 20
-17.18798342414167
 10
-40.59552396828253
 20
-17.23794064334167
 10
-40.68358546108252
 20
-17.28318704654168
 10
-40.77799889148252
 20
-17.32199492014167
 10
-40.87637808348254
 20
-17.35282996494167
 10
-40.97733485788253
 20
-17.37509053934168
 10
-41.07997949788253
 20
-17.38853068014168
 10
-41.18333369948253
 20
-17.39301759854167
  0
LWPOLYLINE
  5
20F
330
2
100
AcDbEntity
  8
0
100
AcDbPolyline
 90
       20
 70
     0
 43
0.0
 10
-39.99583369948253
 20
-16.19811346734168
 10
-40.00008181788253
 20
-16.29812539214168
 10
-40.01315990748253
 20
-16.39953323854167
 10
-40.03517776668252
 20
-16.50020959854167
 10
-40.06574960508253
 20
-16.59816785934168
 10
-40.10482623068253
 20
-16.69333220814168
 10
-40.15118641628252
 20
-16.78323399534167
 10
-40.20227361148252
 20
-16.86476819374168
 10
-40.25671824188252
 20
-16.93802878254167
 10
-40.31337312508253
 20
-17.00337131854168
 10
-40.37398825148253
 20
-17.06378989774168
 10
-40.44097065148252
 20
-17.12140344494167
 10
-40.51484382748252
 20
-17.17576592974168
 10
-40.59594363388252
 20
-17.22611169934168
 10
-40.68450370748253
 20
-17.27149119534168
 10
-40.77894612028252
 20
-17.31018055694167
 10
-40.87740505788253
 20
-17.34092226094168
 10
-40.97819723868252
 20
-17.36304500174168
 10
-41.08044231548253
 20
-17.37636594734168
 10
-41.18333369948253
 20
-17.38080994414167
  0
LWPOLYLINE
  5
210
330
2
100
AcDbEntity
  8
0
  6
HIDDEN
100
AcDbPolyline
 90
       28
 70
     0
 43
0.0
 10
-34.01776886588253
 20
-16.71066326094168
 10
-34.01767131868253
 20
-16.71054385454168
 10
-34.01918372668252
 20
-16.71219197134168
 10
-34.02469283708252
 20
-16.71754725934168
 10
-34.03458633788253
 20
-16.72606889134168
 10
-34.04921563868252
 20
-16.73730102734167
 10
-34.06890496988252
 20
-16.75084417134168
 10
-34.09398126588253
 20
-16.76635251374167
 10
-34.12479615388253
 20
-16.78352586254168
 10
-34.16164392828253
 20
-16.80205239854167
 10
-34.20469740508252
 20
-16.82158811054168
 10
-34.25407062588253
 20
-16.84180022094167
 10
-34.30982927548253
 20
-16.86237296974168
 10
-34.37197681788252
 20
-16.88300318254168
 10
-34.44044996348253
 20
-16.90340139534167
 10
-34.51514100348252
 20
-16.92330012974167
 10
-34.59589775388252
 20
-16.94245292974167
 10
-34.68250978108253
 20
-16.96063100014167
 10
-34.77472383068253
 20
-16.97762715054167
 10
-34.87224951228253
 20
-16.99325603694167
 10
-34.97475820188252
 20
-17.00735304654168
 10
-35.08189038748253
 20
-17.01977455534168
 10
-35.19326307548253
 20
-17.03039758094168
 10
-35.30848319708252
 20
-17.03911933134168
 10
-35.42714067068253
 20
-17.04585470574167
 10
-35.54880689468252
 20
-17.05053516974167
 10
-35.67303560348253
 20
-17.05310818574167
 10
-35.79599601308252
 20
-17.05355336014167
  0
LWPOLYLINE
  5
211
330
2
100
AcDbEntity
  8
0
100
AcDbPolyline
 90
       24
 70
     0
 43
0.0
 10
-30.03833369948253
 20
-21.42885208334168
 10
-30.93965677308253
 20
-21.33423435054167
 10
-31.84200153788252
 20
-21.24392059854167
 10
-32.74484341628253
 20
-21.15915954894167
 10
-33.64760112988253
 20
-21.08096729294167
 10
-34.09901926908253
 20
-21.04458293774168
 10
-34.55108251868253
 20
-21.01007716974167
 10
-35.00444551068253
 20
-20.97748546414167
 10
-35.45959363708253
 20
-20.94686240494167
 10
-35.91674876028253
 20
-20.91827760174167
 10
-36.37524789148253
 20
-20.89184164174167
 10
-36.83435355708252
 20
-20.86766151214168
 10
-37.29391521948253
 20
-20.84578885614168
 10
-37.75434172028252
 20
-20.82624764974168
 10
-38.21769249628252
 20
-20.80900655694168
 10
-38.52940950428252
 20
-20.79877432014168
 10
-38.84408405948252
 20
-20.78956864814168
 10
-39.16227532668253
 20
-20.78141389934168
 10
-39.48459858908252
 20
-20.77433953614168
 10
-39.81189360828253
 20
-20.76839538734167
 10
-40.14505625948252
 20
-20.76363637934167
 10
-40.48478334268253
 20
-20.76012413294167
 10
-40.83097535068254
 20
-20.75794704814168
 10
-41.18333369948253
 20
-20.75720022094167
  0
LWPOLYLINE
  5
212
330
2
100
AcDbEntity
  8
0
  6
HIDDEN
100
AcDbPolyline
 90
       18
 70
     0
 43
0.0
 10
-34.38578041628252
 20
-18.39027311054167
 10
-34.13523455868253
 20
-18.39314170894167
 10
-33.88378518108253
 20
-18.39250801774167
 10
-33.63484859388252
 20
-18.38826947374167
 10
-33.38883242108252
 20
-18.38037607054167
 10
-33.14614709468253
 20
-18.36877543374168
 10
-32.90719675388253
 20
-18.35341240014168
 10
-32.67238004188253
 20
-18.33422862254168
 10
-32.44208860028253
 20
-18.31116191534167
 10
-32.21670744668253
 20
-18.28414555214168
 10
-31.99660863068253
 20
-18.25310642894167
 10
-31.78212752348253
 20
-18.21795904174168
 10
-31.57358500508253
 20
-18.17860455214167
 10
-31.37131572828252
 20
-18.13493345934168
 10
-31.17574037948253
 20
-18.08684391694168
 10
-30.98728477148253
 20
-18.03422958894167
 10
-30.80634611228252
 20
-17.97696874094167
 10
-30.64253569628253
 20
-17.91843323854168
  0
LWPOLYLINE
  5
213
330
2
100
AcDbEntity
  8
0
  6
HIDDEN
100
AcDbPolyline
 90
        4
 70
     0
 43
0.0
 10
-34.83347935868252
 20
-18.37714134254167
 10
-34.68492960508253
 20
-18.38258723214168
 10
-34.53372405148252
 20
-18.38702516654167
 10
-34.38578040348252
 20
-18.39027311374167
  0
LWPOLYLINE
  5
214
330
2
100
AcDbEntity
  8
0
  6
HIDDEN
100
AcDbPolyline
 90
        7
 70
     0
 43
0.0
 10
-34.11637101148253
 20
-17.01825126254168
 10
-34.10804904348252
 20
-16.96215189934167
 10
-34.09562320828253
 20
-16.90561184654167
 10
-34.07916434428253
 20
-16.84944049454168
 10
-34.05883288828252
 20
-16.79432707854168
 10
-34.03476946268253
 20
-16.74069687374168
 10
-34.02822970908252
 20
-16.72764976814167
  0
LWPOLYLINE
  5
215
330
2
100
AcDbEntity
  8
0
  6
HIDDEN
100
AcDbPolyline
 90
        3
 70
     0
 43
0.0
 10
-34.02451187068253
 20
-16.72083014734167
 10
-34.01967087228253
 20
-16.71321663534168
 10
-34.01776886588253
 20
-16.71066326094168
  0
LWPOLYLINE
  5
216
330
2
100
AcDbEntity
  8
0
  6
HIDDEN
100
AcDbPolyline
 90
       24
 70
     0
 43
0.0
 10
-30.70327115708252
 20
-16.71914691694168
 10
-30.65573692828253
 20
-16.72873856334168
 10
-30.61083334588252
 20
-16.74108817134167
 10
-30.56856223068253
 20
-16.75597607854167
 10
-30.52884792988253
 20
-16.77322909134167
 10
-30.49173311228253
 20
-16.79264068494167
 10
-30.45709388348253
 20
-16.81410519214168
 10
-30.42495182108253
 20
-16.83745915214167
 10
-30.39524201468252
 20
-16.86261351374167
 10
-30.36792517948252
 20
-16.88949308814167
 10
-30.34303789468252
 20
-16.91796645454168
 10
-30.32051939868253
 20
-16.94803292174168
 10
-30.30041146588253
 20
-16.97960049934168
 10
-30.28273807388252
 20
-17.01261735214167
 10
-30.26751854428252
 20
-17.04708339214167
 10
-30.25483363548252
 20
-17.08290147214168
 10
-30.24473736028252
 20
-17.12007459214167
 10
-30.23732202268253
 20
-17.15854712654167
 10
-30.23269348348253
 20
-17.19822988014168
 10
-30.23096000828252
 20
-17.23909418254167
 10
-30.23224761468253
 20
-17.28103266094167
 10
-30.23668795068252
 20
-17.32395648334167
 10
-30.24441892668253
 20
-17.36774844654168
 10
-30.25556957948252
 20
-17.41223129774168
  0
LWPOLYLINE
  5
217
330
2
100
AcDbEntity
  8
0
  6
HIDDEN
100
AcDbPolyline
 90
        3
 70
     0
 43
0.0
 10
-30.25556957948252
 20
-17.41223129774168
 10
-30.28020941628253
 20
-17.49703052334167
 10
-30.30509381468253
 20
-17.58128515534168
  0
LWPOLYLINE
  5
218
330
2
100
AcDbEntity
  8
0
  6
HIDDEN
100
AcDbPolyline
 90
       13
 70
     0
 43
0.0
 10
-30.30509381468253
 20
-17.58128515534168
 10
-30.31607965948252
 20
-17.61327209614167
 10
-30.33025757948253
 20
-17.64567788814167
 10
-30.34769152668252
 20
-17.67813825454167
 10
-30.36844016348253
 20
-17.71036301934167
 10
-30.39251919868253
 20
-17.74203603054167
 10
-30.41994411868252
 20
-17.77287110094167
 10
-30.45056231388253
 20
-17.80243671214167
 10
-30.48415876828252
 20
-17.83032929774167
 10
-30.52063154268252
 20
-17.85628876014168
 10
-30.55965597308253
 20
-17.87992661614168
 10
-30.60065904668252
 20
-17.90080874574167
 10
-30.64253569948253
 20
-17.91843323214168
  0
LWPOLYLINE
  5
219
330
2
100
AcDbEntity
  8
0
  6
HIDDEN
100
AcDbPolyline
 90
        8
 70
     0
 43
0.0
 10
-30.64253569948253
 20
-17.91843323214168
 10
-30.68657562588252
 20
-17.93329039534167
 10
-30.73066831068253
 20
-17.94462594094167
 10
-30.77473985948252
 20
-17.95254904654167
 10
-30.81826931548252
 20
-17.95706811214167
 10
-30.86077056828253
 20
-17.95826163534167
 10
-30.90156486268253
 20
-17.95629117134168
 10
-30.93983498428253
 20
-17.95147925294168
  0
LINE
  5
21A
330
2
100
AcDbEntity
  8
0
100
AcDbLine
 10
-39.99604147708252
 20
-16.17419247214169
 30
0.0
 11
-39.99554202748253
 21
-16.20851154414169
 31
0.0
  0
LINE
  5
21B
330
2
100
AcDbEntity
  8
0
100
AcDbLine
 10
-39.99634461628252
 20
-16.16410358734169
 30
0.0
 11
-39.99583369948253
 21
-16.19811346734169
 31
0.0
  0
LINE
  5
21C
330
2
100
AcDbEntity
  8
0
100
AcDbLine
 10
-39.99583369948253
 20
-16.19811346734169
 30
0.0
 11
-39.99554202748253
 21
-16.20851154414169
 31
0.0
  0
LINE
  5
21D
330
2
100
AcDbEntity
  8
0
100
AcDbLine
 10
-39.99603377628253
 20
-16.17419224814168
 30
0.0
 11
-39.99632525788253
 21
-16.16410302574168
 31
0.0
  0
LWPOLYLINE
  5
21E
330
2
100
AcDbEntity
  8
0
100
AcDbPolyline
 90
       20
 70
     0
 43
0.0
 10
-41.18333369948253
 20
-15.02563138254167
 10
-41.07768155868252
 20
-15.03031880334168
 10
-40.97263408028253
 20
-15.04438403854168
 10
-40.86956135708253
 20
-15.06763896974168
 10
-40.76962761148253
 20
-15.09967438254167
 10
-40.67423261948252
 20
-15.13975614414168
 10
-40.58504318748252
 20
-15.18659560654167
 10
-40.50293871228253
 20
-15.23885650414167
 10
-40.42810272348252
 20
-15.29543482094168
 10
-40.36003235708252
 20
-15.35576464174168
 10
-40.29816843708252
 20
-15.41959974414167
 10
-40.24185704508252
 20
-15.48713172334167
 10
-40.19076154268252
 20
-15.55859271374167
 10
-40.14449742108253
 20
-15.63476540814167
 10
-40.10305956828253
 20
-15.71647387694167
 10
-40.06681632988253
 20
-15.80462248814167
 10
-40.03671277308252
 20
-15.89942915374168
 10
-40.01411166908252
 20
-15.99978906254168
 10
-40.00021391708253
 20
-16.10333251854167
 10
-39.99604147708252
 20
-16.17419247214168
  0
LWPOLYLINE
  5
21F
330
2
100
AcDbEntity
  8
0
100
AcDbPolyline
 90
       21
 70
     0
 43
0.0
 10
-41.18333369948253
 20
-15.01497728334167
 10
-41.08311271548252
 20
-15.01919732814168
 10
-40.98343408988253
 20
-15.03185678894168
 10
-40.88489304988253
 20
-15.05294112334168
 10
-40.78852255708253
 20
-15.08226592974168
 10
-40.69644434268252
 20
-15.11897382574167
 10
-40.60982267708253
 20
-15.16207344814168
 10
-40.52941583708252
 20
-15.21047788814168
 10
-40.45587020188253
 20
-15.26292003534168
 10
-40.38884320348252
 20
-15.31872071374168
 10
-40.32765276668253
 20
-15.37768535054168
 10
-40.27159789628252
 20
-15.43998595694168
 10
-40.22030502428252
 20
-15.50580063534168
 10
-40.17353560668253
 20
-15.57545934414167
 10
-40.13112370428252
 20
-15.64959343054168
 10
-40.09323516508253
 20
-15.72876772174167
 10
-40.06020905468253
 20
-15.81378351694168
 10
-40.03297000508253
 20
-15.90448582254167
 10
-40.01265565148253
 20
-15.99963084014167
 10
-40.00010995388253
 20
-16.09777318094167
 10
-39.99634461628252
 20
-16.16410358734168
  0
LINE
  5
220
330
2
100
AcDbEntity
  8
0
100
AcDbLine
 10
-35.71116114268253
 20
-14.69634694414168
 30
0.0
 11
-35.71363055388252
 21
-14.69634687374169
 31
0.0
  0
LINE
  5
221
330
2
100
AcDbEntity
  8
0
100
AcDbLine
 10
-30.37546264028253
 20
-14.69651540174167
 30
0.0
 11
-30.37842401308252
 21
-14.69651533294168
 31
0.0
  0
LWPOLYLINE
  5
222
330
2
100
AcDbEntity
  8
0
100
AcDbPolyline
 90
        6
 70
     0
 43
0.0
 10
-20.56401755548253
 20
-12.62229271214168
 10
-21.21759380988252
 20
-12.65421989134167
 10
-21.88107217628253
 20
-12.68011662094168
 10
-22.56485741148253
 20
-12.70001708814167
 10
-23.27994990908253
 20
-12.71349834414167
 10
-23.28101355388253
 20
-12.71351283854168
  0
LWPOLYLINE
  5
223
330
2
100
AcDbEntity
  8
0
100
AcDbPolyline
 90
        9
 70
     0
 43
0.0
 10
-18.90533714428252
 20
-12.51245706574168
 10
-19.23506782748252
 20
-12.53759668014168
 10
-19.90832474268252
 20
-12.58382807054167
 10
-20.56499596188253
 20
-12.62234528334168
 10
-21.21864557468252
 20
-12.65426612814168
 10
-21.88216902268253
 20
-12.68015404174168
 10
-22.56596062428252
 20
-12.70004365454168
 10
-23.28101355388253
 20
-12.71351283854168
 10
-24.02722238108252
 20
-12.71964380494167
  0
LWPOLYLINE
  5
224
330
2
100
AcDbEntity
  8
0
100
AcDbPolyline
 90
        8
 70
     0
 43
0.0
 10
-24.28114587228253
 20
-14.69623659214168
 10
-23.42566719068253
 20
-14.69641348814167
 10
-22.57547557788253
 20
-14.69666353614167
 10
-21.73129447868253
 20
-14.69687557134167
 10
-20.89352753628253
 20
-14.69694607214167
 10
-20.06140856188252
 20
-14.69687485134168
 10
-19.23567471068253
 20
-14.69678069294167
 10
-18.41880128668252
 20
-14.69675335854167
  0
LINE
  5
225
330
2
100
AcDbEntity
  8
0
100
AcDbLine
 10
-24.28114588188252
 20
-14.69623641934168
 30
0.0
 11
-24.28189546588253
 21
-14.71424898734169
 31
0.0
  0
LINE
  5
226
330
2
100
AcDbEntity
  8
0
100
AcDbLine
 10
-25.18061856348252
 20
-14.69622624974168
 30
0.0
 11
-25.18062280508253
 21
-14.71424915694169
 31
0.0
  0
LINE
  5
227
330
2
100
AcDbEntity
  8
0
100
AcDbLine
 10
-25.18061856348252
 20
-14.69622625614168
 30
0.0
 11
-24.28114587228253
 21
-14.69623659214168
 31
0.0
  0
LINE
  5
228
330
2
100
AcDbEntity
  8
0
100
AcDbLine
 10
-26.42155803548253
 20
-12.72507352334169
 30
0.0
 11
-25.70284575868253
 21
-12.72382693934169
 31
0.0
  0
LINE
  5
229
330
2
100
AcDbEntity
  8
0
100
AcDbLine
 10
-27.08593100828252
 20
-12.72571304974168
 30
0.0
 11
-27.08643559068252
 21
-12.72571389454168
 31
0.0
  0
LINE
  5
22A
330
2
100
AcDbEntity
  8
0
100
AcDbLine
 10
-27.24651101788252
 20
-12.72602155534168
 30
0.0
 11
-26.42001999868253
 21
-12.72507126254168
 31
0.0
  0
LINE
  5
22B
330
2
100
AcDbEntity
  8
0
100
AcDbLine
 10
-24.45393921468253
 20
-12.72080234574168
 30
0.0
 11
-24.45442829948253
 21
-12.72080365454168
 31
0.0
  0
LINE
  5
22C
330
2
100
AcDbEntity
  8
0
100
AcDbLine
 10
-24.17605351068253
 20
-12.72005840654168
 30
0.0
 11
-24.45393921468253
 21
-12.72080234574168
 31
0.0
  0
LINE
  5
22D
330
2
100
AcDbEntity
  8
0
100
AcDbLine
 10
-24.02722142748253
 20
-12.71964376654167
 30
0.0
 11
-24.07183937148252
 21
-12.71976933934168
 31
0.0
  0
LINE
  5
22E
330
2
100
AcDbEntity
  8
0
100
AcDbLine
 10
-25.06951204028253
 20
-12.72242523534169
 30
0.0
 11
-25.70399220668253
 21
-12.72382922414168
 31
0.0
  0
LINE
  5
22F
330
2
100
AcDbEntity
  8
0
100
AcDbLine
 10
-24.75931606588253
 20
-12.72158047054168
 30
0.0
 11
-24.75978254908253
 21
-12.72158165934168
 31
0.0
  0
LINE
  5
230
330
2
100
AcDbEntity
  8
0
100
AcDbLine
 10
-24.45923584988253
 20
-12.72087810094169
 30
0.0
 11
-25.06951204028253
 21
-12.72242523534169
 31
0.0
  0
LWPOLYLINE
  5
231
330
2
100
AcDbEntity
  8
0
100
AcDbPolyline
 90
        4
 70
     0
 43
0.0
 10
-24.02722164028253
 20
-12.71964376814167
 10
-24.45442829948253
 20
-12.72080365454167
 10
-24.75978254908253
 20
-12.72158165934167
 10
-25.06929092188252
 20
-12.72233433294167
  0
LWPOLYLINE
  5
232
330
2
100
AcDbEntity
  8
0
100
AcDbPolyline
 90
        3
 70
     0
 43
0.0
 10
-19.23454026588252
 20
-12.53755645774168
 10
-19.90743685468252
 20
-12.58377161294168
 10
-19.90832474268252
 20
-12.58382807054167
  0
LINE
  5
233
330
2
100
AcDbEntity
  8
0
100
AcDbLine
 10
-17.68547143068252
 20
-12.38670373454168
 30
0.0
 11
-17.68573618908253
 21
-12.38673335534169
 31
0.0
  0
LINE
  5
234
330
2
100
AcDbEntity
  8
0
100
AcDbLine
 10
-16.98614779548252
 20
-12.30464901294168
 30
0.0
 11
-16.98644317948253
 21
-12.30468528494168
 31
0.0
  0
LINE
  5
235
330
2
100
AcDbEntity
  8
0
100
AcDbLine
 10
-18.91155889468253
 20
-12.51294669134168
 30
0.0
 11
-19.00112283388253
 21
-12.51977161294168
 31
0.0
  0
LWPOLYLINE
  5
236
330
2
100
AcDbEntity
  8
0
100
AcDbPolyline
 90
        4
 70
     0
 43
0.0
 10
-19.00107156188252
 20
-12.52053195374167
 10
-18.97275838428252
 20
-12.51801024014168
 10
-18.93871404988253
 20
-12.51513950734167
 10
-18.90565532668253
 20
-12.51248213134167
  0
LINE
  5
237
330
2
100
AcDbEntity
  8
0
100
AcDbLine
 10
-18.96224046588253
 20
-12.51679553774168
 30
0.0
 11
-19.00106494108253
 21
-12.52053134574168
 31
0.0
  0
LINE
  5
238
330
2
100
AcDbEntity
  8
0
100
AcDbLine
 10
-18.40132728668253
 20
-12.46282277134169
 30
0.0
 11
-18.96224046588253
 21
-12.51679553774168
 31
0.0
  0
LINE
  5
239
330
2
100
AcDbEntity
  8
0
100
AcDbLine
 10
-18.40109641308252
 20
-12.46279949774168
 30
0.0
 11
-18.40132728668253
 21
-12.46282277134169
 31
0.0
  0
LWPOLYLINE
  5
23A
330
2
100
AcDbEntity
  8
0
100
AcDbPolyline
 90
       42
 70
     0
 43
0.0
 10
-6.153688818767339
 20
-14.69822506752364
 10
-6.486450086682523
 20
-15.25529405614167
 10
-6.804580161882526
 20
-15.78862543854168
 10
-7.118293109082529
 20
-16.34749557134168
 10
-7.428231115482532
 20
-16.91711962094167
 10
-7.735036368282536
 20
-17.49872511854167
 10
-8.039351051482526
 20
-18.09353959374168
 10
-8.292804584282535
 20
-18.60283193934167
 10
-8.545339187482525
 20
-19.12296872334168
 10
-8.797332797082532
 20
-19.65466540814168
 10
-9.049163349082533
 20
-20.19863745774168
 10
-9.301208392282532
 20
-20.75560474574167
 10
-9.553843921882531
 20
-21.32630479534167
 10
-9.807445545882529
 20
-21.91147953934167
 10
-10.06238887068252
 20
-22.51187091054168
 10
-10.23328299708252
 20
-22.92094012974168
 10
-10.40505787228252
 20
-23.33725128654168
 10
-10.57783099708252
 20
-23.76095362734167
 10
-10.75171482908253
 20
-24.19225374574168
 10
-10.92680164028253
 20
-24.63158763374168
 10
-11.10317866268252
 20
-25.07944863214167
 10
-11.28091434748253
 20
-25.53654356334168
 10
-11.46000202108253
 20
-26.00443318414168
 10
-11.64041623388253
 20
-26.48489172974167
 10
-11.77658315228252
 20
-26.85453961774168
 10
-11.91347736508252
 20
-27.23293389934168
 10
-12.05109430428253
 20
-27.62075293454167
 10
-12.18942940668253
 20
-28.01867508974167
 10
-12.32847787868253
 20
-28.42738126574168
 10
-12.46823403868252
 20
-28.84756251534168
 10
-12.60869197948252
 20
-29.27991243214167
 10
-12.74984579388252
 20
-29.72512460654167
 10
-12.89168957788253
 20
-30.18389263214167
 10
-13.03421742268253
 20
-30.65691009934168
 10
-13.17742342428252
 20
-31.14487060014168
 10
-13.32130167388253
 20
-31.64846772814168
 10
-13.44493561948253
 20
-32.09229121454168
 10
-13.56905378588253
 20
-32.54850304334168
 10
-13.69365257148253
 20
-33.01753650734168
 10
-13.81872837948253
 20
-33.49982490734168
 10
-13.94427761308253
 20
-33.99580153614167
 10
-14.07029667228252
 20
-34.50589969294168
  0
LWPOLYLINE
  5
23B
330
2
100
AcDbEntity
  8
0
100
AcDbPolyline
 90
        5
 70
     0
 43
0.0
 10
-5.183339886682531
 20
-14.69823679534167
 10
-5.197634371482536
 20
-13.94438885134167
 10
-5.239346225882528
 20
-13.19117568174167
 10
-5.308395257882523
 20
-12.44023448174167
 10
-5.404718035482531
 20
-11.69225755054167
  0
LWPOLYLINE
  5
23C
330
2
100
AcDbEntity
  8
0
100
AcDbPolyline
 90
        7
 70
     0
 43
0.0
 10
-10.55073659868253
 20
-14.45583616814167
 10
-10.07627168188253
 20
-13.67210876814167
 10
-9.630038056282529
 20
-12.99481603854167
 10
-9.20035091548253
 20
-12.39543862894168
 10
-8.775635454682529
 20
-11.85042446414167
 10
-8.356153952282525
 20
-11.35542124974167
 10
-7.940829699482534
 20
-10.90496706094167
  0
LWPOLYLINE
  5
23D
330
2
100
AcDbEntity
  8
0
100
AcDbPolyline
 90
       36
 70
     0
 43
0.0
 10
-12.72716117948253
 20
-18.90028099374168
 10
-12.74915396508252
 20
-18.95111536974168
 10
-12.77457652028252
 20
-19.01023666254167
 10
-12.80400126108253
 20
-19.07912579534168
 10
-12.83782994268253
 20
-19.15891727854168
 10
-12.87598810748252
 20
-19.24969420014168
 10
-12.91516214268253
 20
-19.34376630894168
 10
-12.95122465468253
 20
-19.43119418254168
 10
-12.98517187388253
 20
-19.51435370734167
 10
-13.02078195228253
 20
-19.60256388974168
 10
-13.06111676828253
 20
-19.70363577774168
 10
-13.10682916348253
 20
-19.81949141774168
 10
-13.15724283548253
 20
-19.94857575054167
 10
-13.21234805148253
 20
-20.09113369134168
 10
-13.27232054748253
 20
-20.24793814574167
 10
-13.33762497468252
 20
-20.42061456014168
 10
-13.40884004508252
 20
-20.61122370894167
 10
-13.48663636828253
 20
-20.82221776494167
 10
-13.57175219708253
 20
-21.05647544814168
 10
-13.66506986268253
 20
-21.31754677454168
 10
-13.76773930588252
 20
-21.61008064014168
 10
-13.88135688668252
 20
-21.94074032974167
 10
-14.00738424188253
 20
-22.31658367694168
 10
-14.14599265468253
 20
-22.74205256494167
 10
-14.28718049788253
 20
-23.18984039854167
 10
-14.42033328348253
 20
-23.62754399694168
 10
-14.54412008028252
 20
-24.04954458094167
 10
-14.66321506908252
 20
-24.47217670574168
 10
-14.78653864348252
 20
-24.93163198574168
 10
-14.91906290268252
 20
-25.45489365774168
 10
-15.04720540348253
 20
-25.99335540814168
 10
-15.15989086588253
 20
-26.49316693454167
 10
-15.25438734588253
 20
-26.93044227534168
 10
-15.33556488668253
 20
-27.31785607054168
 10
-15.40718776988252
 20
-27.66619393134168
 10
-15.47115747388252
 20
-27.98023825774168
  0
LWPOLYLINE
  5
23E
330
2
100
AcDbEntity
  8
0
100
AcDbPolyline
 90
        6
 70
     0
 43
0.0
 10
-15.62733502428253
 20
-28.74800923854167
 10
-15.77372174908252
 20
-29.46294042734168
 10
-15.80646810748253
 20
-29.62263626894167
 10
-15.83937519388253
 20
-29.78253039854168
 10
-15.87237334268253
 20
-29.94188599694167
 10
-15.90540769468252
 20
-30.09994500814168
  0
LWPOLYLINE
  5
23F
330
2
100
AcDbEntity
  8
0
100
AcDbPolyline
 90
        6
 70
     0
 43
0.0
 10
-15.90540769468252
 20
-30.09994500814168
 10
-15.95016053148252
 20
-30.27800154894168
 10
-16.00928535388253
 20
-30.45416651054168
 10
-16.08252239868252
 20
-30.62668765454167
 10
-16.17002063068253
 20
-30.79503099534167
 10
-16.27230816988253
 20
-30.95929930414168
  0
LWPOLYLINE
  5
240
330
2
100
AcDbEntity
  8
0
100
AcDbPolyline
 90
        3
 70
     0
 43
0.0
 10
-15.47115747388252
 20
-27.98023825774168
 10
-15.58072583068252
 20
-28.51956915054167
 10
-15.62733502428253
 20
-28.74800923854167
  0
LWPOLYLINE
  5
241
330
2
100
AcDbEntity
  8
0
100
AcDbPolyline
 90
        7
 70
     0
 43
0.0
 10
-12.66595576988253
 20
-18.76045216174168
 10
-12.41886132508253
 20
-18.18027171534168
 10
-12.14331554108253
 20
-17.55892344654167
 10
-11.82774027868252
 20
-16.87860923214168
 10
-11.45741015068253
 20
-16.12072555374167
 10
-11.02539349788253
 20
-15.30549748334167
 10
-10.55073659868253
 20
-14.45583616814167
  0
LWPOLYLINE
  5
242
330
2
100
AcDbEntity
  8
0
100
AcDbPolyline
 90
       10
 70
     0
 43
0.0
 10
-12.84371683708252
 20
-19.77778564014167
 10
-12.80722045948252
 20
-19.63945295534168
 10
-12.77610100668252
 20
-19.50083852334167
 10
-12.75398349308253
 20
-19.38005178254167
 10
-12.73870692348252
 20
-19.27253467694168
 10
-12.72683615068253
 20
-19.16997132334167
 10
-12.71656025308253
 20
-19.07074832974168
 10
-12.70535924988253
 20
-18.96456280654168
 10
-12.68986651548253
 20
-18.84664599054168
 10
-12.66595576988253
 20
-18.76045216174168
  0
LINE
  5
243
330
2
100
AcDbEntity
  8
0
100
AcDbLine
 10
-12.66595576988253
 20
-18.76045216174168
 30
0.0
 11
-12.69354709948252
 21
-18.82315528334168
 31
0.0
  0
LINE
  5
244
330
2
100
AcDbEntity
  8
0
100
AcDbLine
 10
-12.69354709948252
 20
-18.82315528334168
 30
0.0
 11
-12.72716117948253
 21
-18.90028099374168
 31
0.0
  0
LWPOLYLINE
  5
245
330
2
100
AcDbEntity
  8
0
100
AcDbPolyline
 90
        7
 70
     0
 43
0.0
 10
-11.11185258108253
 20
-14.69776070574168
 10
-9.354123347482527
 20
-14.69785132334167
 10
-8.826017677082532
 20
-14.69788504814167
 10
-8.329091800282526
 20
-14.69792421934168
 10
-7.864620616282522
 20
-14.69796996494168
 10
-7.433826627482531
 20
-14.69802144814168
 10
-7.037916507482535
 20
-14.69807808014167
  0
LWPOLYLINE
  5
246
330
2
100
AcDbEntity
  8
0
100
AcDbPolyline
 90
        5
 70
     0
 43
0.0
 10
-13.80666399548252
 20
-14.69744419854168
 10
-13.09960773468253
 20
-14.69756774894167
 10
-12.41383410908253
 20
-14.69765805774168
 10
-11.75082643708252
 20
-14.69771900494168
 10
-11.11185258108253
 20
-14.69776070574168
  0
LINE
  5
247
330
2
100
AcDbEntity
  8
0
100
AcDbLine
 10
-13.62376667868252
 20
-11.80429827054167
 30
0.0
 11
-13.62423965948252
 21
-11.80438055854168
 31
0.0
  0
LINE
  5
248
330
2
100
AcDbEntity
  8
0
100
AcDbLine
 10
-14.27727783548253
 20
-11.91493199374168
 30
0.0
 11
-14.27771648188253
 21
-11.91500416334169
 31
0.0
  0
LINE
  5
249
330
2
100
AcDbEntity
  8
0
100
AcDbLine
 10
-16.29707444668253
 20
-12.21630786734168
 30
0.0
 11
-16.29740450108252
 21
-12.21635196174168
 31
0.0
  0
LINE
  5
24A
330
2
100
AcDbEntity
  8
0
100
AcDbLine
 10
-15.61668792828253
 20
-12.12179455374168
 30
0.0
 11
-15.61705472188252
 21
-12.12184744334168
 31
0.0
  0
LINE
  5
24B
330
2
100
AcDbEntity
  8
0
100
AcDbLine
 10
-14.94347334908252
 20
-12.02122698414169
 30
0.0
 11
-14.94387645308252
 21
-12.02128927534168
 31
0.0
  0
LINE
  5
24C
330
2
100
AcDbEntity
  8
0
100
AcDbLine
 10
-5.750716976282532
 20
-14.69829205454168
 30
0.0
 11
-5.183339886682531
 21
-14.69823679534168
 31
0.0
  0
LINE
  5
24D
330
2
100
AcDbEntity
  8
0
100
AcDbLine
 10
-7.037916507482535
 20
-14.69807808014168
 30
0.0
 11
-5.750716976282532
 21
-14.69829205454168
 31
0.0
  0
LWPOLYLINE
  5
24E
330
2
100
AcDbEntity
  8
0
100
AcDbPolyline
 90
        3
 70
     0
 43
0.0
 10
-10.27527676668252
 20
-11.14872865134167
 10
-10.75013162268253
 20
-11.25011030414167
 10
-10.75065724028253
 20
-11.25022102574167
  0
LWPOLYLINE
  5
24F
330
2
100
AcDbEntity
  8
0
100
AcDbPolyline
 90
        5
 70
     0
 43
0.0
 10
-11.26042559548253
 20
-11.35604166254167
 10
-11.80486003868253
 20
-11.46558443534167
 10
-12.38190060508253
 20
-11.57769300654167
 10
-12.98971509308252
 20
-11.69118422254167
 10
-12.99021752828252
 20
-11.69127602894167
  0
ARC
  5
250
330
2
100
AcDbEntity
  8
0
100
AcDbCircle
 10
-6.905053808282531
 20
-11.90174917134169
 30
0.0
 40
1.437500009599999
100
AcDbArc
 50
90.0000000622
 51
101.7204995299
  0
ARC
  5
251
330
2
100
AcDbEntity
  8
0
100
AcDbCircle
 10
-6.905053808282531
 20
-11.90174917134169
 30
0.0
 40
1.437500009599999
100
AcDbArc
 50
101.7243455085999
 51
136.0990609227999
  0
LINE
  5
252
330
2
100
AcDbEntity
  8
0
100
AcDbLine
 10
-7.581095577882535
 20
-10.57004291534168
 30
0.0
 11
-7.743482608282533
 21
-10.60105614094168
 31
0.0
  0
LINE
  5
253
330
2
100
AcDbEntity
  8
0
100
AcDbLine
 10
-7.581242385882532
 20
-10.57007095054169
 30
0.0
 11
-7.608581977882522
 21
-10.57529228814168
 31
0.0
  0
LINE
  5
254
330
2
100
AcDbEntity
  8
0
100
AcDbLine
 10
-7.532141333082535
 20
-10.56055689454169
 30
0.0
 11
-7.581242385882532
 21
-10.57007095054169
 31
0.0
  0
LINE
  5
255
330
2
100
AcDbEntity
  8
0
100
AcDbLine
 10
-7.389705949082525
 20
-10.53279658574167
 30
0.0
 11
-7.443758075482534
 21
-10.54343059054168
 31
0.0
  0
LINE
  5
256
330
2
100
AcDbEntity
  8
0
100
AcDbLine
 10
-7.913350197082536
 20
-10.63365124014168
 30
0.0
 11
-7.913924731482524
 21
-10.63376148494168
 31
0.0
  0
LINE
  5
257
330
2
100
AcDbEntity
  8
0
100
AcDbLine
 10
-7.289133016282534
 20
-10.51286493294168
 30
0.0
 11
-7.335091173082531
 21
-10.52205116654168
 31
0.0
  0
LINE
  5
258
330
2
100
AcDbEntity
  8
0
100
AcDbLine
 10
-7.223644048282523
 20
-10.49966521774168
 30
0.0
 11
-7.256997830682536
 21
-10.50644120654168
 31
0.0
  0
LWPOLYLINE
  5
259
330
2
100
AcDbEntity
  8
0
100
AcDbPolyline
 90
        5
 70
     0
 43
0.0
 10
-7.197064157082536
 20
-10.49422075854167
 10
-7.256876483482528
 20
-10.50641694894168
 10
-7.334880227482528
 20
-10.52200966254168
 10
-7.443518117082533
 20
-10.54338409294167
 10
-7.581095577882535
 20
-10.57004291534168
  0
LINE
  5
25A
330
2
100
AcDbEntity
  8
0
100
AcDbLine
 10
-7.204658984282531
 20
-10.49578781134168
 30
0.0
 11
-7.223644048282523
 21
-10.49966521774168
 31
0.0
  0
LINE
  5
25B
330
2
100
AcDbEntity
  8
0
100
AcDbLine
 10
-8.325525609882532
 20
-10.71631420494168
 30
0.0
 11
-8.442632254682536
 21
-10.74096717134167
 31
0.0
  0
LINE
  5
25C
330
2
100
AcDbEntity
  8
0
100
AcDbLine
 10
-8.560768734682525
 20
-10.76584453774168
 30
0.0
 11
-8.561832750682526
 21
-10.76606860014168
 31
0.0
  0
LINE
  5
25D
330
2
100
AcDbEntity
  8
0
100
AcDbLine
 10
-9.836801736282524
 20
-11.05271019534168
 30
0.0
 11
-9.837300795482533
 21
-11.05282079854168
 31
0.0
  0
LINE
  5
25E
330
2
100
AcDbEntity
  8
0
100
AcDbLine
 10
-9.435482102682527
 20
-10.96278536654168
 30
0.0
 11
-9.435734563482526
 21
-10.96284312174168
 31
0.0
  0
LINE
  5
25F
330
2
100
AcDbEntity
  8
0
100
AcDbLine
 10
-8.813760905882531
 20
-10.82108944174169
 30
0.0
 11
-9.076831280282533
 21
-10.88073547054168
 31
0.0
  0
LINE
  5
260
330
2
100
AcDbEntity
  8
0
100
AcDbLine
 10
-8.814552131482528
 20
-10.82126224494167
 30
0.0
 11
-9.076823814682526
 21
-10.88073374574167
 31
0.0
  0
LWPOLYLINE
  5
261
330
2
100
AcDbEntity
  8
0
100
AcDbPolyline
 90
        6
 70
     0
 43
0.0
 10
-7.742236872282532
 20
-10.60081710254167
 10
-7.913924731482524
 20
-10.63376148494167
 10
-8.110219086682533
 20
-10.67248320494167
 10
-8.326600992282536
 20
-10.71653312654168
 10
-8.561832750682526
 20
-10.76606860014167
 10
-8.814552131482528
 20
-10.82126224494167
  0
LINE
  5
262
330
2
100
AcDbEntity
  8
0
100
AcDbLine
 10
-8.109336894682527
 20
-10.67230918094168
 30
0.0
 11
-8.206911669082529
 21
-10.69216738574168
 31
0.0
  0
LINE
  5
263
330
2
100
AcDbEntity
  8
0
100
AcDbLine
 10
-6.905053809882531
 20
-10.46424916174169
 30
0.0
 11
-6.826871161882536
 21
-10.46424916174169
 31
0.0
  0
ARC
  5
264
330
2
100
AcDbEntity
  8
0
100
AcDbCircle
 10
-6.826871161882536
 20
-11.90174916174169
 30
0.0
 40
1.4375
100
AcDbArc
 50
8.379744929999999
 51
90.0000000025
  0
ENDSEC
  0
SECTION
  2
OBJECTS
  0
DICTIONARY
  5
A
330
0
100
AcDbDictionary
  3
ACAD_GROUP
350
23
  3
ACAD_LAYOUT
350
9
  3
ACAD_MLINESTYLE
350
24
  3
ACAD_PLOTSETTINGS
350
25
  3
ACAD_PLOTSTYLENAME
350
26
  3
ACDBHEADERROUNDTRIPXREC
350
2DC
  3
ACDBVARIABLEDICTIONARY
350
265
  0
DICTIONARY
  5
295
330
2
100
AcDbDictionary
280
     1
  3
ACAD_LAYOUTSELFREF
360
2FD
  0
DICTIONARY
  5
29B
330
B
100
AcDbDictionary
280
     1
  3
ACAD_LAYOUTSELFREF
360
2FE
  0
DICTIONARY
  5
23
102
{ACAD_REACTORS
330
A
102
}
330
A
100
AcDbDictionary
  0
DICTIONARY
  5
9
102
{ACAD_REACTORS
330
A
102
}
330
A
100
AcDbDictionary
  0
DICTIONARY
  5
24
102
{ACAD_REACTORS
330
A
102
}
330
A
100
AcDbDictionary
  3
STANDARD
350
27
  0
DICTIONARY
  5
25
102
{ACAD_REACTORS
330
A
102
}
330
A
100
AcDbDictionary
  0
ACDBDICTIONARYWDFLT
  5
26
102
{ACAD_REACTORS
330
A
102
}
330
A
100
AcDbDictionary
281
     1
  3
Normal
350
5
100
AcDbDictionaryWithDefault
340
5
  0
DICTIONARY
  5
2DC
102
{ACAD_REACTORS
330
A
102
}
330
A
100
AcDbDictionary
  3
CEPSNTYPE
350
2E6
  3
DIMSTYLEDATA
350
2EA
  3
FINGERPRINTGUID
350
2E7
  3
HYPERLINKBASE
350
2DF
  3
INSUNITS
350
2E5
  3
LAYOUTDICT
350
2E1
  3
LWETCUNION
350
2E4
  3
PLOTSETDICT
350
2E2
  3
PLOTSTYLNAMDICT
350
2E3
  3
PSVPSCALE
350
2E9
  3
PUCSBASE
350
2ED
  3
PUCSORGBACK
350
2F3
  3
PUCSORGBOTTOM
350
2EF
  3
PUCSORGFRONT
350
2F2
  3
PUCSORGLEFT
350
2F0
  3
PUCSORGRIGHT
350
2F1
  3
PUCSORGTOP
350
2EE
  3
PUCSORTHOREF
350
2EB
  3
PUCSORTHOVIEW
350
2EC
  3
STYLESHEET
350
2E0
  3
TSTACKALIGN
350
2DD
  3
TSTACKSIZE
350
2DE
  3
UCSBASE
350
2F6
  3
UCSORGBACK
350
2FC
  3
UCSORGBOTTOM
350
2F8
  3
UCSORGFRONT
350
2FB
  3
UCSORGLEFT
350
2F9
  3
UCSORGRIGHT
350
2FA
  3
UCSORGTOP
350
2F7
  3
UCSORTHOREF
350
2F4
  3
UCSORTHOVIEW
350
2F5
  3
VERSIONGUID
350
2E8
  0
DICTIONARY
  5
265
102
{ACAD_REACTORS
330
A
102
}
330
A
100
AcDbDictionary
  3
DIMASSOC
350
267
  3
HIDETEXT
350
266
  0
XRECORD
  5
2FD
102
{ACAD_REACTORS
330
295
102
}
330
295
100
AcDbXrecord
340
2
  0
XRECORD
  5
2FE
102
{ACAD_REACTORS
330
29B
102
}
330
29B
100
AcDbXrecord
340
B
  0
MLINESTYLE
  5
27
102
{ACAD_REACTORS
330
24
102
}
330
24
100
AcDbMlineStyle
  2
STANDARD
 70
     0
  3

 62
   256
 51
90.0
 52
90.0
 71
     2
 49
0.5
 62
   256
  6
BYLAYER
 49
-0.5
 62
   256
  6
BYLAYER
  0
ACDBPLACEHOLDER
  5
5
102
{ACAD_REACTORS
330
26
102
}
330
0
100
AcDbPlaceHolder
280
     0
  0
XRECORD
  5
2E6
102
{ACAD_REACTORS
330
2DC
102
}
330
2DC
100
AcDbXrecord
 90
        0
  0
XRECORD
  5
2EA
102
{ACAD_REACTORS
330
2DC
102
}
330
2DC
100
AcDbXrecord
1000
DSTYLE
1002
{
1070
   341
340
1E
1070
   342
340
1E
1002
}
  0
XRECORD
  5
2E7
102
{ACAD_REACTORS
330
2DC
102
}
330
2DC
100
AcDbXrecord
  1

  0
XRECORD
  5
2DF
102
{ACAD_REACTORS
330
2DC
102
}
330
2DC
100
AcDbXrecord
  1

  0
XRECORD
  5
2E5
102
{ACAD_REACTORS
330
2DC
102
}
330
2DC
100
AcDbXrecord
 90
        1
  0
XRECORD
  5
2E1
102
{ACAD_REACTORS
330
2DC
102
}
330
2DC
100
AcDbXrecord
340
9
  0
XRECORD
  5
2E4
102
{ACAD_REACTORS
330
2DC
102
}
330
2DC
100
AcDbXrecord
 90
    10781
  0
XRECORD
  5
2E2
102
{ACAD_REACTORS
330
2DC
102
}
330
2DC
100
AcDbXrecord
340
25
  0
XRECORD
  5
2E3
102
{ACAD_REACTORS
330
2DC
102
}
330
2DC
100
AcDbXrecord
340
26
  0
XRECORD
  5
2E9
102
{ACAD_REACTORS
330
2DC
102
}
330
2DC
100
AcDbXrecord
 40
0.0
  0
XRECORD
  5
2ED
102
{ACAD_REACTORS
330
2DC
102
}
330
2DC
100
AcDbXrecord
340
0
  0
XRECORD
  5
2F3
102
{ACAD_REACTORS
330
2DC
102
}
330
2DC
100
AcDbXrecord
 10
0.0
 20
0.0
 30
0.0
  0
XRECORD
  5
2EF
102
{ACAD_REACTORS
330
2DC
102
}
330
2DC
100
AcDbXrecord
 10
0.0
 20
0.0
 30
0.0
  0
XRECORD
  5
2F2
102
{ACAD_REACTORS
330
2DC
102
}
330
2DC
100
AcDbXrecord
 10
0.0
 20
0.0
 30
0.0
  0
XRECORD
  5
2F0
102
{ACAD_REACTORS
330
2DC
102
}
330
2DC
100
AcDbXrecord
 10
0.0
 20
0.0
 30
0.0
  0
XRECORD
  5
2F1
102
{ACAD_REACTORS
330
2DC
102
}
330
2DC
100
AcDbXrecord
 10
0.0
 20
0.0
 30
0.0
  0
XRECORD
  5
2EE
102
{ACAD_REACTORS
330
2DC
102
}
330
2DC
100
AcDbXrecord
 10
0.0
 20
0.0
 30
0.0
  0
XRECORD
  5
2EB
102
{ACAD_REACTORS
330
2DC
102
}
330
2DC
100
AcDbXrecord
340
0
  0
XRECORD
  5
2EC
102
{ACAD_REACTORS
330
2DC
102
}
330
2DC
100
AcDbXrecord
 70
     0
  0
XRECORD
  5
2E0
102
{ACAD_REACTORS
330
2DC
102
}
330
2DC
100
AcDbXrecord
  1

  0
XRECORD
  5
2DD
102
{ACAD_REACTORS
330
2DC
102
}
330
2DC
100
AcDbXrecord
 90
        1
  0
XRECORD
  5
2DE
102
{ACAD_REACTORS
330
2DC
102
}
330
2DC
100
AcDbXrecord
 90
       70
  0
XRECORD
  5
2F6
102
{ACAD_REACTORS
330
2DC
102
}
330
2DC
100
AcDbXrecord
340
0
  0
XRECORD
  5
2FC
102
{ACAD_REACTORS
330
2DC
102
}
330
2DC
100
AcDbXrecord
 10
0.0
 20
0.0
 30
0.0
  0
XRECORD
  5
2F8
102
{ACAD_REACTORS
330
2DC
102
}
330
2DC
100
AcDbXrecord
 10
0.0
 20
0.0
 30
0.0
  0
XRECORD
  5
2FB
102
{ACAD_REACTORS
330
2DC
102
}
330
2DC
100
AcDbXrecord
 10
0.0
 20
0.0
 30
0.0
  0
XRECORD
  5
2F9
102
{ACAD_REACTORS
330
2DC
102
}
330
2DC
100
AcDbXrecord
 10
0.0
 20
0.0
 30
0.0
  0
XRECORD
  5
2FA
102
{ACAD_REACTORS
330
2DC
102
}
330
2DC
100
AcDbXrecord
 10
0.0
 20
0.0
 30
0.0
  0
XRECORD
  5
2F7
102
{ACAD_REACTORS
330
2DC
102
}
330
2DC
100
AcDbXrecord
 10
0.0
 20
0.0
 30
0.0
  0
XRECORD
  5
2F4
102
{ACAD_REACTORS
330
2DC
102
}
330
2DC
100
AcDbXrecord
340
0
  0
XRECORD
  5
2F5
102
{ACAD_REACTORS
330
2DC
102
}
330
2DC
100
AcDbXrecord
 70
     0
  0
XRECORD
  5
2E8
102
{ACAD_REACTORS
330
2DC
102
}
330
2DC
100
AcDbXrecord
  1
{A4F47985-F6E8-4DFE-A398-629696A544A7}
  0
DICTIONARYVAR
  5
267
102
{ACAD_REACTORS
330
265
102
}
330
265
100
DictionaryVariables
280
     0
  1
1
  0
DICTIONARYVAR
  5
266
102
{ACAD_REACTORS
330
265
102
}
330
265
100
DictionaryVariables
280
     0
  1
1
  0
ENDSEC
  0
EOF
