  0
SECTION
  2
HEADER
  9
$ACADVER
  1
AC1014
  9
$ACADMAINTVER
 70
     9
  9
$DWGCODEPAGE
  3
ANSI_1252
  9
$INSBASE
 10
128.8438008820101
 20
-40.32323679534168
 30
0.0
  9
$EXTMIN
 10
92.83530894213857
 20
-40.47008196890371
 30
-0.0015258207003583
  9
$EXTMAX
 10
164.8488257120059
 20
-12.69627972806108
 30
0.0000000349246037
  9
$LIMMIN
 10
0.0
 20
0.0
  9
$LIMMAX
 10
17.0
 20
11.0
  9
$ORTHOMODE
 70
     1
  9
$REGENMODE
 70
     1
  9
$FILLMODE
 70
     1
  9
$QTEXTMODE
 70
     0
  9
$MIRRTEXT
 70
     1
  9
$DRAGMODE
 70
     2
  9
$LTSCALE
 40
2.0
  9
$OSMODE
 70
    55
  9
$ATTMODE
 70
     1
  9
$TEXTSIZE
 40
0.2
  9
$TRACEWID
 40
0.05
  9
$TEXTSTYLE
  7
STANDARD
  9
$CLAYER
  8
0
  9
$CELTYPE
  6
BYLAYER
  9
$CECOLOR
 62
   256
  9
$CELTSCALE
 40
1.0
  9
$DELOBJ
 70
     1
  9
$DISPSILH
 70
     0
  9
$DIMSCALE
 40
16.0
  9
$DIMASZ
 40
0.1875
  9
$DIMEXO
 40
0.0625
  9
$DIMDLI
 40
0.38
  9
$DIMRND
 40
0.0
  9
$DIMDLE
 40
0.0
  9
$DIMEXE
 40
0.18
  9
$DIMTP
 40
0.0
  9
$DIMTM
 40
0.0
  9
$DIMTXT
 40
0.125
  9
$DIMCEN
 40
0.09
  9
$DIMTSZ
 40
0.0
  9
$DIMTOL
 70
     0
  9
$DIMLIM
 70
     0
  9
$DIMTIH
 70
     1
  9
$DIMTOH
 70
     1
  9
$DIMSE1
 70
     0
  9
$DIMSE2
 70
     0
  9
$DIMTAD
 70
     0
  9
$DIMZIN
 70
     4
  9
$DIMBLK
  1
_FILLED
  9
$DIMASO
 70
     1
  9
$DIMSHO
 70
     1
  9
$DIMPOST
  1

  9
$DIMAPOST
  1

  9
$DIMALT
 70
     0
  9
$DIMALTD
 70
     2
  9
$DIMALTF
 40
25.4
  9
$DIMLFAC
 40
1.0
  9
$DIMTOFL
 70
     0
  9
$DIMTVP
 40
0.0
  9
$DIMTIX
 70
     0
  9
$DIMSOXD
 70
     0
  9
$DIMSAH
 70
     0
  9
$DIMBLK1
  1

  9
$DIMBLK2
  1

  9
$DIMSTYLE
  2
S_TANDARD
  9
$DIMCLRD
 70
     0
  9
$DIMCLRE
 70
     0
  9
$DIMCLRT
 70
     0
  9
$DIMTFAC
 40
1.0
  9
$DIMGAP
 40
0.09
  9
$DIMJUST
 70
     0
  9
$DIMSD1
 70
     0
  9
$DIMSD2
 70
     0
  9
$DIMTOLJ
 70
     1
  9
$DIMTZIN
 70
     4
  9
$DIMALTZ
 70
     0
  9
$DIMALTTZ
 70
     0
  9
$DIMFIT
 70
     3
  9
$DIMUPT
 70
     0
  9
$DIMUNIT
 70
     2
  9
$DIMDEC
 70
     3
  9
$DIMTDEC
 70
     3
  9
$DIMALTU
 70
     2
  9
$DIMALTTD
 70
     2
  9
$DIMTXSTY
  7
STANDARD
  9
$DIMAUNIT
 70
     0
  9
$LUNITS
 70
     2
  9
$LUPREC
 70
     4
  9
$SKETCHINC
 40
0.1
  9
$FILLETRAD
 40
0.375
  9
$AUNITS
 70
     0
  9
$AUPREC
 70
     0
  9
$MENU
  1
acad
  9
$ELEVATION
 40
0.0
  9
$PELEVATION
 40
0.0
  9
$THICKNESS
 40
0.0
  9
$LIMCHECK
 70
     0
  9
$BLIPMODE
 70
     0
  9
$CHAMFERA
 40
0.0
  9
$CHAMFERB
 40
0.0
  9
$CHAMFERC
 40
0.0
  9
$CHAMFERD
 40
0.0
  9
$SKPOLY
 70
     0
  9
$TDCREATE
 40
2453681.666029074
  9
$TDUPDATE
 40
2453685.479874085
  9
$TDINDWG
 40
0.0313366088
  9
$TDUSRTIMER
 40
0.0313366088
  9
$USRTIMER
 70
     1
  9
$ANGBASE
 50
0.0
  9
$ANGDIR
 70
     0
  9
$PDMODE
 70
     3
  9
$PDSIZE
 40
0.3125
  9
$PLINEWID
 40
0.0
  9
$COORDS
 70
     1
  9
$SPLFRAME
 70
     0
  9
$SPLINETYPE
 70
     6
  9
$SPLINESEGS
 70
     8
  9
$ATTDIA
 70
     0
  9
$ATTREQ
 70
     1
  9
$HANDLING
 70
 22529
  9
$HANDSEED
  5
29C
  9
$SURFTAB1
 70
     6
  9
$SURFTAB2
 70
     6
  9
$SURFTYPE
 70
     6
  9
$SURFU
 70
     6
  9
$SURFV
 70
     6
  9
$UCSNAME
  2

  9
$UCSORG
 10
0.0
 20
0.0
 30
0.0
  9
$UCSXDIR
 10
1.0
 20
0.0
 30
0.0
  9
$UCSYDIR
 10
0.0
 20
1.0
 30
0.0
  9
$PUCSNAME
  2

  9
$PUCSORG
 10
0.0
 20
0.0
 30
0.0
  9
$PUCSXDIR
 10
1.0
 20
0.0
 30
0.0
  9
$PUCSYDIR
 10
0.0
 20
1.0
 30
0.0
  9
$USERI1
 70
     0
  9
$USERI2
 70
     0
  9
$USERI3
 70
     0
  9
$USERI4
 70
     0
  9
$USERI5
 70
     0
  9
$USERR1
 40
0.0
  9
$USERR2
 40
0.0
  9
$USERR3
 40
0.0
  9
$USERR4
 40
0.0
  9
$USERR5
 40
0.0
  9
$WORLDVIEW
 70
     1
  9
$SHADEDGE
 70
     3
  9
$SHADEDIF
 70
    70
  9
$TILEMODE
 70
     1
  9
$MAXACTVP
 70
    16
  9
$PINSBASE
 10
0.0
 20
0.0
 30
0.0
  9
$PLIMCHECK
 70
     0
  9
$PEXTMIN
 10
1.000000000000000E+20
 20
1.000000000000000E+20
 30
1.000000000000000E+20
  9
$PEXTMAX
 10
-1.000000000000000E+20
 20
-1.000000000000000E+20
 30
-1.000000000000000E+20
  9
$PLIMMIN
 10
0.0
 20
0.0
  9
$PLIMMAX
 10
12.0
 20
9.0
  9
$UNITMODE
 70
     0
  9
$VISRETAIN
 70
     0
  9
$PLINEGEN
 70
     1
  9
$PSLTSCALE
 70
     0
  9
$TREEDEPTH
 70
  3020
  9
$PICKSTYLE
 70
     1
  9
$CMLSTYLE
  2
STANDARD
  9
$CMLJUST
 70
     0
  9
$CMLSCALE
 40
1.0
  9
$PROXYGRAPHICS
 70
     0
  9
$MEASUREMENT
 70
     0
  0
ENDSEC
  0
SECTION
  2
CLASSES
  0
CLASS
  1
ACDBDICTIONARYWDFLT
  2
AcDbDictionaryWithDefault
  3
AutoCAD 2000
 90
        0
280
     0
281
     0
  0
CLASS
  1
ACDBPLACEHOLDER
  2
AcDbPlaceHolder
  3
AutoCAD 2000
 90
        0
280
     0
281
     0
  0
CLASS
  1
LAYOUT
  2
AcDbLayout
  3
AutoCAD 2000
 90
        0
280
     0
281
     0
  0
CLASS
  1
LWPOLYLINE
  2
AcDbPolyline
  3
AutoCAD 2000
 90
        0
280
     0
281
     1
  0
CLASS
  1
IMAGE
  2
AcDbRasterImage
  3
ISM
 90
      127
280
     0
281
     1
  0
CLASS
  1
OLE2FRAME
  2
AcDbOle2Frame
  3
AutoCAD 2000
 90
        0
280
     0
281
     1
  0
CLASS
  1
HATCH
  2
AcDbHatch
  3
AutoCAD 2000
 90
        0
280
     0
281
     1
  0
CLASS
  1
DICTIONARYVAR
  2
AcDbDictionaryVar
  3
AutoCAD 2000
 90
        0
280
     0
281
     0
  0
CLASS
  1
RASTERVARIABLES
  2
AcDbRasterVariables
  3
ISM
 90
        0
280
     0
281
     0
  0
CLASS
  1
IMAGEDEF
  2
AcDbRasterImageDef
  3
ISM
 90
        0
280
     0
281
     0
  0
CLASS
  1
IMAGEDEF_REACTOR
  2
AcDbRasterImageDefReactor
  3
ISM
 90
        1
280
     0
281
     0
  0
CLASS
  1
IDBUFFER
  2
AcDbIdBuffer
  3
AutoCAD 2000
 90
        0
280
     0
281
     0
  0
CLASS
  1
SPATIAL_FILTER
  2
AcDbSpatialFilter
  3
AutoCAD 2000
 90
        0
280
     0
281
     0
  0
CLASS
  1
XRECORD
  2
AcDbXrecord
  3
AutoCAD 2000
 90
        0
280
     0
281
     0
  0
CLASS
  1
SORTENTSTABLE
  2
AcDbSortentsTable
  3
AutoCAD 2000
 90
        0
280
     0
281
     0
  0
CLASS
  1
LAYER_INDEX
  2
AcDbLayerIndex
  3
AutoCAD 2000
 90
        0
280
     0
281
     0
  0
CLASS
  1
SPATIAL_INDEX
  2
AcDbSpatialIndex
  3
AutoCAD 2000
 90
        0
280
     0
281
     0
  0
CLASS
  1
OBJECT_PTR
  2
CAseDLPNTableRecord
  3
ASE-LPNTableRecord
 90
        1
280
     0
281
     0
  0
CLASS
  1
PLOTSETTINGS
  2
AcDbPlotSettings
  3
AutoCAD 2000
 90
        0
280
     0
281
     0
  0
CLASS
  1
VBA_PROJECT
  2
AcDbVbaProject
  3
acadvba
 90
        0
280
     0
281
     0
  0
CLASS
  1
WIPEOUT
  2
AcDbWipeout
  3
WipeOut|AutoCAD Express Tool|expresstools@autodesk.com
 90
      127
280
     1
281
     1
  0
CLASS
  1
WIPEOUTVARIABLES
  2
AcDbWipeoutVariables
  3
WipeOut|AutoCAD Express Tool|expresstools@autodesk.com
 90
        0
280
     1
281
     0
  0
CLASS
  1
RTEXT
  2
RText
  3
RText|AutoCAD Express Tool|expresstools@autodesk.com
 90
        0
280
     1
281
     1
  0
CLASS
  1
ARCALIGNEDTEXT
  2
AcDbArcAlignedText
  3
ATEXT|AutoCAD Express Tool|expresstools@autodesk.com
 90
        0
280
     1
281
     1
  0
CLASS
  1
LONG_TRANSACTION
  2
AcDbLongTransaction
  3
AutoCAD 2000
 90
        0
280
     0
281
     0
  0
CLASS
  1
LWPOLYLINE
  2
AcDbPolyline
  3
AutoCAD 2000
 90
        0
280
     0
281
     1
  0
CLASS
  1
HATCH
  2
AcDbHatch
  3
AutoCAD 2000
 90
        0
280
     0
281
     1
  0
CLASS
  1
XRECORD
  2
AcDbXrecord
  3
AutoCAD 2000
 90
        0
280
     0
281
     0
  0
CLASS
  1
LONG_TRANSACTION
  2
AcDbLongTransaction
  3
AutoCAD 2000
 90
        0
280
     0
281
     0
  0
CLASS
  1
LWPOLYLINE
  2
AcDbPolyline
  3
AutoCAD 2000
 90
        0
280
     0
281
     1
  0
CLASS
  1
HATCH
  2
AcDbHatch
  3
AutoCAD 2000
 90
        0
280
     0
281
     1
  0
CLASS
  1
XRECORD
  2
AcDbXrecord
  3
AutoCAD 2000
 90
        0
280
     0
281
     0
  0
ENDSEC
  0
SECTION
  2
TABLES
  0
TABLE
  2
VPORT
  5
18
330
0
100
AcDbSymbolTable
 70
     3
  0
VPORT
  5
278
330
18
100
AcDbSymbolTableRecord
100
AcDbViewportTableRecord
  2
*ACTIVE
 70
     0
 10
0.0
 20
0.0
 11
1.0
 21
1.0
 12
128.8420672182796
 22
-26.58318088575549
 13
0.0
 23
0.0
 14
1.0
 24
1.0
 15
0.0
 25
0.0
 16
0.0
 26
0.0
 36
1.0
 17
0.0
 27
0.0
 37
0.0
 40
44.61391847792344
 41
1.786792452830188
 42
50.0
 43
0.0
 44
0.0
 50
0.0
 51
0.0
 71
     0
 72
   100
 73
     1
 74
     1
 75
     0
 76
     0
 77
     0
 78
     0
  0
ENDTAB
  0
TABLE
  2
LTYPE
  5
13
330
0
100
AcDbSymbolTable
 70
     3
  0
LTYPE
  5
14
330
13
100
AcDbSymbolTableRecord
100
AcDbLinetypeTableRecord
  2
BYBLOCK
 70
     0
  3

 72
    65
 73
     0
 40
0.0
  0
LTYPE
  5
15
330
13
100
AcDbSymbolTableRecord
100
AcDbLinetypeTableRecord
  2
BYLAYER
 70
     0
  3

 72
    65
 73
     0
 40
0.0
  0
LTYPE
  5
6
330
13
100
AcDbSymbolTableRecord
100
AcDbLinetypeTableRecord
  2
CONTINUOUS
 70
     0
  3
Solid line
 72
    65
 73
     0
 40
0.0
  0
LTYPE
  5
A8
330
13
100
AcDbSymbolTableRecord
100
AcDbLinetypeTableRecord
  2
CENTER
 70
     0
  3
____ _ ____ _ ____ _ ____ _ ____ _ ____ _ ____
 72
    65
 73
     4
 40
0.6
 49
0.375
 74
     0
 49
-0.075
 74
     0
 49
0.075
 74
     0
 49
-0.075
 74
     0
  0
LTYPE
  5
3C
330
13
100
AcDbSymbolTableRecord
100
AcDbLinetypeTableRecord
  2
HIDDEN
 70
     0
  3
- - - - - - - - - - - - - - - - - - - -
 72
    65
 73
     2
 40
0.2
 49
0.1
 74
     0
 49
-0.1
 74
     0
  0
ENDTAB
  0
TABLE
  2
LAYER
  5
F
330
0
100
AcDbSymbolTable
 70
     2
  0
LAYER
  5
4
330
F
100
AcDbSymbolTableRecord
100
AcDbLayerTableRecord
  2
0
 70
     0
 62
     7
  6
CONTINUOUS
  0
LAYER
  5
A7
330
F
100
AcDbSymbolTableRecord
100
AcDbLayerTableRecord
  2
CENTER
 70
     0
 62
     1
  6
CENTER
  0
ENDTAB
  0
TABLE
  2
STYLE
  5
10
330
0
100
AcDbSymbolTable
 70
     1
  0
STYLE
  5
11
330
10
100
AcDbSymbolTableRecord
100
AcDbTextStyleTableRecord
  2
STANDARD
 70
     0
 40
0.0
 41
0.8
 50
0.0
 71
     0
 42
0.2
  3
txt
  4

  0
ENDTAB
  0
TABLE
  2
VIEW
  5
16
330
0
100
AcDbSymbolTable
 70
     0
  0
ENDTAB
  0
TABLE
  2
UCS
  5
17
330
0
100
AcDbSymbolTable
 70
     0
  0
ENDTAB
  0
TABLE
  2
APPID
  5
1A
330
0
100
AcDbSymbolTable
 70
     1
  0
APPID
  5
1B
330
1A
100
AcDbSymbolTableRecord
100
AcDbRegAppTableRecord
  2
ACAD
 70
     0
  0
ENDTAB
  0
TABLE
  2
DIMSTYLE
  5
1C
330
0
100
AcDbSymbolTable
 70
     1
  0
DIMSTYLE
105
1D
330
1C
100
AcDbSymbolTableRecord
100
AcDbDimStyleTableRecord
  2
S_TANDARD
 70
     0
  3

  4

  5
_FILLED
  6

  7

 40
16.0
 41
0.1875
 42
0.0625
 43
0.38
 44
0.18
 45
0.0
 46
0.0
 47
0.0
 48
0.0
140
0.125
141
0.09
142
0.0
143
25.4
144
1.0
145
0.0
146
1.0
147
0.09
 71
     0
 72
     0
 73
     1
 74
     1
 75
     0
 76
     0
 77
     0
 78
     4
170
     0
171
     2
172
     0
173
     0
174
     0
175
     0
176
     0
177
     0
178
     0
270
     2
271
     3
272
     3
273
     2
274
     2
340
11
275
     0
280
     0
281
     0
282
     0
283
     1
284
     4
285
     0
286
     0
287
     3
288
     0
  0
ENDTAB
  0
TABLE
  2
BLOCK_RECORD
  5
1
330
0
100
AcDbSymbolTable
 70
     1
  0
BLOCK_RECORD
  5
2
102
{ACAD_XDICTIONARY
360
233
102
}
330
1
100
AcDbSymbolTableRecord
100
AcDbBlockTableRecord
  2
*MODEL_SPACE
  0
BLOCK_RECORD
  5
B
102
{ACAD_XDICTIONARY
360
239
102
}
330
1
100
AcDbSymbolTableRecord
100
AcDbBlockTableRecord
  2
*PAPER_SPACE
  0
BLOCK_RECORD
  5
1E
330
1
100
AcDbSymbolTableRecord
100
AcDbBlockTableRecord
  2
_FILLED
  0
ENDTAB
  0
ENDSEC
  0
SECTION
  2
BLOCKS
  0
BLOCK
  5
3
330
2
100
AcDbEntity
  8
0
100
AcDbBlockBegin
  2
*MODEL_SPACE
 70
     0
 10
0.0
 20
0.0
 30
0.0
  3
*MODEL_SPACE
  1

  0
ENDBLK
  5
7
330
2
100
AcDbEntity
  8
0
100
AcDbBlockEnd
  0
BLOCK
  5
C
330
B
100
AcDbEntity
 67
     1
  8
0
100
AcDbBlockBegin
  2
*PAPER_SPACE
 70
     0
 10
0.0
 20
0.0
 30
0.0
  3
*PAPER_SPACE
  1

  0
ENDBLK
  5
D
330
B
100
AcDbEntity
 67
     1
  8
0
100
AcDbBlockEnd
  0
BLOCK
  5
20
330
1E
100
AcDbEntity
  8
0
100
AcDbBlockBegin
  2
_FILLED
 70
     0
 10
0.0
 20
0.0
 30
0.0
  3
_FILLED
  1

  0
SOLID
  5
1F
330
1E
100
AcDbEntity
  8
0
  6
BYBLOCK
 62
     0
100
AcDbTrace
 10
0.0
 20
0.0
 30
0.0
 11
-1.0
 21
0.1666666667
 31
0.0
 12
-1.0
 22
-0.1666666667
 32
0.0
 13
-1.0
 23
-0.1666666667
 33
0.0
  0
ENDBLK
  5
21
330
1E
100
AcDbEntity
  8
0
  6
BYBLOCK
 62
     0
100
AcDbBlockEnd
  0
ENDSEC
  0
SECTION
  2
ENTITIES
  0
LWPOLYLINE
  5
28
330
2
100
AcDbEntity
  8
0
100
AcDbPolyline
 90
        7
 70
     0
 43
0.0
 10
100.3264229524101
 20
-18.76045216174168
 10
100.0793285076101
 20
-18.18027171534168
 10
99.80378272361011
 20
-17.55892344654167
 10
99.48820746121013
 20
-16.87860923214168
 10
99.11787733321013
 20
-16.12072555374167
 10
98.68586068041011
 20
-15.30549748334167
 10
98.21120378281012
 20
-14.45583616814167
  0
LWPOLYLINE
  5
29
330
2
100
AcDbEntity
  8
0
100
AcDbPolyline
 90
       11
 70
     0
 43
0.0
 10
153.7548260660101
 20
-30.95929981134168
 10
153.6376449812101
 20
-31.11870363374168
 10
153.5053968212101
 20
-31.27221891054168
 10
153.3576132372101
 20
-31.41920788174167
 10
153.1937421508101
 20
-31.55893900654167
 10
153.0121909428101
 20
-31.69124417774168
 10
152.8119942004101
 20
-31.81528975854168
 10
152.5936774980101
 20
-31.92917178414168
 10
152.3605609028101
 20
-32.02997987694168
 10
152.1343661668101
 20
-32.11022758254168
 10
151.9308012948101
 20
-32.16965560014168
  0
LWPOLYLINE
  5
2A
330
2
100
AcDbEntity
  8
0
100
AcDbPolyline
 90
       45
 70
     0
 43
0.0
 10
157.1834177444101
 20
-19.77778564014167
 10
157.1000263876101
 20
-20.04308709774167
 10
156.9962854692101
 20
-20.33567329454168
 10
156.8795234980101
 20
-20.65867969294168
 10
156.7557089588101
 20
-21.02035253134168
 10
156.6280453204101
 20
-21.42821972014167
 10
156.4932695252101
 20
-21.89275665934168
 10
156.3648957924101
 20
-22.35737988174168
 10
156.24571339241
 20
-22.80359396974167
 10
156.1179321444101
 20
-23.30590158734167
 10
155.9840233892101
 20
-23.87235413934168
 10
155.8446940708101
 20
-24.51691558094168
 10
155.7022574612101
 20
-25.24057487694168
 10
155.5657732772101
 20
-26.00903493294168
 10
155.4576483716101
 20
-26.69156517614168
 10
155.3746690020101
 20
-27.28669028974167
 10
155.3125406596101
 20
-27.80444765294168
 10
155.2679579876101
 20
-28.25501501934168
 10
155.2385865012101
 20
-28.64900001934167
 10
155.2201159636101
 20
-29.01403770254168
 10
155.2057114116101
 20
-29.33760675214168
 10
155.1875272164101
 20
-29.62241929934167
 10
155.1602976548101
 20
-29.87392614254167
 10
155.1226107508101
 20
-30.09144989614168
 10
155.0729827220101
 20
-30.29084182894168
 10
155.0087129780101
 20
-30.48769862574168
 10
154.9303215892101
 20
-30.68009102734168
 10
154.8389403252101
 20
-30.86529751054168
 10
154.7354907940101
 20
-31.04180710894168
 10
154.6206201220101
 20
-31.20896165134168
 10
154.4956948468101
 20
-31.36530832014168
 10
154.3627461300101
 20
-31.50897730574168
 10
154.2236153444101
 20
-31.63884480334167
 10
154.0791695892101
 20
-31.75490965294168
 10
153.92864789641
 20
-31.85836164174168
 10
153.7710864708101
 20
-31.95012381774168
 10
153.6056263236101
 20
-32.03058447854167
 10
153.4309960308101
 20
-32.09998169454168
 10
153.2461945332101
 20
-32.15808314414168
 10
153.0491453172101
 20
-32.20458503534167
 10
152.8417565604101
 20
-32.23814893774167
 10
152.6295580628101
 20
-32.25750517934168
 10
152.4304638436101
 20
-32.26585668814168
 10
152.2510124148101
 20
-32.27060850414167
 10
152.1005747780101
 20
-32.27511905454167
  0
LWPOLYLINE
  5
2B
330
2
100
AcDbEntity
  8
0
100
AcDbPolyline
 90
       42
 70
     0
 43
0.0
 10
163.8734457627253
 20
-14.69822506752364
 10
163.5406844948101
 20
-15.25529405614167
 10
163.2225544196101
 20
-15.80463780494168
 10
162.9088414724101
 20
-16.34749557134168
 10
162.5989034660101
 20
-16.91711962094167
 10
162.2920982132101
 20
-17.49872511854167
 10
161.9877835300101
 20
-18.09353959374168
 10
161.7343299972101
 20
-18.60283193934167
 10
161.4817953940101
 20
-19.12296872334168
 10
161.2298017844101
 20
-19.65466540814168
 10
160.9779712324101
 20
-20.19863745774168
 10
160.7259261892101
 20
-20.75560474574167
 10
160.4732906596101
 20
-21.32630479534167
 10
160.2196890356101
 20
-21.91147953934167
 10
159.9647457108101
 20
-22.51187091054168
 10
159.7938515844101
 20
-22.92094012974168
 10
159.6220767092101
 20
-23.33725128654168
 10
159.4493035844101
 20
-23.76095362734167
 10
159.2754197524101
 20
-24.19225374574168
 10
159.1003329412101
 20
-24.63158763374168
 10
158.9239559188101
 20
-25.07944863214167
 10
158.7462202340101
 20
-25.53654356334168
 10
158.5671325604101
 20
-26.00443318414168
 10
158.3867183476101
 20
-26.48489172974167
 10
158.2505514292101
 20
-26.85453961774168
 10
158.1136572164101
 20
-27.23293389934168
 10
157.9760402772101
 20
-27.62075293454167
 10
157.8377051748101
 20
-28.01867508974167
 10
157.6986567028101
 20
-28.42738126574168
 10
157.5589005428101
 20
-28.84756251534168
 10
157.4184426020101
 20
-29.27991243214167
 10
157.2772887876101
 20
-29.72512460654167
 10
157.1354450036101
 20
-30.18389263214167
 10
156.9929171588101
 20
-30.65691009934168
 10
156.8497111572101
 20
-31.14487060014168
 10
156.7058329076101
 20
-31.64846772814168
 10
156.5821989620101
 20
-32.09229121454168
 10
156.45808079561
 20
-32.54850304334168
 10
156.3334820100101
 20
-33.01753650734168
 10
156.2084062020101
 20
-33.49982490734168
 10
156.0828569684101
 20
-33.99580153614167
 10
155.9568379092101
 20
-34.50589969294168
  0
LWPOLYLINE
  5
2C
330
2
100
AcDbEntity
  8
0
100
AcDbPolyline
 90
        6
 70
     0
 43
0.0
 10
103.8304878132101
 20
-30.79503099534167
 10
103.9327753524101
 20
-30.95929930414168
 10
104.0499552804101
 20
-31.11870174574168
 10
104.1822022100101
 20
-31.27221597454168
 10
104.3299845780101
 20
-31.41920424174168
 10
104.4938542276101
 20
-31.55893475854168
  0
LWPOLYLINE
  5
2D
330
2
100
AcDbEntity
  8
0
100
AcDbPolyline
 90
       22
 70
     0
 43
0.0
 10
102.5669745956101
 20
-30.10077951854167
 10
102.6146190420101
 20
-30.29084182894168
 10
102.6788887860101
 20
-30.48769862574168
 10
102.7572801748101
 20
-30.68009102734168
 10
102.8486614388101
 20
-30.86529751054168
 10
102.9521109700101
 20
-31.04180710894168
 10
103.0669816436101
 20
-31.20896165134168
 10
103.1919069172101
 20
-31.36530832014168
 10
103.3248556340101
 20
-31.50897730574168
 10
103.4639864196101
 20
-31.63884480334167
 10
103.6084321764101
 20
-31.75490965294168
 10
103.7589538676101
 20
-31.85836164174168
 10
103.9165152932101
 20
-31.95012381774168
 10
104.0819754404101
 20
-32.03058447854167
 10
104.2566057332101
 20
-32.09998169454168
 10
104.4414072308101
 20
-32.15808314414168
 10
104.6384564468101
 20
-32.20458503534167
 10
104.8458452036101
 20
-32.23814893774167
 10
105.0580437012101
 20
-32.25750517934168
 10
105.2571379204101
 20
-32.26585668814168
 10
105.4365893492101
 20
-32.27060850414167
 10
105.5870269860101
 20
-32.27511905454167
  0
LWPOLYLINE
  5
2E
330
2
100
AcDbEntity
  8
0
100
AcDbPolyline
 90
       42
 70
     0
 43
0.0
 10
93.81415933853933
 20
-14.69823065433781
 10
94.14691726921011
 20
-15.25529405614167
 10
94.46504734441012
 20
-15.80463780494168
 10
94.77876029161013
 20
-16.34749557134168
 10
95.08869829801012
 20
-16.91711962094167
 10
95.39550355081011
 20
-17.49872511854167
 10
95.69981823401011
 20
-18.09353959374168
 10
95.95327176681012
 20
-18.60283193934167
 10
96.20580637001012
 20
-19.12296872334168
 10
96.45779997961012
 20
-19.65466540814168
 10
96.70963053161012
 20
-20.19863745774168
 10
96.96167557481011
 20
-20.75560474574167
 10
97.21431110441011
 20
-21.32630479534167
 10
97.46791272841011
 20
-21.91147953934167
 10
97.72285605321011
 20
-22.51187091054168
 10
97.89375017961013
 20
-22.92094012974168
 10
98.06552505481011
 20
-23.33725128654168
 10
98.23829817961012
 20
-23.76095362734167
 10
98.41218201161012
 20
-24.19225374574168
 10
98.58726882281011
 20
-24.63158763374168
 10
98.76364584681011
 20
-25.07944863214167
 10
98.94138153001012
 20
-25.53654356334168
 10
99.12046920361012
 20
-26.00443318414168
 10
99.30088341641011
 20
-26.48489172974167
 10
99.43705033481013
 20
-26.85453961774168
 10
99.57394454761013
 20
-27.23293389934168
 10
99.71156148681012
 20
-27.62075293454167
 10
99.84989658921012
 20
-28.01867508974167
 10
99.98894506121011
 20
-28.42738126574168
 10
100.1287012212101
 20
-28.84756251534168
 10
100.2691591620101
 20
-29.27991243214167
 10
100.4103129764101
 20
-29.72512460654167
 10
100.5521567604101
 20
-30.18389263214167
 10
100.6946846068101
 20
-30.65691009934168
 10
100.8378906068101
 20
-31.14487060014168
 10
100.9817688564101
 20
-31.64846772814168
 10
101.1054042452101
 20
-32.09229645294168
 10
101.2295238628101
 20
-32.54851381294168
 10
101.3541241140101
 20
-33.01755311694167
 10
101.4792013972101
 20
-33.49984768014167
 10
101.6047521172101
 20
-33.99583081134167
 10
101.7307726740101
 20
-34.50593582574168
  0
LINE
  5
2F
330
2
100
AcDbEntity
  8
0
100
AcDbLine
 10
132.5330685716101
 20
-31.66845998734168
 30
0.0
 11
135.9174309172101
 21
-31.89517978734169
 31
0.0
  0
LWPOLYLINE
  5
30
330
2
100
AcDbEntity
  8
0
100
AcDbPolyline
 90
       13
 70
     0
 43
0.0
 10
135.3156552516101
 20
-33.94366996494167
 10
135.1661589620101
 20
-33.94851798414168
 10
135.0885309972101
 20
-33.95092432814168
 10
135.0101359780101
 20
-33.95316780014168
 10
134.9324011508101
 20
-33.95512033614168
 10
134.8552548468101
 20
-33.95672951214168
 10
134.7782512692101
 20
-33.95797024654167
 10
134.7009577028101
 20
-33.95882798414167
 10
134.6232332884101
 20
-33.95928790894168
 10
134.5449959524101
 20
-33.95933781614167
 10
134.4662567316101
 20
-33.95896719694167
 10
134.3871550900101
 20
-33.95818667214168
 10
134.2963599956101
 20
-33.95693275694168
  0
LWPOLYLINE
  5
31
330
2
100
AcDbEntity
  8
0
100
AcDbPolyline
 90
       31
 70
     0
 43
0.0
 10
134.9997621572101
 20
-32.90752091854168
 10
135.0111630564101
 20
-32.90016727854168
 10
135.0227882468101
 20
-32.89301870254168
 10
135.0346295716101
 20
-32.88607913294168
 10
135.0466772596101
 20
-32.87935320494168
 10
135.0589240228101
 20
-32.87284393294167
 10
135.0713562532101
 20
-32.86655738254168
 10
135.0839484980101
 20
-32.86050448974167
 10
135.0966827284101
 20
-32.85469112494168
 10
135.1095517236101
 20
-32.84911764974168
 10
135.1225487684101
 20
-32.84378429454168
 10
135.1356677604101
 20
-32.83869115054168
 10
135.1489030548101
 20
-32.83383826574168
 10
135.1622495012101
 20
-32.82922566414168
 10
135.1757024100101
 20
-32.82485337934168
 10
135.1892575476101
 20
-32.82072148494167
 10
135.2029111108101
 20
-32.81683011854168
 10
135.2166597060101
 20
-32.81317951374168
 10
135.2305003348101
 20
-32.80977002254167
 10
135.2444303620101
 20
-32.80660213934167
 10
135.2584474916101
 20
-32.80367652334168
 10
135.2725497508101
 20
-32.80099401294167
 10
135.28673544361
 20
-32.79855565774168
 10
135.3010031332101
 20
-32.79636272334168
 10
135.3153516164101
 20
-32.79441671534168
 10
135.3297799316101
 20
-32.79271938254167
 10
135.3442871348101
 20
-32.79127275694168
 10
135.3588725588101
 20
-32.79007912654167
 10
135.3735351908101
 20
-32.78914108974167
 10
135.38827649161
 20
-32.78846141774168
 10
135.4030872788101
 20
-32.78804352974168
  0
LWPOLYLINE
  5
32
330
2
100
AcDbEntity
  8
0
100
AcDbPolyline
 90
       32
 70
     0
 43
0.0
 10
129.7013335684101
 20
-34.21137274734167
 10
129.8608219700101
 20
-34.21124978414168
 10
130.0238511156101
 20
-34.21100169774168
 10
130.1909087428101
 20
-34.21058088334167
 10
130.3625042020101
 20
-34.20992739534168
 10
130.5391898676101
 20
-34.20896564974167
 10
130.7215606068101
 20
-34.20760031534168
 10
130.9101848772101
 20
-34.20571319534168
 10
131.1055228948101
 20
-34.20318093614167
 10
131.3082590804101
 20
-34.19987265934167
 10
131.5182323764101
 20
-34.19566860494168
 10
131.73506550441
 20
-34.19050225774167
 10
131.9594889524101
 20
-34.18428820974168
 10
132.1947624564101
 20
-34.17682150574167
 10
132.4444484884101
 20
-34.16780577294167
 10
132.7113040036101
 20
-34.15688276974167
 10
132.9898732116101
 20
-34.14399392814168
 10
133.2698714228101
 20
-34.12943722414168
 10
133.5413368260101
 20
-34.11371239694168
 10
133.7990289428101
 20
-34.09723557774167
 10
134.0426621956101
 20
-34.08026802894168
 10
134.2731260292101
 20
-34.06306556174168
 10
134.4913776356101
 20
-34.04582278094167
 10
134.6988029908101
 20
-34.02863984014167
 10
134.89533443881
 20
-34.01164727054168
 10
135.0786274420101
 20
-33.99514674094167
 10
135.2473034628101
 20
-33.97941174254167
 10
135.4007285284101
 20
-33.96468250734168
 10
135.5436372164101
 20
-33.95064689934168
 10
135.6829158436101
 20
-33.93671005454168
 10
135.8272811828101
 20
-33.92205027534168
 10
135.9516388020101
 20
-33.90935003534168
  0
ARC
  5
33
330
2
100
AcDbEntity
  8
0
100
AcDbCircle
 10
128.8438008820101
 20
-115.6218674129416
 30
0.0
 40
83.0486306176
100
AcDbArc
 50
80.95052009479999
 51
99.0494799052
  0
ARC
  5
34
330
2
100
AcDbEntity
  8
0
100
AcDbCircle
 10
128.8438008820101
 20
-112.0732367953416
 30
0.0
 40
80.0
100
AcDbArc
 50
72.1244501208
 51
107.8755872904999
  0
LINE
  5
35
330
2
100
AcDbEntity
  8
0
100
AcDbLine
 10
107.5313008820101
 20
-40.32323679534168
 30
0.0
 11
150.1563008820101
 21
-40.32323679534168
 31
0.0
  0
LINE
  5
36
330
2
100
AcDbEntity
  8
0
100
AcDbLine
 10
109.7615875220101
 20
-32.41982296654168
 30
0.0
 11
110.2353180900101
 21
-32.43630865774168
 31
0.0
  0
LINE
  5
37
330
2
100
AcDbEntity
  8
0
100
AcDbLine
 10
109.7862722916101
 20
-32.42068348814168
 30
0.0
 11
109.7619610948101
 21
-32.41983604334169
 31
0.0
  0
LINE
  5
38
330
2
100
AcDbEntity
  8
0
100
AcDbLine
 10
105.5870269860101
 20
-32.27511905454168
 30
0.0
 11
120.5295189300101
 21
-32.78294177774168
 31
0.0
  0
LWPOLYLINE
  5
39
330
2
100
AcDbEntity
  8
0
100
AcDbPolyline
 90
       30
 70
     0
 43
0.0
 10
107.5313008820101
 20
-35.35448679534168
 10
107.6225780516101
 20
-35.33030652974167
 10
107.6934702852101
 20
-35.31160304334167
 10
107.7844845668101
 20
-35.28768885934168
 10
107.8955068644101
 20
-35.25866672174167
 10
108.0264004244101
 20
-35.22466046094168
 10
108.1769693396101
 20
-35.18582374094167
 10
108.3470044916101
 20
-35.14232724814167
 10
108.5361988020101
 20
-35.09437927854168
 10
108.7442554516101
 20
-35.04219676974168
 10
108.9707259892101
 20
-34.98604446894168
 10
109.2152135716101
 20
-34.92618222574167
 10
109.4771038132101
 20
-34.86292925614167
 10
109.7558926228101
 20
-34.79658172974168
 10
110.0507871348101
 20
-34.72750616494168
 10
110.3611759572101
 20
-34.65602508814168
 10
110.6860916836101
 20
-34.58253965134167
 10
111.0248229924101
 20
-34.50738612494168
 10
111.3762496292101
 20
-34.43098306734167
 10
111.7395736612101
 20
-34.35366662894168
 10
112.1135591428101
 20
-34.27585301294168
 10
112.4973375204101
 20
-34.19786491374168
 10
112.8896042676101
 20
-34.12009652494168
 10
113.2894356148101
 20
-34.04284579214167
 10
113.6955099364101
 20
-33.96646753614168
 10
114.1068571572101
 20
-33.89122727534167
 10
114.5221846404101
 20
-33.81742770574168
 10
114.9404882564101
 20
-33.74529600494168
 10
115.3605514068101
 20
-33.67507350894168
 10
115.7813008820101
 20
-33.60695327374168
  0
LWPOLYLINE
  5
3A
330
2
100
AcDbEntity
  8
0
100
AcDbPolyline
 90
       30
 70
     0
 43
0.0
 10
115.7813008820101
 20
-33.60695327374168
 10
115.3924271780101
 20
-33.67507336494168
 10
115.0041891572101
 20
-33.74529545774167
 10
114.6175747172101
 20
-33.81742723534168
 10
114.2337135924101
 20
-33.89122637134168
 10
113.8535278708101
 20
-33.96646684014168
 10
113.4782185108101
 20
-34.04284471374168
 10
113.1086763524101
 20
-34.12009564334168
 10
112.7461277876101
 20
-34.19786379054168
 10
112.3914229140101
 20
-34.27585200014168
 10
112.0457698500101
 20
-34.35366555054168
 10
111.7099703300101
 20
-34.43098197454168
 10
111.3851663636101
 20
-34.50738514254167
 10
111.0720969828101
 20
-34.58253853454167
 10
110.7717949684101
 20
-34.65602422734168
 10
110.4849212276101
 20
-34.72750509294167
 10
110.2123657780101
 20
-34.79658100654168
 10
109.9546981892101
 20
-34.86292829934168
 10
109.7126466196101
 20
-34.92618164974167
 10
109.4866815748101
 20
-34.98604368494167
 10
109.2773665348101
 20
-35.04219634254168
 10
109.0850722932101
 20
-35.09437869934168
 10
108.9102098004101
 20
-35.14232696174168
 10
108.7530564084101
 20
-35.18582336814167
 10
108.6138934756101
 20
-35.22466029454168
 10
108.4929162180101
 20
-35.25866652014168
 10
108.3903042596101
 20
-35.28768878094167
 10
108.3061850132101
 20
-35.31160296014167
 10
108.2406632020101
 20
-35.33030650414168
 10
108.1563008820101
 20
-35.35448679534168
  0
LINE
  5
3B
330
2
100
AcDbEntity
  8
0
  6
HIDDEN
100
AcDbLine
 10
108.1563008820101
 20
-40.32323679534168
 30
0.0
 11
108.1563008820101
 21
-35.35448679534168
 31
0.0
  0
ARC
  5
3D
330
2
100
AcDbEntity
  8
0
100
AcDbCircle
 10
103.6737543284101
 20
-34.03178139694169
 30
0.0
 40
2.0
100
AcDbArc
 50
193.7143104581999
 51
287.8766058581999
  0
LINE
  5
3E
330
2
100
AcDbEntity
  8
0
100
AcDbLine
 10
107.5313008820101
 20
-40.32323679534168
 30
0.0
 11
107.5313008820101
 21
-35.35448679534168
 31
0.0
  0
LINE
  5
3F
330
2
100
AcDbEntity
  8
0
100
AcDbLine
 10
108.6341850196101
 20
-35.06980344014168
 30
0.0
 11
109.0339032388101
 21
-39.63860360174168
 31
0.0
  0
ARC
  5
40
330
2
100
AcDbEntity
  8
0
100
AcDbCircle
 10
109.7810492628101
 20
-39.57323679534168
 30
0.0
 40
0.75
100
AcDbArc
 50
185.0
 51
270.0
  0
LINE
  5
41
330
2
100
AcDbEntity
  8
0
100
AcDbLine
 10
107.5313008820101
 20
-35.35448679534168
 30
0.0
 11
108.1563008820101
 21
-35.35448679534168
 31
0.0
  0
LINE
  5
42
330
2
100
AcDbEntity
  8
0
100
AcDbLine
 10
108.6256759860101
 20
-34.97254474094168
 30
0.0
 11
108.6341850196101
 21
-35.06980344014168
 31
0.0
  0
LWPOLYLINE
  5
43
330
2
100
AcDbEntity
  8
0
100
AcDbPolyline
 90
        3
 70
     0
 43
0.0
 10
106.5152991556101
 20
-32.30093098734168
 10
106.6259674404101
 20
-32.30910894574167
 10
106.7234824532101
 20
-32.31376152654168
  0
LINE
  5
44
330
2
100
AcDbEntity
  8
0
100
AcDbLine
 10
106.1914021156101
 20
-32.29535938574168
 30
0.0
 11
106.9222391828101
 21
-32.32064811214168
 31
0.0
  0
LINE
  5
45
330
2
100
AcDbEntity
  8
0
100
AcDbLine
 10
107.3223982532101
 20
-32.33400666894169
 30
0.0
 11
105.7396082100101
 21
-32.27998195054169
 31
0.0
  0
LINE
  5
46
330
2
100
AcDbEntity
  8
0
100
AcDbLine
 10
106.3923540516101
 20
-32.28854541934168
 30
0.0
 11
106.5153107908101
 21
-32.30093199854168
 31
0.0
  0
LINE
  5
47
330
2
100
AcDbEntity
  8
0
100
AcDbLine
 10
106.1390442548101
 20
-32.29355571374169
 30
0.0
 11
106.0850258580101
 21
-32.29170409294168
 31
0.0
  0
LINE
  5
48
330
2
100
AcDbEntity
  8
0
100
AcDbLine
 10
105.6785238356101
 20
-32.27801693134169
 30
0.0
 11
105.5870269860101
 21
-32.27511905454168
 31
0.0
  0
LINE
  5
49
330
2
100
AcDbEntity
  8
0
100
AcDbLine
 10
105.8405667684101
 20
-32.28338999214168
 30
0.0
 11
105.6785238356101
 21
-32.27801693134169
 31
0.0
  0
LINE
  5
4A
330
2
100
AcDbEntity
  8
0
100
AcDbLine
 10
104.4938596132101
 20
-31.55893900654168
 30
0.0
 11
104.6754108212101
 21
-31.69124417774169
 31
0.0
  0
LWPOLYLINE
  5
4B
330
2
100
AcDbEntity
  8
0
100
AcDbPolyline
 90
       10
 70
     0
 43
0.0
 10
104.6754029748101
 20
-31.69123889774168
 10
104.8755964628101
 20
-31.81528343374167
 10
105.0939106628101
 20
-31.92916530574168
 10
105.3270258900101
 20
-32.02997402414168
 10
105.5532206740101
 20
-32.11022279854168
 10
105.7567861380101
 20
-32.16965181294168
 10
105.9402458596101
 20
-32.21380080974167
 10
106.1060973764101
 20
-32.24664293454168
 10
106.2562984612101
 20
-32.27090976174167
 10
106.3923418340101
 20
-32.28854401934167
  0
LINE
  5
4C
330
2
100
AcDbEntity
  8
0
100
AcDbLine
 10
109.5050560228101
 20
-32.41084870734168
 30
0.0
 11
109.3690361796101
 21
-32.40608152174168
 31
0.0
  0
LINE
  5
4D
330
2
100
AcDbEntity
  8
0
100
AcDbLine
 10
109.3198056292101
 20
-32.40435602894168
 30
0.0
 11
109.3691633556101
 21
-32.40608600974168
 31
0.0
  0
LINE
  5
4E
330
2
100
AcDbEntity
  8
0
100
AcDbLine
 10
108.9300831412101
 20
-32.39066182574168
 30
0.0
 11
109.0275570116101
 21
-32.39408991534169
 31
0.0
  0
LINE
  5
4F
330
2
100
AcDbEntity
  8
0
100
AcDbLine
 10
109.0274438276101
 20
-32.39408590894168
 30
0.0
 11
109.1321382324101
 21
-32.39776563214168
 31
0.0
  0
LINE
  5
50
330
2
100
AcDbEntity
  8
0
100
AcDbLine
 10
107.5917712324101
 20
-32.34383651694168
 30
0.0
 11
108.5441287092101
 21
-32.37708906254168
 31
0.0
  0
LINE
  5
51
330
2
100
AcDbEntity
  8
0
100
AcDbLine
 10
108.0573222356101
 20
-32.36007283534169
 30
0.0
 11
108.4385216340101
 21
-32.37338309454168
 31
0.0
  0
LINE
  5
52
330
2
100
AcDbEntity
  8
0
100
AcDbLine
 10
107.7232912580101
 20
-32.34841215054168
 30
0.0
 11
107.7980115700101
 21
-32.35101886894168
 31
0.0
  0
LINE
  5
53
330
2
100
AcDbEntity
  8
0
100
AcDbLine
 10
107.7978841364101
 20
-32.35101443534169
 30
0.0
 11
107.9639291284101
 21
-32.35681415694168
 31
0.0
  0
LINE
  5
54
330
2
100
AcDbEntity
  8
0
100
AcDbLine
 10
107.5242284692101
 20
-32.34149152974168
 30
0.0
 11
107.5870664148101
 21
-32.34367264494168
 31
0.0
  0
LINE
  5
55
330
2
100
AcDbEntity
  8
0
100
AcDbLine
 10
107.5869597172101
 20
-32.34366895214168
 30
0.0
 11
107.5917712324101
 21
-32.34383651694168
 31
0.0
  0
LINE
  5
56
330
2
100
AcDbEntity
  8
0
100
AcDbLine
 10
108.6724563348101
 20
-32.38159790094168
 30
0.0
 11
108.5955187332101
 21
-32.37889328334169
 31
0.0
  0
LINE
  5
57
330
2
100
AcDbEntity
  8
0
100
AcDbLine
 10
108.5188519572101
 20
-32.37620074574168
 30
0.0
 11
108.4384243972101
 21
-32.37337966574168
 31
0.0
  0
LINE
  5
58
330
2
100
AcDbEntity
  8
0
100
AcDbLine
 10
108.5440832900101
 20
-32.37708748974168
 30
0.0
 11
108.5187425940101
 21
-32.37619688494168
 31
0.0
  0
LWPOLYLINE
  5
59
330
2
100
AcDbEntity
  8
0
100
AcDbPolyline
 90
        4
 70
     0
 43
0.0
 10
107.5243020740101
 20
-32.34149407214168
 10
107.4664065540101
 20
-32.33948672334168
 10
107.4151110564101
 20
-32.33770963694168
 10
107.3691228260101
 20
-32.33611728974167
  0
LINE
  5
5A
330
2
100
AcDbEntity
  8
0
100
AcDbLine
 10
108.5440832900101
 20
-32.37708748974168
 30
0.0
 11
109.7619610948101
 21
-32.41983604334169
 31
0.0
  0
LINE
  5
5B
330
2
100
AcDbEntity
  8
0
100
AcDbLine
 10
106.9219284804101
 20
-32.32063735854168
 30
0.0
 11
107.1191278164101
 21
-32.32746625454168
 31
0.0
  0
LINE
  5
5C
330
2
100
AcDbEntity
  8
0
100
AcDbLine
 10
106.9219284804101
 20
-32.32063735854168
 30
0.0
 11
106.9187969108101
 21
-32.32052858734168
 31
0.0
  0
LINE
  5
5D
330
2
100
AcDbEntity
  8
0
100
AcDbLine
 10
108.6799516436101
 20
-32.38022649134169
 30
0.0
 11
107.0780421780101
 21
-32.32566922094168
 31
0.0
  0
LINE
  5
5E
330
2
100
AcDbEntity
  8
0
100
AcDbLine
 10
107.1188126756101
 20
-32.32745535534168
 30
0.0
 11
107.5920437844101
 21
-32.34384597294168
 31
0.0
  0
LWPOLYLINE
  5
5F
330
2
100
AcDbEntity
  8
0
100
AcDbPolyline
 90
       27
 70
     0
 43
0.0
 10
122.6764749876101
 20
-32.90014930094168
 10
122.6648436340101
 20
-32.89299920814168
 10
122.6529961492101
 20
-32.88605839214167
 10
122.6409423508101
 20
-32.87933148494168
 10
122.6286895828101
 20
-32.87282150094168
 10
122.6162515524101
 20
-32.86653452494167
 10
122.6036536116101
 20
-32.86048140654168
 10
122.5909138052101
 20
-32.85466799854168
 10
122.5780395332101
 20
-32.84909471694168
 10
122.5650375076101
 20
-32.84376176014168
 10
122.5519138788101
 20
-32.83866920494168
 10
122.5386743188101
 20
-32.83381708654168
 10
122.5253240132101
 20
-32.82920540974168
 10
122.5118676836101
 20
-32.82483419214168
 10
122.4983095956101
 20
-32.82070348494168
 10
122.4846535844101
 20
-32.81681341294167
 10
122.4709030708101
 20
-32.81316418574167
 10
122.4570610884101
 20
-32.80975613774168
 10
122.4431303012101
 20
-32.80658974254168
 10
122.4291130340101
 20
-32.80366563374168
 10
122.4150112948101
 20
-32.80098463374168
 10
122.4008268084101
 20
-32.79854776334168
 10
122.3865610372101
 20
-32.79635626574167
 10
122.3722152212101
 20
-32.79441162094168
 10
122.3577903908101
 20
-32.79271555534168
 10
122.3432874996101
 20
-32.79127007054167
 10
122.3287071092101
 20
-32.79007741134167
  0
LWPOLYLINE
  5
60
330
2
100
AcDbEntity
  8
0
100
AcDbPolyline
 90
       33
 70
     0
 43
0.0
 10
121.7359629572101
 20
-33.90935003534168
 10
121.8603184644101
 20
-33.92205005934167
 10
122.0046835988101
 20
-33.93670982094167
 10
122.1439619668101
 20
-33.95064664334167
 10
122.2868704196101
 20
-33.96468223374167
 10
122.4402952612101
 20
-33.97941145454167
 10
122.6089710372101
 20
-33.99514643854168
 10
122.7922637604101
 20
-34.01164695694168
 10
122.9887949316101
 20
-34.02863951534168
 10
123.1962200164101
 20
-34.04582244814168
 10
123.4144712948101
 20
-34.06306521934168
 10
123.6449346932101
 20
-34.08026767694168
 10
123.8885674036101
 20
-34.09723521454167
 10
124.1462589988101
 20
-34.11371203374168
 10
124.4177241364101
 20
-34.12943688334168
 10
124.6977225108101
 20
-34.14399363214168
 10
124.9762921988101
 20
-34.15688252814168
 10
125.2431483476101
 20
-34.16780558414168
 10
125.4928349156101
 20
-34.17682135694168
 10
125.7281088340101
 20
-34.18428809134168
 10
125.9525326116101
 20
-34.19050216334167
 10
126.1693660404101
 20
-34.19566853134168
 10
126.3793396436101
 20
-34.19987260334168
 10
126.5820761428101
 20
-34.20318089614168
 10
126.7774144532101
 20
-34.20571316654168
 10
126.9660390004101
 20
-34.20760029774168
 10
127.1484100004101
 20
-34.20896563694167
 10
127.3250959124101
 20
-34.20992738734168
 10
127.4966916004101
 20
-34.21058088014167
 10
127.6637494436101
 20
-34.21100169454168
 10
127.8267787908101
 20
-34.21124978414168
 10
127.9862673844101
 20
-34.21137274734167
 10
128.1426619588101
 20
-34.21140774254168
  0
LINE
  5
61
330
2
100
AcDbEntity
  8
0
100
AcDbLine
 10
125.1587897652101
 20
-31.66826663214168
 30
0.0
 11
121.7695076692101
 21
-31.89523687374169
 31
0.0
  0
LINE
  5
62
330
2
100
AcDbEntity
  8
0
  6
HIDDEN
100
AcDbLine
 10
113.3737251140101
 20
-40.32323679534168
 30
0.0
 11
113.3737251140101
 21
-34.02699183534169
 31
0.0
  0
LINE
  5
63
330
2
100
AcDbEntity
  8
0
  6
HIDDEN
100
AcDbLine
 10
115.7813008820101
 20
-40.32323679534168
 30
0.0
 11
115.7813008820101
 21
-33.60695327374168
 31
0.0
  0
LINE
  5
64
330
2
100
AcDbEntity
  8
0
100
AcDbLine
 10
111.0391353796101
 20
-38.09055326574169
 30
0.0
 11
110.9036985348101
 21
-39.63860349454168
 31
0.0
  0
ARC
  5
65
330
2
100
AcDbEntity
  8
0
100
AcDbCircle
 10
110.1565525012101
 20
-39.57323679534168
 30
0.0
 40
0.75
100
AcDbArc
 50
270.0000988327
 51
355.0000082883
  0
LINE
  5
66
330
2
100
AcDbEntity
  8
0
100
AcDbLine
 10
113.3737251140101
 20
-37.74823679534168
 30
0.0
 11
111.4127083812101
 21
-37.74823679534168
 31
0.0
  0
ARC
  5
67
330
2
100
AcDbEntity
  8
0
100
AcDbCircle
 10
111.4127083812101
 20
-38.12323679534168
 30
0.0
 40
0.375
100
AcDbArc
 50
90.0
 51
174.9999807867
  0
LINE
  5
68
330
2
100
AcDbEntity
  8
0
100
AcDbLine
 10
115.6831082948101
 20
-32.61192066414168
 30
0.0
 11
116.1983415876101
 21
-32.62715190894168
 31
0.0
  0
LINE
  5
69
330
2
100
AcDbEntity
  8
0
100
AcDbLine
 10
115.9012561396101
 20
-32.62981144974169
 30
0.0
 11
118.6790914036101
 21
-32.22776249454168
 31
0.0
  0
LINE
  5
6A
330
2
100
AcDbEntity
  8
0
100
AcDbLine
 10
113.3737251140101
 20
-34.02699183534169
 30
0.0
 11
113.3737251140101
 21
-33.58760577934168
 31
0.0
  0
LINE
  5
6B
330
2
100
AcDbEntity
  8
0
100
AcDbLine
 10
112.8729228180101
 20
-32.52477994254168
 30
0.0
 11
113.4646263972101
 21
-32.54371712654168
 31
0.0
  0
LINE
  5
6C
330
2
100
AcDbEntity
  8
0
100
AcDbLine
 10
112.4748002324101
 20
-32.51184615694168
 30
0.0
 11
112.8729228180101
 21
-32.52477994254168
 31
0.0
  0
LINE
  5
6D
330
2
100
AcDbEntity
  8
0
100
AcDbLine
 10
112.3078734756101
 20
-32.50637734574169
 30
0.0
 11
112.8734009828101
 21
-32.52479540014168
 31
0.0
  0
LINE
  5
6E
330
2
100
AcDbEntity
  8
0
100
AcDbLine
 10
111.0413844660101
 20
-32.46400388814169
 30
0.0
 11
111.1813958676101
 21
-32.46876097934169
 31
0.0
  0
LINE
  5
6F
330
2
100
AcDbEntity
  8
0
100
AcDbLine
 10
111.4630724388101
 20
-32.47827872654168
 30
0.0
 11
111.6049121668101
 21
-32.48304399694168
 31
0.0
  0
LINE
  5
70
330
2
100
AcDbEntity
  8
0
100
AcDbLine
 10
111.2365501556101
 20
-32.47063141774168
 30
0.0
 11
111.7636810868101
 21
-32.48835655054168
 31
0.0
  0
LINE
  5
71
330
2
100
AcDbEntity
  8
0
100
AcDbLine
 10
110.7274972324101
 20
-32.45328009934169
 30
0.0
 11
111.2371176708101
 21
-32.47065066734168
 31
0.0
  0
LINE
  5
72
330
2
100
AcDbEntity
  8
0
100
AcDbLine
 10
111.7631347268101
 20
-32.48833828654168
 30
0.0
 11
112.3083827876101
 21
-32.50639409934168
 31
0.0
  0
LINE
  5
73
330
2
100
AcDbEntity
  8
0
100
AcDbLine
 10
109.7862560676101
 20
-32.42068295214169
 30
0.0
 11
109.9255222084101
 21
-32.42554044494168
 31
0.0
  0
LINE
  5
74
330
2
100
AcDbEntity
  8
0
100
AcDbLine
 10
110.2348187860101
 20
-32.43629132174168
 30
0.0
 11
110.7280535716101
 21
-32.45329921134168
 31
0.0
  0
LINE
  5
75
330
2
100
AcDbEntity
  8
0
100
AcDbLine
 10
115.9012571172101
 20
-32.62981138734168
 30
0.0
 11
115.8743180084101
 21
-32.63418802734168
 31
0.0
  0
LINE
  5
76
330
2
100
AcDbEntity
  8
0
100
AcDbLine
 10
114.0878607268101
 20
-32.56331120334168
 30
0.0
 11
114.4426249076101
 21
-32.57431116494168
 31
0.0
  0
LINE
  5
77
330
2
100
AcDbEntity
  8
0
100
AcDbLine
 10
114.7519923780101
 20
-32.58381446734169
 30
0.0
 11
115.2009283252101
 21
-32.59745886254168
 31
0.0
  0
LINE
  5
78
330
2
100
AcDbEntity
  8
0
100
AcDbLine
 10
114.1400178004101
 20
-32.56493527534169
 30
0.0
 11
114.7521863588101
 21
-32.58382040494168
 31
0.0
  0
LINE
  5
79
330
2
100
AcDbEntity
  8
0
100
AcDbLine
 10
114.1678478580101
 20
-32.56575471534169
 30
0.0
 11
113.8639015044101
 21
-32.55609545614168
 31
0.0
  0
LINE
  5
7A
330
2
100
AcDbEntity
  8
0
100
AcDbLine
 10
115.2007085572101
 20
-32.59745221614169
 30
0.0
 11
115.6833540020101
 21
-32.61192799854168
 31
0.0
  0
LINE
  5
7B
330
2
100
AcDbEntity
  8
0
100
AcDbLine
 10
113.5736289204101
 20
-32.54664180974168
 30
0.0
 11
113.8067043316101
 21
-32.55449333134169
 31
0.0
  0
LINE
  5
7C
330
2
100
AcDbEntity
  8
0
100
AcDbLine
 10
113.8639015044101
 20
-32.55609545614168
 30
0.0
 11
113.5986596324101
 21
-32.54747009454169
 31
0.0
  0
LINE
  5
7D
330
2
100
AcDbEntity
  8
0
100
AcDbLine
 10
113.9493809988101
 20
-32.55898750894168
 30
0.0
 11
113.7646054644101
 21
-32.55319189134168
 31
0.0
  0
LINE
  5
7E
330
2
100
AcDbEntity
  8
0
100
AcDbLine
 10
113.4641700676101
 20
-32.54370263854168
 30
0.0
 11
114.0882994836101
 21
-32.56332488014168
 31
0.0
  0
LINE
  5
7F
330
2
100
AcDbEntity
  8
0
100
AcDbLine
 10
113.3737251140101
 20
-33.58760577934168
 30
0.0
 11
113.3737251140101
 21
-33.07571306254168
 31
0.0
  0
LWPOLYLINE
  5
80
330
2
100
AcDbEntity
  8
0
100
AcDbPolyline
 90
        3
 70
     0
 43
0.0
 10
113.5728722484101
 20
-33.04176996654168
 10
113.4911004484101
 20
-33.05537504334167
 10
113.4274708692101
 20
-33.06627619374168
  0
LINE
  5
81
330
2
100
AcDbEntity
  8
0
100
AcDbLine
 10
113.3737251156101
 20
-33.07571359374168
 30
0.0
 11
113.4301814468101
 21
-33.06581181134168
 31
0.0
  0
LWPOLYLINE
  5
82
330
2
100
AcDbEntity
  8
0
100
AcDbPolyline
 90
        4
 70
     0
 43
0.0
 10
115.8743181732101
 20
-32.63418905614168
 10
115.0769959732101
 20
-32.76781027534168
 10
114.3188393892101
 20
-32.90245063374168
 10
113.6015772628101
 20
-33.03667818094167
  0
LWPOLYLINE
  5
83
330
2
100
AcDbEntity
  8
0
100
AcDbPolyline
 90
       26
 70
     0
 43
0.0
 10
121.0235258100101
 20
-33.39449398574168
 10
121.0327030180101
 20
-33.45232485134168
 10
121.0512856996101
 20
-33.51694784654167
 10
121.0771962244101
 20
-33.57676265934168
 10
121.1088394372101
 20
-33.63049076974167
 10
121.1443084644101
 20
-33.67727746894168
 10
121.1816689636101
 20
-33.71687268974167
 10
121.2191959108101
 20
-33.74956647054168
 10
121.2555875652101
 20
-33.77607656654168
 10
121.2901075572101
 20
-33.79739007374168
 10
121.3224870436101
 20
-33.81452650254168
 10
121.3527578004101
 20
-33.82839295214167
 10
121.3811361076101
 20
-33.83974305774168
 10
121.4079540772101
 20
-33.84918271534167
 10
121.4336505540101
 20
-33.85719971374168
 10
121.4586577956101
 20
-33.86415778574168
 10
121.4833534372101
 20
-33.87031860814168
 10
121.5080722228101
 20
-33.87587310254168
 10
121.5331043460101
 20
-33.88095974734167
 10
121.5587378164101
 20
-33.88568519534167
 10
121.5852866420101
 20
-33.89013561294167
 10
121.6130539556101
 20
-33.89437465134168
 10
121.6423187060101
 20
-33.89844708174168
 10
121.6733800708101
 20
-33.90238880814168
 10
121.7065519636101
 20
-33.90622639694167
 10
121.7360731444101
 20
-33.90936128814168
  0
LINE
  5
84
330
2
100
AcDbEntity
  8
0
100
AcDbLine
 10
121.4904354388101
 20
-33.96836144654168
 30
0.0
 11
121.4903290660101
 21
-33.96856489614168
 31
0.0
  0
LINE
  5
85
330
2
100
AcDbEntity
  8
0
100
AcDbLine
 10
121.4964662468101
 20
-33.84374165614168
 30
0.0
 11
121.4965475060101
 21
-33.84353706734168
 31
0.0
  0
LINE
  5
86
330
2
100
AcDbEntity
  8
0
100
AcDbLine
 10
119.4092563748101
 20
-32.71659679534169
 30
0.0
 11
119.1078761684101
 21
-32.70863364974168
 31
0.0
  0
LINE
  5
87
330
2
100
AcDbEntity
  8
0
100
AcDbLine
 10
121.7696163188101
 20
-31.89522959854169
 30
0.0
 11
118.6790166100101
 21
-32.22777054254168
 31
0.0
  0
LINE
  5
88
330
2
100
AcDbEntity
  8
0
100
AcDbLine
 10
119.1083152596101
 20
-32.70864537134169
 30
0.0
 11
118.8059422196101
 21
-32.70055964654168
 31
0.0
  0
LINE
  5
89
330
2
100
AcDbEntity
  8
0
100
AcDbLine
 10
117.9020418196101
 20
-32.67583913614169
 30
0.0
 11
117.6047054420101
 21
-32.66753400494168
 31
0.0
  0
LINE
  5
8A
330
2
100
AcDbEntity
  8
0
100
AcDbLine
 10
118.5040957140101
 20
-32.69239468814169
 30
0.0
 11
118.1711272324101
 21
-32.68327824654169
 31
0.0
  0
LINE
  5
8B
330
2
100
AcDbEntity
  8
0
100
AcDbLine
 10
117.9016616580101
 20
-32.67582852814168
 30
0.0
 11
118.2017877220101
 21
-32.68412589934168
 31
0.0
  0
LINE
  5
8C
330
2
100
AcDbEntity
  8
0
100
AcDbLine
 10
117.6050456660101
 20
-32.66754359534168
 30
0.0
 11
117.3119354884101
 21
-32.65927535054168
 31
0.0
  0
LINE
  5
8D
330
2
100
AcDbEntity
  8
0
100
AcDbLine
 10
118.8063791300101
 20
-32.70057144654169
 30
0.0
 11
118.5036676116101
 21
-32.69238299374169
 31
0.0
  0
LINE
  5
8E
330
2
100
AcDbEntity
  8
0
100
AcDbLine
 10
116.1980665700101
 20
-32.62714381614169
 30
0.0
 11
116.7422993748101
 21
-32.64298141614168
 31
0.0
  0
LINE
  5
8F
330
2
100
AcDbEntity
  8
0
100
AcDbLine
 10
117.0244405892101
 20
-32.65108859214169
 30
0.0
 11
116.7420097460101
 21
-32.64297302734169
 31
0.0
  0
LINE
  5
90
330
2
100
AcDbEntity
  8
0
100
AcDbLine
 10
117.3122606420101
 20
-32.65928460334169
 30
0.0
 11
117.0241298452101
 21
-32.65107966894168
 31
0.0
  0
LINE
  5
91
330
2
100
AcDbEntity
  8
0
100
AcDbLine
 10
120.2973766516101
 20
-32.73948073294168
 30
0.0
 11
120.0028159892101
 21
-32.73198825934168
 31
0.0
  0
LINE
  5
92
330
2
100
AcDbEntity
  8
0
100
AcDbLine
 10
119.7080606404101
 20
-32.72439399694168
 30
0.0
 11
119.4087809700101
 21
-32.71658426254168
 31
0.0
  0
LINE
  5
93
330
2
100
AcDbEntity
  8
0
100
AcDbLine
 10
120.0035102244101
 20
-32.73200608014168
 30
0.0
 11
119.7075170564101
 21
-32.72437985294168
 31
0.0
  0
LINE
  5
94
330
2
100
AcDbEntity
  8
0
100
AcDbLine
 10
122.3865986308101
 20
-32.79636272334168
 30
0.0
 11
122.4008663204101
 21
-32.79855565774168
 31
0.0
  0
LINE
  5
95
330
2
100
AcDbEntity
  8
0
100
AcDbLine
 10
122.3578218324101
 20
-32.79271938254168
 30
0.0
 11
122.3722501476101
 21
-32.79441671534168
 31
0.0
  0
LINE
  5
96
330
2
100
AcDbEntity
  8
0
100
AcDbLine
 10
122.2993164068101
 20
-32.78846108174168
 30
0.0
 11
122.2845144596101
 21
-32.78804352974168
 31
0.0
  0
LINE
  5
97
330
2
100
AcDbEntity
  8
0
100
AcDbLine
 10
121.6900599172101
 20
-32.78655248974168
 30
0.0
 11
121.1191991636101
 21
-32.78491958894168
 31
0.0
  0
LINE
  5
98
330
2
100
AcDbEntity
  8
0
100
AcDbLine
 10
121.0229024340101
 20
-33.38786484494169
 30
0.0
 11
121.0228984036101
 21
-33.38781775534168
 31
0.0
  0
LINE
  5
99
330
2
100
AcDbEntity
  8
0
100
AcDbLine
 10
121.0098827892101
 20
-33.23904941294169
 30
0.0
 11
121.0230650980101
 21
-33.38968282254168
 31
0.0
  0
LINE
  5
9A
330
2
100
AcDbEntity
  8
0
100
AcDbLine
 10
120.8983697732101
 20
-33.39866418574168
 30
0.0
 11
120.8985823252101
 21
-33.40104237614168
 31
0.0
  0
LINE
  5
9B
330
2
100
AcDbEntity
  8
0
100
AcDbLine
 10
121.0230720372101
 20
-33.38976280014168
 30
0.0
 11
121.0235166660101
 21
-33.39440299694168
 31
0.0
  0
LINE
  5
9C
330
2
100
AcDbEntity
  8
0
100
AcDbLine
 10
121.0229176308101
 20
-33.38802641614168
 30
0.0
 11
121.0229097172101
 21
-33.38794431534168
 31
0.0
  0
LINE
  5
9D
330
2
100
AcDbEntity
  8
0
100
AcDbLine
 10
120.9473345668101
 20
-32.75568786414168
 30
0.0
 11
121.3395443988101
 21
-32.76529091374168
 31
0.0
  0
LINE
  5
9E
330
2
100
AcDbEntity
  8
0
100
AcDbLine
 10
121.1821260244101
 20
-32.78511059054168
 30
0.0
 11
120.7572937364101
 21
-32.78375145454168
 31
0.0
  0
LWPOLYLINE
  5
9F
330
2
100
AcDbEntity
  8
0
100
AcDbPolyline
 90
       19
 70
     0
 43
0.0
 10
120.5295189300101
 20
-32.78294177774167
 10
120.5559543764101
 20
-32.78458191694168
 10
120.5855699764101
 20
-32.78810132494168
 10
120.6165424308101
 20
-32.79372437614168
 10
120.6485557636101
 20
-32.80169697934168
 10
120.6813943236101
 20
-32.81227326414168
 10
120.7147629236101
 20
-32.82568066254167
 10
120.7483309844101
 20
-32.84212044334168
 10
120.7817352884101
 20
-32.86176252334168
 10
120.8145796420101
 20
-32.88473818574168
 10
120.8464380500101
 20
-32.91113342254168
 10
120.8768635332101
 20
-32.94098706574168
 10
120.9054494404101
 20
-32.97436002734168
 10
120.9317897780101
 20
-33.01134072814168
 10
120.9554111844101
 20
-33.05198420174168
 10
120.9757680644101
 20
-33.09629384814167
 10
120.9922419300101
 20
-33.14420193454167
 10
121.0041441220101
 20
-33.19554722894167
 10
121.0098827892101
 20
-33.23904941294168
  0
LINE
  5
A0
330
2
100
AcDbEntity
  8
0
100
AcDbLine
 10
120.6037995956101
 20
-32.74717343374168
 30
0.0
 11
120.9478964500101
 21
-32.75570166734169
 31
0.0
  0
LWPOLYLINE
  5
A1
330
2
100
AcDbEntity
  8
0
100
AcDbPolyline
 90
        5
 70
     0
 43
0.0
 10
120.7996995588101
 20
-32.78389603374167
 10
120.5976841220101
 20
-32.78317744494168
 10
120.5767324708101
 20
-32.78309846094168
 10
120.5595094404101
 20
-32.78303302414168
 10
120.5287682516101
 20
-32.78291570094168
  0
LWPOLYLINE
  5
A2
330
2
100
AcDbEntity
  8
0
100
AcDbPolyline
 90
        5
 70
     0
 43
0.0
 10
121.3387424900101
 20
-32.76527141614168
 10
122.2993252740101
 20
-32.78846141774168
 10
122.3140665732101
 20
-32.78914108974167
 10
122.3287292052101
 20
-32.79007912654167
 10
122.3433146292101
 20
-32.79127275694168
  0
LINE
  5
A3
330
2
100
AcDbEntity
  8
0
100
AcDbLine
 10
122.2845144788101
 20
-32.78804352974168
 30
0.0
 11
121.6111967284101
 21
-32.78633964974168
 31
0.0
  0
ARC
  5
A4
330
2
100
AcDbEntity
  8
0
100
AcDbCircle
 10
120.5117855044101
 20
-33.28262720494169
 30
0.0
 40
0.5
100
AcDbArc
 50
5.0
 51
87.9674711408
  0
LINE
  5
A5
330
2
100
AcDbEntity
  8
0
100
AcDbLine
 10
120.6039460532101
 20
-32.74717712974168
 30
0.0
 11
120.2967396324101
 21
-32.73946459054168
 31
0.0
  0
LINE
  5
A6
330
2
100
AcDbEntity
  8
CENTER
 48
4.0
100
AcDbLine
 10
128.8438008572101
 20
-37.93623267513399
 30
0.0
 11
128.8438008572101
 21
-31.46024091554938
 31
0.0
  0
LINE
  5
A9
330
2
100
AcDbEntity
  8
0
100
AcDbLine
 10
128.8438026756101
 20
-31.58387563534168
 30
0.0
 11
125.1587576180101
 21
-31.66826736814168
 31
0.0
  0
LINE
  5
AA
330
2
100
AcDbEntity
  8
0
100
AcDbLine
 10
128.8437965476101
 20
-34.19961423694168
 30
0.0
 11
128.3978537316101
 21
-34.19978585454169
 31
0.0
  0
LINE
  5
AB
330
2
100
AcDbEntity
  8
0
100
AcDbLine
 10
128.1426619588101
 20
-34.21140774254169
 30
0.0
 11
128.8438008820101
 21
-34.21120852174169
 31
0.0
  0
LWPOLYLINE
  5
AC
330
2
100
AcDbEntity
  8
0
100
AcDbPolyline
 90
       17
 70
     0
 43
0.0
 10
127.1789388644101
 20
-34.23098775374167
 10
127.2290653956101
 20
-34.23184036174168
 10
127.3049662468101
 20
-34.23207929134167
 10
127.3844025076101
 20
-34.23125838414168
 10
127.4672913796101
 20
-34.22951209454168
 10
127.5538631732101
 20
-34.22696470734168
 10
127.6443772724101
 20
-34.22373707854168
 10
127.7393399236101
 20
-34.21994227214168
 10
127.8392042020101
 20
-34.21570162894168
 10
127.9445056868101
 20
-34.21114728334168
 10
128.0557428580101
 20
-34.20643427374168
 10
128.1734327572101
 20
-34.20174484174168
 10
128.2976178740101
 20
-34.19731090094168
 10
128.4278383460101
 20
-34.19340285454168
 10
128.5633396356101
 20
-34.19030930094168
 10
128.7027729540101
 20
-34.18830633294168
 10
128.8437901588101
 20
-34.18760920014168
  0
LINE
  5
AD
330
2
100
AcDbEntity
  8
0
100
AcDbLine
 10
130.1141018500101
 20
-34.69823679534168
 30
0.0
 11
127.5734998644101
 21
-34.69823679534168
 31
0.0
  0
LWPOLYLINE
  5
AE
330
2
100
AcDbEntity
  8
0
100
AcDbPolyline
 90
       21
 70
     0
 43
0.0
 10
128.8438008820101
 20
-34.12339853294168
 10
128.6962542596101
 20
-34.12315641774168
 10
128.5366872340101
 20
-34.12236337934167
 10
128.3668945252101
 20
-34.12087932814167
 10
128.1889410628101
 20
-34.11855864494167
 10
128.0002867636101
 20
-34.11517370094168
 10
127.7998048884101
 20
-34.11046150734168
 10
127.5848310532101
 20
-34.10405402734168
 10
127.3474025204101
 20
-34.09529224654168
 10
127.0759290452101
 20
-34.08322845294168
 10
126.7805583588101
 20
-34.06837709934168
 10
126.4970361700101
 20
-34.05359891214168
 10
126.2404497572101
 20
-34.04052601934167
 10
126.0046924148101
 20
-34.02906534254167
 10
125.7811317876101
 20
-34.01879800014167
 10
125.5519702116101
 20
-34.00882245774168
 10
125.3115001044101
 20
-33.99886686414168
 10
125.0707801492101
 20
-33.98943048494167
 10
124.8475221140101
 20
-33.98122017294168
 10
124.6443448628101
 20
-33.97431975854168
 10
124.4363464596101
 20
-33.96790064014167
  0
LWPOLYLINE
  5
AF
330
2
100
AcDbEntity
  8
0
100
AcDbPolyline
 90
       13
 70
     0
 43
0.0
 10
123.3800864804101
 20
-33.95708294734168
 10
123.3295196772101
 20
-33.95087423214167
 10
123.2798777396101
 20
-33.93856296014168
 10
123.2317751268101
 20
-33.92030156814168
 10
123.1858072468101
 20
-33.89631613294167
 10
123.1425430740101
 20
-33.86690357134168
 10
123.1025181284101
 20
-33.83242796174168
 10
123.0662278340101
 20
-33.79331604654167
 10
123.0341213956101
 20
-33.75005194574168
 10
123.0065962452101
 20
-33.70317116974168
 10
122.9839931140101
 20
-33.65325399374167
 10
122.9665918276101
 20
-33.60091827854168
 10
122.9546077828101
 20
-33.54681156814168
  0
LINE
  5
B0
330
2
100
AcDbEntity
  8
0
100
AcDbLine
 10
125.6470667364101
 20
-34.16292939214168
 30
0.0
 11
125.5647734596101
 21
-34.15989424014169
 31
0.0
  0
LINE
  5
B1
330
2
100
AcDbEntity
  8
0
100
AcDbLine
 10
125.4092042260101
 20
-34.15679200014168
 30
0.0
 11
125.6192383284101
 21
-34.16810024494168
 31
0.0
  0
LINE
  5
B2
330
2
100
AcDbEntity
  8
0
100
AcDbLine
 10
125.4137108020101
 20
-34.15386010894168
 30
0.0
 11
125.3452796084101
 21
-34.15092252494168
 31
0.0
  0
LINE
  5
B3
330
2
100
AcDbEntity
  8
0
100
AcDbLine
 10
125.4869093716101
 20
-34.15686017614168
 30
0.0
 11
125.4137108020101
 21
-34.15386010894168
 31
0.0
  0
LINE
  5
B4
330
2
100
AcDbEntity
  8
0
100
AcDbLine
 10
125.5647734596101
 20
-34.15989424014169
 30
0.0
 11
125.4869093716101
 21
-34.15686017614168
 31
0.0
  0
LINE
  5
B5
330
2
100
AcDbEntity
  8
0
100
AcDbLine
 10
124.4363464596101
 20
-33.96790064014168
 30
0.0
 11
124.3906259220101
 21
-33.96670500494169
 31
0.0
  0
LINE
  5
B6
330
2
100
AcDbEntity
  8
0
100
AcDbLine
 10
124.3906259220101
 20
-33.96670500494169
 30
0.0
 11
124.3440852260101
 21
-33.96563430734168
 31
0.0
  0
LINE
  5
B7
330
2
100
AcDbEntity
  8
0
100
AcDbLine
 10
124.3440852260101
 20
-33.96563430734168
 30
0.0
 11
124.2745581268101
 21
-33.96426355374169
 31
0.0
  0
LINE
  5
B8
330
2
100
AcDbEntity
  8
0
100
AcDbLine
 10
124.2745581268101
 20
-33.96426355374169
 30
0.0
 11
124.1846975268101
 21
-33.96281185934168
 31
0.0
  0
LINE
  5
B9
330
2
100
AcDbEntity
  8
0
100
AcDbLine
 10
124.1846975268101
 20
-33.96281185934168
 30
0.0
 11
124.0557287460101
 21
-33.96117401134169
 31
0.0
  0
LINE
  5
BA
330
2
100
AcDbEntity
  8
0
100
AcDbLine
 10
125.0496613956101
 20
-34.13671750574168
 30
0.0
 11
125.1763836564101
 21
-34.14384849454168
 31
0.0
  0
LINE
  5
BB
330
2
100
AcDbEntity
  8
0
100
AcDbLine
 10
125.0738450340101
 20
-34.13793682894168
 30
0.0
 11
125.0240793108101
 21
-34.13529178734168
 31
0.0
  0
LINE
  5
BC
330
2
100
AcDbEntity
  8
0
100
AcDbLine
 10
125.1410861876101
 20
-34.14136060974168
 30
0.0
 11
125.0738450340101
 21
-34.13793682894168
 31
0.0
  0
LINE
  5
BD
330
2
100
AcDbEntity
  8
0
100
AcDbLine
 10
125.2221337428101
 20
-34.14530217454168
 30
0.0
 11
125.1410861876101
 21
-34.14136060974168
 31
0.0
  0
LINE
  5
BE
330
2
100
AcDbEntity
  8
0
100
AcDbLine
 10
125.2814837828101
 20
-34.14806538734168
 30
0.0
 11
125.2221337428101
 21
-34.14530217454168
 31
0.0
  0
LINE
  5
BF
330
2
100
AcDbEntity
  8
0
100
AcDbLine
 10
124.0557287460101
 20
-33.96117401134169
 30
0.0
 11
123.7012333732101
 21
-33.95796009774168
 31
0.0
  0
LINE
  5
C0
330
2
100
AcDbEntity
  8
0
100
AcDbLine
 10
125.1763836564101
 20
-34.14384849454168
 30
0.0
 11
125.4092042260101
 21
-34.15679200014168
 31
0.0
  0
LINE
  5
C1
330
2
100
AcDbEntity
  8
0
100
AcDbLine
 10
125.3452796084101
 20
-34.15092252494168
 30
0.0
 11
125.2814837828101
 21
-34.14806538734168
 31
0.0
  0
LINE
  5
C2
330
2
100
AcDbEntity
  8
0
100
AcDbLine
 10
123.5611426708101
 20
-33.95697022254168
 30
0.0
 11
123.4686385092101
 21
-33.95661045294168
 31
0.0
  0
LINE
  5
C3
330
2
100
AcDbEntity
  8
0
100
AcDbLine
 10
123.4686385092101
 20
-33.95661045294168
 30
0.0
 11
123.4277769748101
 21
-33.95665873294168
 31
0.0
  0
LINE
  5
C4
330
2
100
AcDbEntity
  8
0
100
AcDbLine
 10
123.4277769748101
 20
-33.95665873294168
 30
0.0
 11
123.4029094116101
 21
-33.95681139374168
 31
0.0
  0
LINE
  5
C5
330
2
100
AcDbEntity
  8
0
100
AcDbLine
 10
123.4029094116101
 20
-33.95681139374168
 30
0.0
 11
123.3800864804101
 21
-33.95708294734169
 31
0.0
  0
LINE
  5
C6
330
2
100
AcDbEntity
  8
0
100
AcDbLine
 10
123.7012333732101
 20
-33.95796009774168
 30
0.0
 11
123.5611426708101
 21
-33.95697022254168
 31
0.0
  0
LWPOLYLINE
  5
C7
330
2
100
AcDbEntity
  8
0
100
AcDbPolyline
 90
       10
 70
     0
 43
0.0
 10
128.3978537316101
 20
-34.19978585454168
 10
128.2483832308101
 20
-34.19977967054168
 10
128.1023232628101
 20
-34.19965388494168
 10
127.9607764980101
 20
-34.19936643534168
 10
127.8247857364101
 20
-34.19888856014168
 10
127.6953221540101
 20
-34.19820646094168
 10
127.5731524996101
 20
-34.19732345454168
 10
127.4584966372101
 20
-34.19625740654167
 10
127.3515312020101
 20
-34.19504327054168
 10
127.2525744148101
 20
-34.19373804174168
  0
ARC
  5
C8
330
2
100
AcDbEntity
  8
0
100
AcDbCircle
 10
127.5723542724101
 20
-34.44823679534168
 30
0.0
 40
0.25
100
AcDbArc
 50
225.0
 51
270.0
  0
LINE
  5
C9
330
2
100
AcDbEntity
  8
0
100
AcDbLine
 10
127.5734998644101
 20
-34.69823679534168
 30
0.0
 11
127.5723558260101
 21
-34.69823679534168
 31
0.0
  0
LINE
  5
CA
330
2
100
AcDbEntity
  8
0
100
AcDbLine
 10
127.0892774340101
 20
-34.22765576814168
 30
0.0
 11
127.1569240596101
 21
-34.23040451054168
 31
0.0
  0
LINE
  5
CB
330
2
100
AcDbEntity
  8
0
100
AcDbLine
 10
127.1625924500101
 20
-34.23055477614168
 30
0.0
 11
127.1652593156101
 21
-34.23063892654168
 31
0.0
  0
LINE
  5
CC
330
2
100
AcDbEntity
  8
0
100
AcDbLine
 10
127.0820973844101
 20
-34.19125258894168
 30
0.0
 11
127.0694902452101
 21
-34.19109232814168
 31
0.0
  0
LINE
  5
CD
330
2
100
AcDbEntity
  8
0
100
AcDbLine
 10
127.0131983876101
 20
-34.19037179374169
 30
0.0
 11
127.0059729732101
 21
-34.19030046254168
 31
0.0
  0
LINE
  5
CE
330
2
100
AcDbEntity
  8
0
100
AcDbLine
 10
127.3955775780101
 20
-34.62501348974169
 30
0.0
 11
127.0409407620101
 21
-34.27037667374168
 31
0.0
  0
LWPOLYLINE
  5
CF
330
2
100
AcDbEntity
  8
0
100
AcDbPolyline
 90
        4
 70
     0
 43
0.0
 10
127.2525744148101
 20
-34.19373804174168
 10
127.0820973844101
 20
-34.19125258894168
 10
127.0131983876101
 20
-34.19037179374168
 10
126.9742386932101
 20
-34.19003869614167
  0
LINE
  5
D0
330
2
100
AcDbEntity
  8
0
100
AcDbLine
 10
126.0057142436101
 20
-34.18763604014168
 30
0.0
 11
126.1091685828101
 21
-34.19252547214169
 31
0.0
  0
LINE
  5
D1
330
2
100
AcDbEntity
  8
0
100
AcDbLine
 10
126.1156765780101
 20
-34.17705323214168
 30
0.0
 11
126.0152726004101
 21
-34.17446249774168
 31
0.0
  0
LINE
  5
D2
330
2
100
AcDbEntity
  8
0
100
AcDbLine
 10
125.7581410628101
 20
-34.17533129934168
 30
0.0
 11
125.9046550148101
 21
-34.18271076654169
 31
0.0
  0
LINE
  5
D3
330
2
100
AcDbEntity
  8
0
100
AcDbLine
 10
125.8238817828101
 20
-34.16887537134168
 30
0.0
 11
125.7335164468101
 21
-34.16593300654168
 31
0.0
  0
LINE
  5
D4
330
2
100
AcDbEntity
  8
0
100
AcDbLine
 10
125.6192383284101
 20
-34.16810024494168
 30
0.0
 11
125.7581410628101
 21
-34.17533129934168
 31
0.0
  0
LINE
  5
D5
330
2
100
AcDbEntity
  8
0
100
AcDbLine
 10
125.7335164468101
 20
-34.16593300654168
 30
0.0
 11
125.6470667364101
 21
-34.16292939214168
 31
0.0
  0
LINE
  5
D6
330
2
100
AcDbEntity
  8
0
100
AcDbLine
 10
125.9046550148101
 20
-34.18271076654169
 30
0.0
 11
126.0057142436101
 21
-34.18763604014168
 31
0.0
  0
LINE
  5
D7
330
2
100
AcDbEntity
  8
0
100
AcDbLine
 10
125.9178992660101
 20
-34.17172777774168
 30
0.0
 11
125.8238817828101
 21
-34.16887537134168
 31
0.0
  0
LINE
  5
D8
330
2
100
AcDbEntity
  8
0
100
AcDbLine
 10
126.0152726004101
 20
-34.17446249774168
 30
0.0
 11
125.9178992660101
 21
-34.17172777774168
 31
0.0
  0
LINE
  5
D9
330
2
100
AcDbEntity
  8
0
100
AcDbLine
 10
126.1091685828101
 20
-34.19252547214169
 30
0.0
 11
126.2149706916101
 21
-34.19735353294168
 31
0.0
  0
LINE
  5
DA
330
2
100
AcDbEntity
  8
0
100
AcDbLine
 10
126.2149706916101
 20
-34.19735353294168
 30
0.0
 11
126.3230820932101
 21
-34.20209301934169
 31
0.0
  0
LINE
  5
DB
330
2
100
AcDbEntity
  8
0
100
AcDbLine
 10
126.3230820932101
 20
-34.20209301934169
 30
0.0
 11
126.4334785668101
 21
-34.20671517134168
 31
0.0
  0
LINE
  5
DC
330
2
100
AcDbEntity
  8
0
100
AcDbLine
 10
126.4334785668101
 20
-34.20671517134168
 30
0.0
 11
126.5461520020101
 21
-34.21118965934168
 31
0.0
  0
LINE
  5
DD
330
2
100
AcDbEntity
  8
0
100
AcDbLine
 10
126.2187775940101
 20
-34.17947588174168
 30
0.0
 11
126.1156765780101
 21
-34.17705323214168
 31
0.0
  0
LINE
  5
DE
330
2
100
AcDbEntity
  8
0
100
AcDbLine
 10
126.3243735540101
 20
-34.18171119854168
 30
0.0
 11
126.2187775940101
 21
-34.17947588174168
 31
0.0
  0
LINE
  5
DF
330
2
100
AcDbEntity
  8
0
100
AcDbLine
 10
126.4322821156101
 20
-34.18373938734168
 30
0.0
 11
126.3243735540101
 21
-34.18171119854168
 31
0.0
  0
LWPOLYLINE
  5
E0
330
2
100
AcDbEntity
  8
0
100
AcDbPolyline
 90
        8
 70
     0
 43
0.0
 10
126.9541871796101
 20
-34.18996443374167
 10
126.9143335972101
 20
-34.19023990574167
 10
126.8865035892101
 20
-34.19128866414168
 10
126.8706817844101
 20
-34.19327642414168
 10
126.8667496340101
 20
-34.19636989614168
 10
126.8746077012101
 20
-34.20071985774168
 10
126.8945625172101
 20
-34.20613718894168
 10
126.9269861124101
 20
-34.21216506094168
  0
LWPOLYLINE
  5
E1
330
2
100
AcDbEntity
  8
0
100
AcDbPolyline
 90
       13
 70
     0
 43
0.0
 10
126.9449844836101
 20
-34.21198324814167
 10
126.9447072644101
 20
-34.21191773294168
 10
126.9455643204101
 20
-34.21214319214168
 10
126.9478593684101
 20
-34.21280035374167
 10
126.9517376532101
 20
-34.21402338574167
 10
126.9573451044101
 20
-34.21598800334168
 10
126.9648221972101
 20
-34.21892514094167
 10
126.9742572132101
 20
-34.22312096814168
 10
126.9856996516101
 20
-34.22894148494167
 10
126.9991063444101
 20
-34.23682943534168
 10
127.0142648516101
 20
-34.24727014574168
 10
127.0308388020101
 20
-34.26082100494168
 10
127.0408440388101
 20
-34.27028015694168
  0
LWPOLYLINE
  5
E2
330
2
100
AcDbEntity
  8
0
100
AcDbPolyline
 90
        4
 70
     0
 43
0.0
 10
126.9269861124101
 20
-34.21216506094168
 10
126.9720068052101
 20
-34.21823574734168
 10
127.0271318612101
 20
-34.22356073454167
 10
127.0892774340101
 20
-34.22765576814168
  0
LWPOLYLINE
  5
E3
330
2
100
AcDbEntity
  8
0
100
AcDbPolyline
 90
       11
 70
     0
 43
0.0
 10
126.5461520020101
 20
-34.21118965934168
 10
126.6033450980101
 20
-34.21336163374167
 10
126.6611123364101
 20
-34.21548460494168
 10
126.7194521780101
 20
-34.21755408174168
 10
126.7783628788101
 20
-34.21956543854168
 10
126.8378417412101
 20
-34.22151391374168
 10
126.8978850964101
 20
-34.22339461134168
 10
126.9584929124101
 20
-34.22520262734168
 10
127.0196844084101
 20
-34.22693347214168
 10
127.0814758484101
 20
-34.22858329934168
 10
127.1788236676101
 20
-34.23098490254167
  0
LWPOLYLINE
  5
E4
330
2
100
AcDbEntity
  8
0
100
AcDbPolyline
 90
       21
 70
     0
 43
0.0
 10
127.1789320980101
 20
-34.23098759534168
 10
127.1652593156101
 20
-34.23063892654168
 10
127.1416981156101
 20
-34.22989548334168
 10
127.1195437588101
 20
-34.22901698894168
 10
127.0987977492101
 20
-34.22801961294168
 10
127.0794507556101
 20
-34.22691966414168
 10
127.0614792884101
 20
-34.22573575534168
 10
127.0448851892101
 20
-34.22448881454168
 10
127.0296545972101
 20
-34.22319882414168
 10
127.0157573348101
 20
-34.22188570414167
 10
127.0031831332101
 20
-34.22057130094168
 10
126.9919148516101
 20
-34.21927653774167
 10
126.9819018404101
 20
-34.21801857134168
 10
126.9731119956101
 20
-34.21681676654167
 10
126.9655245012101
 20
-34.21569157934168
 10
126.9591218484101
 20
-34.21466407374168
 10
126.9538823876101
 20
-34.21375540334167
 10
126.9498012116101
 20
-34.21299100494167
 10
126.9468890292101
 20
-34.21240183854168
 10
126.9451752772101
 20
-34.21202721934168
 10
126.9449844836101
 20
-34.21198324814167
  0
LWPOLYLINE
  5
E5
330
2
100
AcDbEntity
  8
0
100
AcDbPolyline
 90
       10
 70
     0
 43
0.0
 10
126.9748819796101
 20
-34.19004252974168
 10
126.8857679028101
 20
-34.18943475854168
 10
126.8271573412101
 20
-34.18894912494168
 10
126.7690881412101
 20
-34.18839808974168
 10
126.7115815908101
 20
-34.18778156174168
 10
126.6546571460101
 20
-34.18709959214167
 10
126.5982689796101
 20
-34.18635232814168
 10
126.5424041588101
 20
-34.18554167374168
 10
126.4870718932101
 20
-34.18466992494168
 10
126.4322821156101
 20
-34.18373938734168
  0
LWPOLYLINE
  5
E6
330
2
100
AcDbEntity
  8
0
100
AcDbPolyline
 90
        4
 70
     0
 43
0.0
 10
122.9546076404101
 20
-33.54681157134168
 10
122.9317788964101
 20
-33.42173986734167
 10
122.9110603012101
 20
-33.30619277614168
 10
122.8924127476101
 20
-33.20008175694168
  0
LWPOLYLINE
  5
E7
330
2
100
AcDbEntity
  8
0
100
AcDbPolyline
 90
        4
 70
     0
 43
0.0
 10
122.8858461588101
 20
-33.16669570414168
 10
122.8883975668101
 20
-33.17775730094167
 10
122.8905862596101
 20
-33.18888318254168
 10
122.8924128276101
 20
-33.20008175374168
  0
LINE
  5
E8
330
2
100
AcDbEntity
  8
0
100
AcDbLine
 10
122.8858828884101
 20
-33.16675379214168
 30
0.0
 11
122.8829289236101
 21
-33.15568661454168
 31
0.0
  0
LINE
  5
E9
330
2
100
AcDbEntity
  8
0
100
AcDbLine
 10
122.8829794660101
 20
-33.15576366734168
 30
0.0
 11
122.8796404100101
 21
-33.14471745614168
 31
0.0
  0
LINE
  5
EA
330
2
100
AcDbEntity
  8
0
100
AcDbLine
 10
122.8797058228101
 20
-33.14481397774168
 30
0.0
 11
122.8759771268101
 21
-33.13378764974168
 31
0.0
  0
LINE
  5
EB
330
2
100
AcDbEntity
  8
0
100
AcDbLine
 10
122.8760559156101
 20
-33.13389660334169
 30
0.0
 11
122.8719451604101
 21
-33.12292289614168
 31
0.0
  0
LINE
  5
EC
330
2
100
AcDbEntity
  8
0
100
AcDbLine
 10
122.8720313428101
 20
-33.12302757134168
 30
0.0
 11
122.8675511652101
 21
-33.11214278734169
 31
0.0
  0
LINE
  5
ED
330
2
100
AcDbEntity
  8
0
100
AcDbLine
 10
122.8676420436101
 20
-33.11223847694168
 30
0.0
 11
122.8627980164101
 21
-33.10145363534168
 31
0.0
  0
LINE
  5
EE
330
2
100
AcDbEntity
  8
0
100
AcDbLine
 10
122.8628931044101
 20
-33.10154152494169
 30
0.0
 11
122.8576886116101
 21
-33.09086092814168
 31
0.0
  0
LINE
  5
EF
330
2
100
AcDbEntity
  8
0
100
AcDbLine
 10
122.8577869812101
 20
-33.09094105454168
 30
0.0
 11
122.8522262020101
 21
-33.08037021934168
 31
0.0
  0
LINE
  5
F0
330
2
100
AcDbEntity
  8
0
100
AcDbLine
 10
122.8523270884101
 20
-33.08044290094168
 30
0.0
 11
122.8464143428101
 21
-33.06998701614169
 31
0.0
  0
LINE
  5
F1
330
2
100
AcDbEntity
  8
0
100
AcDbLine
 10
122.8465169764101
 20
-33.07005250414168
 30
0.0
 11
122.8402568996101
 21
-33.05971680334168
 31
0.0
  0
LINE
  5
F2
330
2
100
AcDbEntity
  8
0
100
AcDbLine
 10
122.8403605556101
 20
-33.05977536974168
 30
0.0
 11
122.8337580452101
 21
-33.04956503854168
 31
0.0
  0
LINE
  5
F3
330
2
100
AcDbEntity
  8
0
100
AcDbLine
 10
122.8338620228101
 20
-33.04961694894169
 30
0.0
 11
122.8269222484101
 21
-33.03953714734169
 31
0.0
  0
LINE
  5
F4
330
2
100
AcDbEntity
  8
0
100
AcDbLine
 10
122.8270258884101
 20
-33.03958267374168
 30
0.0
 11
122.8197542804101
 21
-33.02963851534169
 31
0.0
  0
LINE
  5
F5
330
2
100
AcDbEntity
  8
0
100
AcDbLine
 10
122.8198569508101
 20
-33.02967793614168
 30
0.0
 11
122.8122592036101
 21
-33.01987450254169
 31
0.0
  0
LINE
  5
F6
330
2
100
AcDbEntity
  8
0
100
AcDbLine
 10
122.8123603092101
 20
-33.01990809134168
 30
0.0
 11
122.8044423684101
 21
-33.01025041774169
 31
0.0
  0
LINE
  5
F7
330
2
100
AcDbEntity
  8
0
100
AcDbLine
 10
122.8045413332101
 20
-33.01027844174169
 30
0.0
 11
122.7963093764101
 21
-33.00077149454168
 31
0.0
  0
LINE
  5
F8
330
2
100
AcDbEntity
  8
0
100
AcDbLine
 10
122.7964056916101
 20
-33.00079425774169
 30
0.0
 11
122.7878661284101
 21
-32.99144294894169
 31
0.0
  0
LINE
  5
F9
330
2
100
AcDbEntity
  8
0
100
AcDbLine
 10
122.7879593316101
 20
-32.99146076814168
 30
0.0
 11
122.7791189124101
 21
-32.98227005614168
 31
0.0
  0
LINE
  5
FA
330
2
100
AcDbEntity
  8
0
100
AcDbLine
 10
122.7792084612101
 20
-32.98228312814169
 30
0.0
 11
122.7700741732101
 21
-32.97325789934169
 31
0.0
  0
LINE
  5
FB
330
2
100
AcDbEntity
  8
0
100
AcDbLine
 10
122.7701595780101
 20
-32.97326645774168
 30
0.0
 11
122.7608193652101
 21
-32.96441574414169
 31
0.0
  0
LWPOLYLINE
  5
FC
330
2
100
AcDbEntity
  8
0
100
AcDbPolyline
 90
        6
 70
     0
 43
0.0
 10
122.7099404324101
 20
-32.92282989134168
 10
122.7206244708101
 20
-32.93077688494168
 10
122.7310538484101
 20
-32.93891309134168
 10
122.7412208932101
 20
-32.94723397774168
 10
122.7511181668101
 20
-32.95573495374168
 10
122.7607383300101
 20
-32.96441124494168
  0
LWPOLYLINE
  5
FD
330
2
100
AcDbEntity
  8
0
100
AcDbPolyline
 90
        3
 70
     0
 43
0.0
 10
122.7099948772101
 20
-32.92281818254168
 10
122.6990579300101
 20
-32.91506235374168
 10
122.6878820244101
 20
-32.90750474254168
  0
LINE
  5
FE
330
2
100
AcDbEntity
  8
0
100
AcDbLine
 10
122.6764387092101
 20
-32.90016727854168
 30
0.0
 11
122.6878396068101
 21
-32.90752091854168
 31
0.0
  0
LINE
  5
FF
330
2
100
AcDbEntity
  8
0
100
AcDbLine
 10
122.6529721924101
 20
-32.88607913294169
 30
0.0
 11
122.6648135172101
 21
-32.89301870254169
 31
0.0
  0
LINE
  5
100
330
2
100
AcDbEntity
  8
0
100
AcDbLine
 10
122.4983442164101
 20
-32.82072148494168
 30
0.0
 11
122.5118993540101
 21
-32.82485337934168
 31
0.0
  0
LINE
  5
101
330
2
100
AcDbEntity
  8
0
100
AcDbLine
 10
122.4709420580101
 20
-32.81317951374168
 30
0.0
 11
122.4846906532101
 21
-32.81683011854168
 31
0.0
  0
LWPOLYLINE
  5
102
330
2
100
AcDbEntity
  8
0
100
AcDbPolyline
 90
        4
 70
     0
 43
0.0
 10
122.4150520148101
 20
-32.80099401294167
 10
122.4291542724101
 20
-32.80367652334168
 10
122.4431714020101
 20
-32.80660213934167
 10
122.4571014292101
 20
-32.80977002254167
  0
LWPOLYLINE
  5
103
330
2
100
AcDbEntity
  8
0
100
AcDbPolyline
 90
       13
 70
     0
 43
0.0
 10
134.3075152852101
 20
-33.95708299694168
 10
134.35808170761
 20
-33.95087625134168
 10
134.4077236628101
 20
-33.93856652014167
 10
134.4558265812101
 20
-33.92030620174168
 10
134.5017949476101
 20
-33.89632136174167
 10
134.5450596740101
 20
-33.86690893614167
 10
134.58508513641
 20
-33.83243304974168
 10
134.6213758196101
 20
-33.79332051534167
 10
134.6534824388101
 20
-33.75005554894168
 10
134.6810075092101
 20
-33.70317376814168
 10
134.7036102644101
 20
-33.65325557294168
 10
134.7210108756101
 20
-33.60091894734168
 10
134.7329938676101
 20
-33.54681207854167
  0
LWPOLYLINE
  5
104
330
2
100
AcDbEntity
  8
0
100
AcDbPolyline
 90
       21
 70
     0
 43
0.0
 10
132.0759355028101
 20
-34.16164504974168
 10
131.9778526900101
 20
-34.16512582894167
 10
131.92640169961
 20
-34.16685560174168
 10
131.8734788580101
 20
-34.16856717774168
 10
131.8191929284101
 20
-34.17025253294168
 10
131.7636585940101
 20
-34.17190397134167
 10
131.7069959940101
 20
-34.17351418894168
 10
131.6493292324101
 20
-34.17507634414167
 10
131.5907365796101
 20
-34.17658534574167
 10
131.5312519588101
 20
-34.17803750414167
 10
131.4709131092101
 20
-34.17942916014168
 10
131.4097616388101
 20
-34.18075668494167
 10
131.3478565092101
 20
-34.18201593614168
 10
131.2852303524101
 20
-34.18320316014168
 10
131.2219094276101
 20
-34.18431478414167
 10
131.1579186836101
 20
-34.18534731374168
 10
131.09328181801
 20
-34.18629732174167
 10
131.0280213620101
 20
-34.18716144334168
 10
130.9621229252101
 20
-34.18793713614167
 10
130.8955440596101
 20
-34.18862451694168
 10
130.8283263204101
 20
-34.18922387694168
  0
LINE
  5
105
330
2
100
AcDbEntity
  8
0
100
AcDbLine
 10
131.8765024020101
 20
-34.17802960174168
 30
0.0
 11
131.9842457844101
 21
-34.17250505934168
 31
0.0
  0
LWPOLYLINE
  5
106
330
2
100
AcDbEntity
  8
0
100
AcDbPolyline
 90
       23
 70
     0
 43
0.0
 10
133.1372789124101
 20
-33.97141605454168
 10
133.0354558804101
 20
-33.97468198894168
 10
132.9224155172101
 20
-33.97848813614167
 10
132.7969261396101
 20
-33.98292549294168
 10
132.6577060340101
 20
-33.98808308654167
 10
132.5016212804101
 20
-33.99411400014168
 10
132.3231938948101
 20
-34.00128652814167
 10
132.1221418148101
 20
-34.00970788974167
 10
131.90764471241
 20
-34.01909102894168
 10
131.6858494292101
 20
-34.02929854254168
 10
131.4532556868101
 20
-34.04061098734167
 10
131.1978848452101
 20
-34.05361274734168
 10
130.9179166372101
 20
-34.06819085934167
 10
130.62347313961
 20
-34.08300454414168
 10
130.3529913268101
 20
-34.09506564814167
 10
130.1146651028101
 20
-34.10390553454168
 10
129.8982885604101
 20
-34.11038425614167
 10
129.6957909060101
 20
-34.11515731854168
 10
129.5052543844101
 20
-34.11857590734168
 10
129.3254141540101
 20
-34.12091139534167
 10
129.1539303892101
 20
-34.12239377294167
 10
128.9922717540101
 20
-34.12317643694168
 10
128.8438008820101
 20
-34.12339853294168
  0
LWPOLYLINE
  5
107
330
2
100
AcDbEntity
  8
0
100
AcDbPolyline
 90
       16
 70
     0
 43
0.0
 10
130.5219605460101
 20
-34.23067369774168
 10
130.5895036884101
 20
-34.22901039854168
 10
130.65651348841
 20
-34.22724535534168
 10
130.7229697348101
 20
-34.22538060654167
 10
130.7888569396101
 20
-34.22342089934168
 10
130.85417330441
 20
-34.22137223054168
 10
130.9189177636101
 20
-34.21924048174167
 10
130.9830887572101
 20
-34.21703141134168
 10
131.0466851812101
 20
-34.21475063374168
 10
131.1097074804101
 20
-34.21240359214167
 10
131.1721583876101
 20
-34.20999544654168
 10
131.2340429332101
 20
-34.20753105294168
 10
131.2953638852101
 20
-34.20501518894168
 10
131.3561218212101
 20
-34.20245254574167
 10
131.4163152180101
 20
-34.19984773454167
 10
131.5349923572101
 20
-34.19452963854168
  0
LINE
  5
108
330
2
100
AcDbEntity
  8
0
100
AcDbLine
 10
130.5983254580101
 20
-34.22765570894169
 30
0.0
 11
130.5320817092101
 21
-34.23034747374169
 31
0.0
  0
LWPOLYLINE
  5
109
330
2
100
AcDbEntity
  8
0
100
AcDbPolyline
 90
       22
 70
     0
 43
0.0
 10
130.7427490580101
 20
-34.21195457454167
 10
130.7428435972101
 20
-34.21193050254167
 10
130.7426114388101
 20
-34.21198460654167
 10
130.7411591012101
 20
-34.21230692814168
 10
130.7385367812101
 20
-34.21284621774168
 10
130.7347773412101
 20
-34.21356274574167
 10
130.7298953268101
 20
-34.21442536814168
 10
130.7238909460101
 20
-34.21540853614168
 10
130.7167463252101
 20
-34.21649139854167
 10
130.7084444100101
 20
-34.21765388494168
 10
130.6989669220101
 20
-34.21887636974167
 10
130.6882898132101
 20
-34.22013980334168
 10
130.6763638196101
 20
-34.22142794894168
 10
130.6631634628101
 20
-34.22272200654168
 10
130.6486784340101
 20
-34.22400136334168
 10
130.6328899668101
 20
-34.22524600494168
 10
130.6157712356101
 20
-34.22643766414168
 10
130.5973219412101
 20
-34.22755656014167
 10
130.5775353108101
 20
-34.22858347214168
 10
130.5563842980101
 20
-34.22950265134168
 10
130.5338763972101
 20
-34.23029840014168
 10
130.5086796084101
 20
-34.23098736174168
  0
LWPOLYLINE
  5
10A
330
2
100
AcDbEntity
  8
0
100
AcDbPolyline
 90
       12
 70
     0
 43
0.0
 10
130.6467576468101
 20
-34.27028023374168
 10
130.6560561092101
 20
-34.26145511054168
 10
130.6725403892101
 20
-34.24786741134168
 10
130.6875960788101
 20
-34.23740205454168
 10
130.7009281524101
 20
-34.22947481934168
 10
130.7123565300101
 20
-34.22359166734167
 10
130.7218491476101
 20
-34.21931484174168
 10
130.7294496532101
 20
-34.21628804334167
 10
130.7352175284101
 20
-34.21423874094168
 10
130.7392783044101
 20
-34.21293998574167
 10
130.7417714260101
 20
-34.21221603214168
 10
130.7427490580101
 20
-34.21195457454167
  0
LWPOLYLINE
  5
10B
330
2
100
AcDbEntity
  8
0
100
AcDbPolyline
 90
        8
 70
     0
 43
0.0
 10
130.7334143460101
 20
-34.18996443374167
 10
130.7732679508101
 20
-34.19023990094167
 10
130.8010980084101
 20
-34.19128865294168
 10
130.8169198932101
 20
-34.19327640174167
 10
130.8208521508101
 20
-34.19636985934168
 10
130.8129942180101
 20
-34.20071980174167
 10
130.7930395732101
 20
-34.20613711534168
 10
130.7606161812101
 20
-34.21216497614167
  0
LINE
  5
10C
330
2
100
AcDbEntity
  8
0
100
AcDbLine
 10
130.8283263204101
 20
-34.18922387694169
 30
0.0
 11
130.7127199828101
 21
-34.19004252974168
 31
0.0
  0
LWPOLYLINE
  5
10D
330
2
100
AcDbEntity
  8
0
100
AcDbPolyline
 90
        3
 70
     0
 43
0.0
 10
130.7133412020101
 20
-34.19003882254168
 10
130.6654125476101
 20
-34.19047131374168
 10
130.5955634148101
 20
-34.19139450734167
  0
LWPOLYLINE
  5
10E
330
2
100
AcDbEntity
  8
0
100
AcDbPolyline
 90
        4
 70
     0
 43
0.0
 10
130.7606161812101
 20
-34.21216497614167
 10
130.7155957076101
 20
-34.21823566094168
 10
130.6604708532101
 20
-34.22356065934168
 10
130.5983254580101
 20
-34.22765570894168
  0
LINE
  5
10F
330
2
100
AcDbEntity
  8
0
100
AcDbLine
 10
131.5349923572101
 20
-34.19452963854169
 30
0.0
 11
131.6513438596101
 21
-34.18909617934168
 31
0.0
  0
LINE
  5
110
330
2
100
AcDbEntity
  8
0
100
AcDbLine
 10
131.6513438596101
 20
-34.18909617934168
 30
0.0
 11
131.7652863908101
 21
-34.18358159534168
 31
0.0
  0
LINE
  5
111
330
2
100
AcDbEntity
  8
0
100
AcDbLine
 10
131.7652863908101
 20
-34.18358159534168
 30
0.0
 11
131.8765024020101
 21
-34.17802960174168
 31
0.0
  0
LINE
  5
112
330
2
100
AcDbEntity
  8
0
100
AcDbLine
 10
130.32687088201
 20
-34.19515600654168
 30
0.0
 11
130.3610789732101
 21
-34.19476500974168
 31
0.0
  0
LINE
  5
113
330
2
100
AcDbEntity
  8
0
100
AcDbLine
 10
130.4254378132101
 20
-34.19387139214169
 30
0.0
 11
130.4573952676101
 21
-34.19345531054168
 31
0.0
  0
LINE
  5
114
330
2
100
AcDbEntity
  8
0
100
AcDbLine
 10
130.6466255332101
 20
-34.27041214414169
 30
0.0
 11
130.2920241860101
 21
-34.62501348974169
 31
0.0
  0
LINE
  5
115
330
2
100
AcDbEntity
  8
0
100
AcDbLine
 10
129.3916934852101
 20
-34.21138511694168
 30
0.0
 11
129.7013335684101
 21
-34.21137274734168
 31
0.0
  0
LINE
  5
116
330
2
100
AcDbEntity
  8
0
100
AcDbLine
 10
129.4342137764101
 20
-34.19978156494169
 30
0.0
 11
129.4571153924101
 21
-34.19979516174168
 31
0.0
  0
LINE
  5
117
330
2
100
AcDbEntity
  8
0
100
AcDbLine
 10
130.1141018500101
 20
-34.69823679534168
 30
0.0
 11
130.1152474916101
 21
-34.69823679534168
 31
0.0
  0
LINE
  5
118
330
2
100
AcDbEntity
  8
0
100
AcDbLine
 10
129.5790666052101
 20
-34.19966238254168
 30
0.0
 11
129.6046119796101
 21
-34.19965066734168
 31
0.0
  0
LINE
  5
119
330
2
100
AcDbEntity
  8
0
100
AcDbLine
 10
129.7195780948101
 20
-34.19938592654168
 30
0.0
 11
129.7475753684101
 21
-34.19933496174168
 31
0.0
  0
LINE
  5
11A
330
2
100
AcDbEntity
  8
0
100
AcDbLine
 10
129.8547692516101
 20
-34.19892319374168
 30
0.0
 11
129.8850747860101
 21
-34.19881816174168
 31
0.0
  0
LINE
  5
11B
330
2
100
AcDbEntity
  8
0
100
AcDbLine
 10
129.9837194196101
 20
-34.19825921614168
 30
0.0
 11
130.01610769161
 21
-34.19808593614169
 31
0.0
  0
LINE
  5
11C
330
2
100
AcDbEntity
  8
0
100
AcDbLine
 10
130.1056428676101
 20
-34.19739554414168
 30
0.0
 11
130.1396783508101
 21
-34.19714394894168
 31
0.0
  0
LINE
  5
11D
330
2
100
AcDbEntity
  8
0
100
AcDbLine
 10
129.4342137764101
 20
-34.19978156494169
 30
0.0
 11
128.8437965476101
 21
-34.19961423694168
 31
0.0
  0
LINE
  5
11E
330
2
100
AcDbEntity
  8
0
100
AcDbLine
 10
128.8438008820101
 20
-34.21120852174169
 30
0.0
 11
129.3916934852101
 21
-34.21138511694168
 31
0.0
  0
ARC
  5
11F
330
2
100
AcDbEntity
  8
0
100
AcDbCircle
 10
130.1152474916101
 20
-34.44823679534168
 30
0.0
 40
0.25
100
AcDbArc
 50
270.0
 51
315.0
  0
LINE
  5
120
330
2
100
AcDbEntity
  8
0
100
AcDbLine
 10
130.22013742441
 20
-34.19634948014168
 30
0.0
 11
130.25491901321
 21
-34.19601998414168
 31
0.0
  0
LWPOLYLINE
  5
121
330
2
100
AcDbEntity
  8
0
100
AcDbPolyline
 90
       10
 70
     0
 43
0.0
 10
130.5955634148101
 20
-34.19139450734167
 10
130.4254378132101
 20
-34.19387139214168
 10
130.32687088201
 20
-34.19515600654168
 10
130.22013742441
 20
-34.19634948014167
 10
130.1056428676101
 20
-34.19739554414167
 10
129.9837194196101
 20
-34.19825921614167
 10
129.8547692516101
 20
-34.19892319374167
 10
129.7195780948101
 20
-34.19938592654168
 10
129.5790666052101
 20
-34.19966238254168
 10
129.4342137764101
 20
-34.19978156494168
  0
LWPOLYLINE
  5
122
330
2
100
AcDbEntity
  8
0
100
AcDbPolyline
 90
       17
 70
     0
 43
0.0
 10
130.5086728516101
 20
-34.23098752014168
 10
130.4585378324101
 20
-34.23184034574168
 10
130.3826371460101
 20
-34.23207929774167
 10
130.3032010564101
 20
-34.23125841294167
 10
130.2203123668101
 20
-34.22951214574168
 10
130.1337407684101
 20
-34.22696477774167
 10
130.0432268836101
 20
-34.22373716974168
 10
129.9482644708101
 20
-34.21994238094168
 10
129.8484004564101
 20
-34.21570175374167
 10
129.7430992628101
 20
-34.21114742094168
 10
129.6318624116101
 20
-34.20643441934168
 10
129.5141728580101
 20
-34.20174498734168
 10
129.3899880948101
 20
-34.19731104014168
 10
129.2597679732101
 20
-34.19340297454168
 10
129.1242670084101
 20
-34.19030939214168
 10
128.9848339588101
 20
-34.18830638414168
 10
128.8437901588101
 20
-34.18760936814168
  0
LINE
  5
123
330
2
100
AcDbEntity
  8
0
100
AcDbLine
 10
134.2963599956101
 20
-33.95693275694169
 30
0.0
 11
134.2724200420101
 21
-33.95672603694169
 31
0.0
  0
LINE
  5
124
330
2
100
AcDbEntity
  8
0
100
AcDbLine
 10
134.2724200420101
 20
-33.95672603694169
 30
0.0
 11
134.2464680900101
 21
-33.95662774574168
 31
0.0
  0
LINE
  5
125
330
2
100
AcDbEntity
  8
0
100
AcDbLine
 10
134.2464680900101
 20
-33.95662774574168
 30
0.0
 11
134.1892385172101
 21
-33.95668557294168
 31
0.0
  0
LINE
  5
126
330
2
100
AcDbEntity
  8
0
100
AcDbLine
 10
134.1892385172101
 20
-33.95668557294168
 30
0.0
 11
134.0221550932101
 21
-33.95769792494168
 31
0.0
  0
LINE
  5
127
330
2
100
AcDbEntity
  8
0
100
AcDbLine
 10
134.0221550932101
 20
-33.95769792494168
 30
0.0
 11
133.9485133044101
 21
-33.95827337454168
 31
0.0
  0
LINE
  5
128
330
2
100
AcDbEntity
  8
0
100
AcDbLine
 10
133.9485133044101
 20
-33.95827337454168
 30
0.0
 11
133.9106547860101
 21
-33.95858130094168
 31
0.0
  0
LINE
  5
129
330
2
100
AcDbEntity
  8
0
100
AcDbLine
 10
133.9106547860101
 20
-33.95858130094168
 30
0.0
 11
133.8722191844101
 21
-33.95890146414169
 31
0.0
  0
LINE
  5
12A
330
2
100
AcDbEntity
  8
0
100
AcDbLine
 10
133.8722191844101
 20
-33.95890146414169
 30
0.0
 11
133.6314105188101
 21
-33.96119986574168
 31
0.0
  0
LINE
  5
12B
330
2
100
AcDbEntity
  8
0
100
AcDbLine
 10
133.5026751956101
 20
-33.96284288814168
 30
0.0
 11
133.4130331460101
 21
-33.96429914574168
 31
0.0
  0
LINE
  5
12C
330
2
100
AcDbEntity
  8
0
100
AcDbLine
 10
133.4130331460101
 20
-33.96429914574168
 30
0.0
 11
133.3436973284101
 21
-33.96567416654169
 31
0.0
  0
LINE
  5
12D
330
2
100
AcDbEntity
  8
0
100
AcDbLine
 10
133.3436973284101
 20
-33.96567416654169
 30
0.0
 11
133.2972117892101
 21
-33.96675019694169
 31
0.0
  0
LINE
  5
12E
330
2
100
AcDbEntity
  8
0
100
AcDbLine
 10
133.2972117892101
 20
-33.96675019694169
 30
0.0
 11
133.2515551844101
 21
-33.96795199374168
 31
0.0
  0
LINE
  5
12F
330
2
100
AcDbEntity
  8
0
100
AcDbLine
 10
133.2515551844101
 20
-33.96795199374168
 30
0.0
 11
133.1372789124101
 21
-33.97141605454168
 31
0.0
  0
LINE
  5
130
330
2
100
AcDbEntity
  8
0
100
AcDbLine
 10
132.2505618116101
 20
-34.15483204654168
 30
0.0
 11
132.1670081172101
 21
-34.15819236494168
 31
0.0
  0
LINE
  5
131
330
2
100
AcDbEntity
  8
0
100
AcDbLine
 10
132.3267922212101
 20
-34.15160062094168
 30
0.0
 11
132.2505618116101
 21
-34.15483204654168
 31
0.0
  0
LINE
  5
132
330
2
100
AcDbEntity
  8
0
100
AcDbLine
 10
132.3968700292101
 20
-34.14848676014168
 30
0.0
 11
132.3267922212101
 21
-34.15160062094168
 31
0.0
  0
LINE
  5
133
330
2
100
AcDbEntity
  8
0
100
AcDbLine
 10
132.4617398948101
 20
-34.14547877774168
 30
0.0
 11
132.3968700292101
 21
-34.14848676014168
 31
0.0
  0
LINE
  5
134
330
2
100
AcDbEntity
  8
0
100
AcDbLine
 10
132.5216855364101
 20
-34.14258910894168
 30
0.0
 11
132.4617398948101
 21
-34.14547877774168
 31
0.0
  0
LINE
  5
135
330
2
100
AcDbEntity
  8
0
100
AcDbLine
 10
132.6002541092101
 20
-34.13863645134169
 30
0.0
 11
132.5216855364101
 21
-34.14258910894168
 31
0.0
  0
LINE
  5
136
330
2
100
AcDbEntity
  8
0
100
AcDbLine
 10
132.6635382020101
 20
-34.13529093294168
 30
0.0
 11
132.6002541092101
 21
-34.13863645134169
 31
0.0
  0
LINE
  5
137
330
2
100
AcDbEntity
  8
0
100
AcDbLine
 10
132.2790455796101
 20
-34.15675649774168
 30
0.0
 11
132.6546455060101
 21
-34.13578408974168
 31
0.0
  0
LINE
  5
138
330
2
100
AcDbEntity
  8
0
100
AcDbLine
 10
131.9842457844101
 20
-34.17250505934168
 30
0.0
 11
132.1376855716101
 21
-34.16441428974168
 31
0.0
  0
LINE
  5
139
330
2
100
AcDbEntity
  8
0
100
AcDbLine
 10
132.1670081172101
 20
-34.15819236494168
 30
0.0
 11
132.0759355028101
 21
-34.16164504974168
 31
0.0
  0
LINE
  5
13A
330
2
100
AcDbEntity
  8
0
100
AcDbLine
 10
132.1376855716101
 20
-34.16441428974168
 30
0.0
 11
132.2790455796101
 21
-34.15675649774168
 31
0.0
  0
LINE
  5
13B
330
2
100
AcDbEntity
  8
0
100
AcDbLine
 10
133.6314105188101
 20
-33.96119986574168
 30
0.0
 11
133.5026751956101
 21
-33.96284288814168
 31
0.0
  0
LINE
  5
13C
330
2
100
AcDbEntity
  8
0
100
AcDbLine
 10
132.5330413460101
 20
-31.66845805934169
 30
0.0
 11
128.8438026756101
 21
-31.58387563854168
 31
0.0
  0
LWPOLYLINE
  5
13D
330
2
100
AcDbEntity
  8
0
100
AcDbPolyline
 90
        4
 70
     0
 43
0.0
 10
134.7329942820101
 20
-33.54681157454168
 10
134.7558225604101
 20
-33.42174156494167
 10
134.77654132361
 20
-33.30619355854167
 10
134.7951890164101
 20
-33.20008175694168
  0
LINE
  5
13E
330
2
100
AcDbEntity
  8
0
100
AcDbLine
 10
134.9997197396101
 20
-32.90750474254169
 30
0.0
 11
134.9885438340101
 21
-32.91506235374169
 31
0.0
  0
LWPOLYLINE
  5
13F
330
2
100
AcDbEntity
  8
0
100
AcDbPolyline
 90
        6
 70
     0
 43
0.0
 10
134.9364835972101
 20
-32.95573495374168
 10
134.9463808708101
 20
-32.94723397774168
 10
134.9565479156101
 20
-32.93891309134168
 10
134.96697729321
 20
-32.93077688494168
 10
134.9776613316101
 20
-32.92282989134168
 10
134.9885923236101
 20
-32.91507644014168
  0
LWPOLYLINE
  5
140
330
2
100
AcDbEntity
  8
0
100
AcDbPolyline
 90
        3
 70
     0
 43
0.0
 10
134.9364072340101
 20
-32.95573571214168
 10
134.9267823988101
 20
-32.96441574414168
 10
134.9174421876101
 20
-32.97326645774168
  0
LINE
  5
141
330
2
100
AcDbEntity
  8
0
100
AcDbLine
 10
134.9083933028101
 20
-32.98228312814169
 30
0.0
 11
134.9175275908101
 21
-32.97325789934169
 31
0.0
  0
LINE
  5
142
330
2
100
AcDbEntity
  8
0
100
AcDbLine
 10
134.8996424324101
 20
-32.99146076814168
 30
0.0
 11
134.9084828516101
 21
-32.98227005614168
 31
0.0
  0
LWPOLYLINE
  5
143
330
2
100
AcDbEntity
  8
0
100
AcDbPolyline
 90
        3
 70
     0
 43
0.0
 10
134.8996424324101
 20
-32.99146076814167
 10
134.8911960724101
 20
-33.00079425774168
 10
134.8830604308101
 20
-33.01027844174168
  0
LWPOLYLINE
  5
144
330
2
100
AcDbEntity
  8
0
100
AcDbPolyline
 90
        4
 70
     0
 43
0.0
 10
134.8752414548101
 20
-33.01990809134167
 10
134.8831593972101
 20
-33.01025041774168
 10
134.8912923876101
 20
-33.00077149454168
 10
134.8997356356101
 20
-32.99144294894168
  0
LINE
  5
145
330
2
100
AcDbEntity
  8
0
100
AcDbLine
 10
134.8677448132101
 20
-33.02967793614168
 30
0.0
 11
134.8753425604101
 21
-33.01987450254169
 31
0.0
  0
LINE
  5
146
330
2
100
AcDbEntity
  8
0
100
AcDbLine
 10
134.8605758756101
 20
-33.03958267374168
 30
0.0
 11
134.8678474836101
 21
-33.02963851534169
 31
0.0
  0
LINE
  5
147
330
2
100
AcDbEntity
  8
0
100
AcDbLine
 10
134.8537397412101
 20
-33.04961694894169
 30
0.0
 11
134.8606795156101
 21
-33.03953714734169
 31
0.0
  0
LINE
  5
148
330
2
100
AcDbEntity
  8
0
100
AcDbLine
 10
134.8472412100101
 20
-33.05977536974168
 30
0.0
 11
134.8538437204101
 21
-33.04956503854168
 31
0.0
  0
LINE
  5
149
330
2
100
AcDbEntity
  8
0
100
AcDbLine
 10
134.84108478761
 20
-33.07005250414168
 30
0.0
 11
134.8473448644101
 21
-33.05971680334168
 31
0.0
  0
LINE
  5
14A
330
2
100
AcDbEntity
  8
0
100
AcDbLine
 10
134.8352746756101
 20
-33.08044290094168
 30
0.0
 11
134.8411874212101
 21
-33.06998701614169
 31
0.0
  0
LINE
  5
14B
330
2
100
AcDbEntity
  8
0
100
AcDbLine
 10
134.8298147828101
 20
-33.09094105454168
 30
0.0
 11
134.8353755620101
 21
-33.08037021934168
 31
0.0
  0
LINE
  5
14C
330
2
100
AcDbEntity
  8
0
100
AcDbLine
 10
134.8247086612101
 20
-33.10154152494169
 30
0.0
 11
134.8299131524101
 21
-33.09086092814168
 31
0.0
  0
LINE
  5
14D
330
2
100
AcDbEntity
  8
0
100
AcDbLine
 10
134.8199597204101
 20
-33.11223847694168
 30
0.0
 11
134.8248037476101
 21
-33.10145363534168
 31
0.0
  0
LINE
  5
14E
330
2
100
AcDbEntity
  8
0
100
AcDbLine
 10
134.8155704212101
 20
-33.12302757134168
 30
0.0
 11
134.8200505988101
 21
-33.11214278734169
 31
0.0
  0
LINE
  5
14F
330
2
100
AcDbEntity
  8
0
100
AcDbLine
 10
134.8115458484101
 20
-33.13389660334169
 30
0.0
 11
134.8156566036101
 21
-33.12292289614168
 31
0.0
  0
LINE
  5
150
330
2
100
AcDbEntity
  8
0
100
AcDbLine
 10
134.8078959412101
 20
-33.14481397774168
 30
0.0
 11
134.8116246372101
 21
-33.13378764974168
 31
0.0
  0
LINE
  5
151
330
2
100
AcDbEntity
  8
0
100
AcDbLine
 10
134.8046222980101
 20
-33.15576366734168
 30
0.0
 11
134.80796135401
 21
-33.14471745614168
 31
0.0
  0
LINE
  5
152
330
2
100
AcDbEntity
  8
0
100
AcDbLine
 10
134.80171887561
 20
-33.16675379214168
 30
0.0
 11
134.8046728420101
 21
-33.15568661454168
 31
0.0
  0
LWPOLYLINE
  5
153
330
2
100
AcDbEntity
  8
0
100
AcDbPolyline
 90
        4
 70
     0
 43
0.0
 10
134.80171887561
 20
-33.16675379214167
 10
134.7991805940101
 20
-33.17779575374167
 10
134.7970041524101
 20
-33.18890223054168
 10
134.7951889988101
 20
-33.20008175534168
  0
LWPOLYLINE
  5
154
330
2
100
AcDbEntity
  8
0
100
AcDbPolyline
 90
       25
 70
     0
 43
0.0
 10
142.2951745860101
 20
-33.67507336494168
 10
142.6834126068101
 20
-33.74529545774167
 10
143.0700270484101
 20
-33.81742723534168
 10
143.4538881716101
 20
-33.89122637134168
 10
143.8340738932101
 20
-33.96646684014168
 10
144.2093832532101
 20
-34.04284471374168
 10
144.5789254116101
 20
-34.12009564334168
 10
144.9414739764101
 20
-34.19786379054168
 10
145.2961788516101
 20
-34.27585200014168
 10
145.6418319140101
 20
-34.35366555054168
 10
145.9776314340101
 20
-34.43098197454168
 10
146.3024354004101
 20
-34.50738514254167
 10
146.6155047812101
 20
-34.58253853454167
 10
146.9158067956101
 20
-34.65602422734168
 10
147.2026805380101
 20
-34.72750509294167
 10
147.4752359860101
 20
-34.79658100654168
 10
147.7329035748101
 20
-34.86292829934168
 10
147.9749551444101
 20
-34.92618164974167
 10
148.2009201892101
 20
-34.98604368494167
 10
148.4102352292101
 20
-35.04219634254168
 10
148.6025294708101
 20
-35.09437869934168
 10
148.7773919636101
 20
-35.14232696174168
 10
148.9345453572101
 20
-35.18582336814167
 10
149.0737082884101
 20
-35.22466029454168
 10
149.1946855460101
 20
-35.25866652014168
  0
LWPOLYLINE
  5
155
330
2
100
AcDbEntity
  8
0
100
AcDbPolyline
 90
       28
 70
     0
 43
0.0
 10
141.9063008820101
 20
-33.60695327374168
 10
142.3270494804101
 20
-33.67507336494168
 10
142.7471102884101
 20
-33.74529545774167
 10
143.1654144388101
 20
-33.81742723534168
 10
143.5807395892101
 20
-33.89122637134168
 10
143.99208807401
 20
-33.96646684014168
 10
144.3981604980101
 20
-34.04284471374168
 10
144.7979929956101
 20
-34.12009564334168
 10
145.1902586564101
 20
-34.19786379054168
 10
145.5740377012101
 20
-34.27585200014168
 10
145.9480229828101
 20
-34.35366555054168
 10
146.3113470532101
 20
-34.43098197454168
 10
146.6627742964101
 20
-34.50738514254167
 10
147.0015051012101
 20
-34.58253853454167
 10
147.3264220340101
 20
-34.65602422734168
 10
147.6368100180101
 20
-34.72750509294167
 10
147.9317060772101
 20
-34.79658100654168
 10
148.2104939588101
 20
-34.86292829934168
 10
148.4723858228101
 20
-34.92618164974167
 10
148.7168725908101
 20
-34.98604368494167
 10
148.9433446020101
 20
-35.04219634254168
 10
149.1514006676101
 20
-35.09437869934168
 10
149.3405961508101
 20
-35.14232696174168
 10
149.5106309684101
 20
-35.18582336814167
 10
149.6612006980101
 20
-35.22466029454168
 10
149.7920941236101
 20
-35.25866652014168
 10
149.9031168996101
 20
-35.28768878094167
 10
149.9941311652101
 20
-35.31160296014167
  0
LINE
  5
156
330
2
100
AcDbEntity
  8
0
100
AcDbLine
 10
135.2632045300101
 20
-32.79127921134168
 30
0.0
 11
150.9689851236101
 21
-32.31359514094168
 31
0.0
  0
LINE
  5
157
330
2
100
AcDbEntity
  8
0
100
AcDbLine
 10
141.9063008820101
 20
-40.32323679534168
 30
0.0
 11
141.9063008820101
 21
-33.60695327374168
 31
0.0
  0
LINE
  5
158
330
2
100
AcDbEntity
  8
0
  6
HIDDEN
100
AcDbLine
 10
144.3138766500101
 20
-40.32323679534168
 30
0.0
 11
144.3138766500101
 21
-34.02699182574169
 31
0.0
  0
LINE
  5
159
330
2
100
AcDbEntity
  8
0
100
AcDbLine
 10
146.6484663844101
 20
-38.09055326574169
 30
0.0
 11
146.7839032292101
 21
-39.63860349454168
 31
0.0
  0
LINE
  5
15A
330
2
100
AcDbEntity
  8
0
100
AcDbLine
 10
143.0339032388101
 20
-39.63860360174168
 30
0.0
 11
142.9122619060101
 21
-38.24823679534169
 31
0.0
  0
ARC
  5
15B
330
2
100
AcDbEntity
  8
0
100
AcDbCircle
 10
143.7810492628101
 20
-39.57323679534168
 30
0.0
 40
0.75
100
AcDbArc
 50
185.0
 51
270.0
  0
ARC
  5
15C
330
2
100
AcDbEntity
  8
0
100
AcDbCircle
 10
147.5310492628101
 20
-39.57323679534168
 30
0.0
 40
0.75
100
AcDbArc
 50
184.9999917116999
 51
269.9999011672999
  0
LINE
  5
15D
330
2
100
AcDbEntity
  8
0
100
AcDbLine
 10
146.2748933828101
 20
-37.74823679534168
 30
0.0
 11
144.3138766500101
 21
-37.74823679534168
 31
0.0
  0
LINE
  5
15E
330
2
100
AcDbEntity
  8
0
100
AcDbLine
 10
144.3138766500101
 20
-38.24823679534169
 30
0.0
 11
142.9122619060101
 21
-38.24823679534169
 31
0.0
  0
ARC
  5
15F
330
2
100
AcDbEntity
  8
0
100
AcDbCircle
 10
146.2748933828101
 20
-38.12323679534168
 30
0.0
 40
0.375
100
AcDbArc
 50
5.000019213299999
 51
90.0
  0
LWPOLYLINE
  5
160
330
2
100
AcDbEntity
  8
0
100
AcDbPolyline
 90
        3
 70
     0
 43
0.0
 10
141.7867033924101
 20
-32.62986960014168
 10
139.0034221956101
 20
-32.22711726254168
 10
135.9173913940101
 20
-31.89517775854167
  0
LWPOLYLINE
  5
161
330
2
100
AcDbEntity
  8
0
100
AcDbPolyline
 90
       11
 70
     0
 43
0.0
 10
136.19105425321
 20
-33.84353696974168
 10
136.2459058356101
 20
-33.83780978574167
 10
136.2997926388101
 20
-33.82607775214168
 10
136.3520590708101
 20
-33.80848359854168
 10
136.4020692500101
 20
-33.78524137294167
 10
136.4492147476101
 20
-33.75663383534168
 10
136.4929219764101
 20
-33.72300902734168
 10
136.5326591812101
 20
-33.68477603854167
 10
136.5679429172101
 20
-33.64240001134167
 10
136.5983439284101
 20
-33.59639648014168
 10
136.6234923428101
 20
-33.54732513294168
  0
LWPOLYLINE
  5
162
330
2
100
AcDbEntity
  8
0
100
AcDbPolyline
 90
       11
 70
     0
 43
0.0
 10
136.1911355156101
 20
-33.84374165294168
 10
136.2459784644101
 20
-33.83800488334168
 10
136.2998557844101
 20
-33.82626506094168
 10
136.3521121716101
 20
-33.80866497614167
 10
136.4021120436101
 20
-33.78541869934167
 10
136.4492472548101
 20
-33.75680897134167
 10
136.4929445108101
 20
-33.72318376494168
 10
136.5326723252101
 20
-33.68495206094168
 10
136.5679474964101
 20
-33.64257886574167
 10
136.5983409764101
 20
-33.59657955694167
 10
136.6234830948101
 20
-33.54751361774168
  0
LWPOLYLINE
  5
163
330
2
100
AcDbEntity
  8
0
100
AcDbPolyline
 90
       12
 70
     0
 43
0.0
 10
135.9515282356101
 20
-33.90936132654168
 10
135.90757455561
 20
-33.91356333934167
 10
135.8614969572101
 20
-33.91744202414168
 10
135.8124175236101
 20
-33.92109344174168
 10
135.7604462260101
 20
-33.92451573134168
 10
135.7056889748101
 20
-33.92771111054168
 10
135.6483059140101
 20
-33.93068292654167
 10
135.5879540132101
 20
-33.93347423534168
 10
135.5243439940101
 20
-33.93613710734168
 10
135.4574195012101
 20
-33.93871096494168
 10
135.3876199668101
 20
-33.94121757294168
 10
135.3156552516101
 20
-33.94366996494167
  0
LWPOLYLINE
  5
164
330
2
100
AcDbEntity
  8
0
100
AcDbPolyline
 90
       13
 70
     0
 43
0.0
 10
136.1911355156101
 20
-33.84374165614168
 10
136.1917950692101
 20
-33.85036382894168
 10
136.18855181961
 20
-33.85678458894167
 10
136.1814307924101
 20
-33.86299828494168
 10
136.1704692148101
 20
-33.86899956814168
 10
136.1557127812101
 20
-33.87478510094168
 10
136.1372222644101
 20
-33.88035531054168
 10
136.1150310292101
 20
-33.88572092334168
 10
136.0891586580101
 20
-33.89088994414167
 10
136.0596656548101
 20
-33.89585659214167
 10
136.0266739700101
 20
-33.90060791854168
 10
135.9902627908101
 20
-33.90514402894167
 10
135.9516387924101
 20
-33.90935003694168
  0
LINE
  5
165
330
2
100
AcDbEntity
  8
0
100
AcDbLine
 10
136.1910542580101
 20
-33.84353706734168
 30
0.0
 11
136.1911355172101
 21
-33.84374165614168
 31
0.0
  0
LINE
  5
166
330
2
100
AcDbEntity
  8
0
100
AcDbLine
 10
136.9693450692101
 20
-32.78361581934168
 30
0.0
 11
136.8878888308101
 21
-32.78389607854168
 31
0.0
  0
LWPOLYLINE
  5
167
330
2
100
AcDbEntity
  8
0
100
AcDbPolyline
 90
        3
 70
     0
 43
0.0
 10
137.0652574516101
 20
-32.78326954574168
 10
137.0049081796101
 20
-32.78348975534167
 10
136.9693450692101
 20
-32.78361581934167
  0
LWPOLYLINE
  5
168
330
2
100
AcDbEntity
  8
0
100
AcDbPolyline
 90
        3
 70
     0
 43
0.0
 10
137.1588335124101
 20
-32.78291570094168
 10
137.0899176420101
 20
-32.78317744494168
 10
137.06525527721
 20
-32.78326955374168
  0
LINE
  5
169
330
2
100
AcDbEntity
  8
0
100
AcDbLine
 10
137.1575557764101
 20
-32.78296076014168
 30
0.0
 11
137.1588335124101
 21
-32.78291570094168
 31
0.0
  0
LINE
  5
16A
330
2
100
AcDbEntity
  8
0
100
AcDbLine
 10
135.3443142644101
 20
-32.79127007054168
 30
0.0
 11
135.3298113748101
 21
-32.79271555534168
 31
0.0
  0
LINE
  5
16B
330
2
100
AcDbEntity
  8
0
100
AcDbLine
 10
135.3153865428101
 20
-32.79441162094169
 30
0.0
 11
135.3010407268101
 21
-32.79635626574168
 31
0.0
  0
LINE
  5
16C
330
2
100
AcDbEntity
  8
0
100
AcDbLine
 10
135.2867749556101
 20
-32.79854776334168
 30
0.0
 11
135.2725904692101
 21
-32.80098463374168
 31
0.0
  0
LINE
  5
16D
330
2
100
AcDbEntity
  8
0
100
AcDbLine
 10
135.5790199012101
 20
-32.78762085614168
 30
0.0
 11
135.4030872852101
 21
-32.78804352974168
 31
0.0
  0
LWPOLYLINE
  5
16E
330
2
100
AcDbEntity
  8
0
100
AcDbPolyline
 90
        3
 70
     0
 43
0.0
 10
136.6864926356101
 20
-32.78455268974168
 10
136.5684026004101
 20
-32.78491958894167
 10
136.5054062276101
 20
-32.78511080014168
  0
LINE
  5
16F
330
2
100
AcDbEntity
  8
0
100
AcDbLine
 10
136.4399214580101
 20
-32.78530650734168
 30
0.0
 11
136.3012130724101
 21
-32.78571115214168
 31
0.0
  0
LWPOLYLINE
  5
170
330
2
100
AcDbEntity
  8
0
100
AcDbPolyline
 90
        4
 70
     0
 43
0.0
 10
135.9168492292101
 20
-32.78676632334168
 10
135.7506389476101
 20
-32.78719460974168
 10
135.6654245508101
 20
-32.78740813134167
 10
135.5790199012101
 20
-32.78762085614168
  0
LWPOLYLINE
  5
171
330
2
100
AcDbEntity
  8
0
100
AcDbPolyline
 90
        3
 70
     0
 43
0.0
 10
136.1534844468101
 20
-32.78612784974168
 10
135.9975110020101
 20
-32.78655257294168
 10
135.9168492292101
 20
-32.78676632334168
  0
LINE
  5
172
330
2
100
AcDbEntity
  8
0
100
AcDbLine
 10
136.1534844468101
 20
-32.78612784974169
 30
0.0
 11
136.2284727652101
 21
-32.78591812814168
 31
0.0
  0
LINE
  5
173
330
2
100
AcDbEntity
  8
0
100
AcDbLine
 10
136.3012868452101
 20
-32.78571094094168
 30
0.0
 11
136.2283934804101
 21
-32.78591835214168
 31
0.0
  0
LINE
  5
174
330
2
100
AcDbEntity
  8
0
100
AcDbLine
 10
136.5054757412101
 20
-32.78511059054168
 30
0.0
 11
136.43984654761
 21
-32.78530672814168
 31
0.0
  0
LINE
  5
175
330
2
100
AcDbEntity
  8
0
100
AcDbLine
 10
136.6234830948101
 20
-33.54751361774168
 30
0.0
 11
136.64308218761
 21
-33.49578301454168
 31
0.0
  0
LINE
  5
176
330
2
100
AcDbEntity
  8
0
100
AcDbLine
 10
136.6430680532101
 20
-33.49597783054168
 30
0.0
 11
136.6568751332101
 21
-33.44239724334169
 31
0.0
  0
LINE
  5
177
330
2
100
AcDbEntity
  8
0
100
AcDbLine
 10
136.6568576388101
 20
-33.44259901774168
 30
0.0
 11
136.6640765492101
 21
-33.39448806574168
 31
0.0
  0
LINE
  5
178
330
2
100
AcDbEntity
  8
0
100
AcDbLine
 10
136.6568751332101
 20
-33.44239724334169
 30
0.0
 11
136.6645365412101
 21
-33.38968421614168
 31
0.0
  0
LINE
  5
179
330
2
100
AcDbEntity
  8
0
100
AcDbLine
 10
136.6640765492101
 20
-33.39448806574168
 30
0.0
 11
136.6640850980101
 21
-33.39440299534168
 31
0.0
  0
LINE
  5
17A
330
2
100
AcDbEntity
  8
0
100
AcDbLine
 10
136.6640850980101
 20
-33.39440299534168
 30
0.0
 11
136.6644545684101
 21
-33.39057936974168
 31
0.0
  0
LINE
  5
17B
330
2
100
AcDbEntity
  8
0
100
AcDbLine
 10
136.6646958660101
 20
-33.38790341294169
 30
0.0
 11
136.6644545684101
 21
-33.39057936974168
 31
0.0
  0
LINE
  5
17C
330
2
100
AcDbEntity
  8
0
100
AcDbLine
 10
136.7890192500101
 20
-33.40104446574168
 30
0.0
 11
136.78923201001
 21
-33.39866399694168
 31
0.0
  0
LINE
  5
17D
330
2
100
AcDbEntity
  8
0
100
AcDbLine
 10
136.6645365412101
 20
-33.38968421614168
 30
0.0
 11
136.6777189748101
 21
-33.23904941294169
 31
0.0
  0
LWPOLYLINE
  5
17E
330
2
100
AcDbEntity
  8
0
100
AcDbPolyline
 90
        3
 70
     0
 43
0.0
 10
136.8421952420101
 20
-32.78404908174167
 10
136.7413784852101
 20
-32.78437798894167
 10
136.6864926356101
 20
-32.78455268974168
  0
LINE
  5
17F
330
2
100
AcDbEntity
  8
0
100
AcDbLine
 10
135.1095622308101
 20
-32.84909471694168
 30
0.0
 11
135.0966879588101
 21
-32.85466799854168
 31
0.0
  0
LINE
  5
180
330
2
100
AcDbEntity
  8
0
100
AcDbLine
 10
136.8422033956101
 20
-32.78404905454169
 30
0.0
 11
136.8879022052101
 21
-32.78389603374168
 31
0.0
  0
ARC
  5
181
330
2
100
AcDbEntity
  8
0
100
AcDbCircle
 10
137.1758162596101
 20
-33.28262720494169
 30
0.0
 40
0.5
100
AcDbArc
 50
92.0929642749
 51
175.0
  0
LINE
  5
182
330
2
100
AcDbEntity
  8
0
100
AcDbLine
 10
144.3138766500101
 20
-34.02699182574169
 30
0.0
 11
144.3138766500101
 21
-33.58759818254169
 31
0.0
  0
LINE
  5
183
330
2
100
AcDbEntity
  8
0
100
AcDbLine
 10
144.3138766500101
 20
-33.07571386414168
 30
0.0
 11
144.3138766500101
 21
-33.58759818254169
 31
0.0
  0
LWPOLYLINE
  5
184
330
2
100
AcDbEntity
  8
0
100
AcDbPolyline
 90
        4
 70
     0
 43
0.0
 10
144.3110602212101
 20
-33.07474660654168
 10
144.2841139220101
 20
-33.06870236494168
 10
144.2303671796101
 20
-33.05897433614168
 10
144.15504369161
 20
-33.04765590734167
  0
LINE
  5
185
330
2
100
AcDbEntity
  8
0
100
AcDbLine
 10
144.2596412836101
 20
-33.06619092974168
 30
0.0
 11
144.3138766500101
 21
-33.07571358414168
 31
0.0
  0
LINE
  5
186
330
2
100
AcDbEntity
  8
0
100
AcDbLine
 10
144.1960253268101
 20
-33.05529441774168
 30
0.0
 11
144.2596412836101
 21
-33.06619092974168
 31
0.0
  0
LINE
  5
187
330
2
100
AcDbEntity
  8
0
100
AcDbLine
 10
144.10052392201
 20
-33.03934775374168
 30
0.0
 11
144.1960253268101
 21
-33.05529441774168
 31
0.0
  0
LWPOLYLINE
  5
188
330
2
100
AcDbEntity
  8
0
100
AcDbPolyline
 90
        3
 70
     0
 43
0.0
 10
144.1550437668101
 20
-33.04765544014168
 10
144.1209038164101
 20
-33.04275927534168
 10
144.0860669156101
 20
-33.03668693294167
  0
LINE
  5
189
330
2
100
AcDbEntity
  8
0
100
AcDbLine
 10
141.7867022916101
 20
-32.62986951854168
 30
0.0
 11
141.8136471508101
 21
-32.63424723534169
 31
0.0
  0
LINE
  5
18A
330
2
100
AcDbEntity
  8
0
100
AcDbLine
 10
142.2951753972101
 20
-33.67507350894168
 30
0.0
 11
141.9063008820101
 21
-33.60695327374168
 31
0.0
  0
LINE
  5
18B
330
2
100
AcDbEntity
  8
0
100
AcDbLine
 10
143.3690915316101
 20
-32.90251013774168
 30
0.0
 11
142.6110427700101
 21
-32.76788576974169
 31
0.0
  0
LINE
  5
18C
330
2
100
AcDbEntity
  8
0
100
AcDbLine
 10
141.8136470004101
 20
-32.63424818574168
 30
0.0
 11
142.6110453620101
 21
-32.76788612974168
 31
0.0
  0
LINE
  5
18D
330
2
100
AcDbEntity
  8
0
100
AcDbLine
 10
143.3690943380101
 20
-32.90251131854168
 30
0.0
 11
144.10052392201
 21
-33.03934775374168
 31
0.0
  0
LINE
  5
18E
330
2
100
AcDbEntity
  8
0
  6
HIDDEN
100
AcDbLine
 10
149.53130088201
 20
-40.32323679534168
 30
0.0
 11
149.53130088201
 21
-35.35448679534168
 31
0.0
  0
LINE
  5
18F
330
2
100
AcDbEntity
  8
0
  6
HIDDEN
100
AcDbLine
 10
149.05341674601
 20
-35.06980343854168
 30
0.0
 11
148.6536985252101
 21
-39.63860360174168
 31
0.0
  0
ARC
  5
190
330
2
100
AcDbEntity
  8
0
100
AcDbCircle
 10
154.0138474692101
 20
-34.03178136334168
 30
0.0
 40
2.0000000016
100
AcDbArc
 50
252.1222746496
 51
346.2866386672
  0
LINE
  5
191
330
2
100
AcDbEntity
  8
0
100
AcDbLine
 10
150.1563008820101
 20
-40.32323679534168
 30
0.0
 11
150.1563008820101
 21
-35.35448663534168
 31
0.0
  0
LINE
  5
192
330
2
100
AcDbEntity
  8
0
100
AcDbLine
 10
150.1563008820101
 20
-35.35448679534168
 30
0.0
 11
150.1461522228101
 21
-35.35179282094169
 31
0.0
  0
LINE
  5
193
330
2
100
AcDbEntity
  8
0
100
AcDbLine
 10
150.1157157940101
 20
-35.34372167214168
 30
0.0
 11
150.1563008820101
 21
-35.35448663534168
 31
0.0
  0
LINE
  5
194
330
2
100
AcDbEntity
  8
0
100
AcDbLine
 10
149.0619257796101
 20
-34.97254474094168
 30
0.0
 11
149.05341674601
 21
-35.06980343854168
 31
0.0
  0
LINE
  5
195
330
2
100
AcDbEntity
  8
0
100
AcDbLine
 10
149.53130088201
 20
-35.35448679534168
 30
0.0
 11
149.5219210596101
 21
-35.35179282094169
 31
0.0
  0
LINE
  5
196
330
2
100
AcDbEntity
  8
0
100
AcDbLine
 10
149.3814170388101
 20
-35.31160304334168
 30
0.0
 11
149.53130088201
 21
-35.35448663534168
 31
0.0
  0
LINE
  5
197
330
2
100
AcDbEntity
  8
0
100
AcDbLine
 10
149.29729750441
 20
-35.28768878094168
 30
0.0
 11
149.3814167508101
 21
-35.31160296014168
 31
0.0
  0
LINE
  5
198
330
2
100
AcDbEntity
  8
0
100
AcDbLine
 10
149.2972977796101
 20
-35.28768885934168
 30
0.0
 11
149.1946862612101
 21
-35.25866672174168
 31
0.0
  0
LINE
  5
199
330
2
100
AcDbEntity
  8
0
100
AcDbLine
 10
150.1563008820101
 20
-35.35448679534168
 30
0.0
 11
149.53130088201
 21
-35.35448679534168
 31
0.0
  0
LINE
  5
19A
330
2
100
AcDbEntity
  8
0
100
AcDbLine
 10
149.9941311652101
 20
-35.31160296014168
 30
0.0
 11
150.1157157940101
 21
-35.34372167214168
 31
0.0
  0
LINE
  5
19B
330
2
100
AcDbEntity
  8
0
100
AcDbLine
 10
152.0410363956101
 20
-32.27698508494168
 30
0.0
 11
152.1005747780101
 21
-32.27511905454168
 31
0.0
  0
LINE
  5
19C
330
2
100
AcDbEntity
  8
0
100
AcDbLine
 10
151.9140449908101
 20
-32.28114714094168
 30
0.0
 11
152.0410363956101
 21
-32.27698508494168
 31
0.0
  0
LINE
  5
19D
330
2
100
AcDbEntity
  8
0
100
AcDbLine
 10
151.5430646708101
 20
-32.29375047534169
 30
0.0
 11
151.5963066884101
 21
-32.29192746894169
 31
0.0
  0
LWPOLYLINE
  5
19E
330
2
100
AcDbEntity
  8
0
100
AcDbPolyline
 90
       15
 70
     0
 43
0.0
 10
151.5186066036101
 20
-32.29459019534167
 10
151.5351563364101
 20
-32.29402184974168
 10
151.5391283732101
 20
-32.29388553134167
 10
151.5430646708101
 20
-32.29375047534168
 10
151.5469705684101
 20
-32.29361649774168
 10
151.5508504308101
 20
-32.29348344814168
 10
151.5547082276101
 20
-32.29335119054168
 10
151.5585477524101
 20
-32.29321959694168
 10
151.5623726980101
 20
-32.29308853774168
 10
151.5661866724101
 20
-32.29295789294168
 10
151.5699931972101
 20
-32.29282753774167
 10
151.5737956980101
 20
-32.29269736014168
 10
151.5775974884101
 20
-32.29256724174168
 10
151.5814011316101
 20
-32.29243709934168
 10
151.5851820900101
 20
-32.29230777134167
  0
LINE
  5
19F
330
2
100
AcDbEntity
  8
0
100
AcDbLine
 10
151.4962018772101
 20
-32.29535930894168
 30
0.0
 11
151.5140007812101
 21
-32.29474846574168
 31
0.0
  0
LINE
  5
1A0
330
2
100
AcDbEntity
  8
0
100
AcDbLine
 10
150.9641193108101
 20
-32.31376152654169
 30
0.0
 11
151.5186066036101
 21
-32.29459019534168
 31
0.0
  0
LINE
  5
1A1
330
2
100
AcDbEntity
  8
0
100
AcDbLine
 10
151.5139999012101
 20
-32.29474849614168
 30
0.0
 11
151.5229105860101
 21
-32.29444233454168
 31
0.0
  0
LWPOLYLINE
  5
1A2
330
2
100
AcDbEntity
  8
0
100
AcDbPolyline
 90
        3
 70
     0
 43
0.0
 10
150.9627857700101
 20
-32.31380749134167
 10
151.1304146836101
 20
-32.30799946414168
 10
151.2887616740101
 20
-32.30251827214168
  0
LWPOLYLINE
  5
1A3
330
2
100
AcDbEntity
  8
0
100
AcDbPolyline
 90
        5
 70
     0
 43
0.0
 10
151.5926344196101
 20
-32.29205297134168
 10
151.5999429860101
 20
-32.29180323054168
 10
151.6035439060101
 20
-32.29168023534167
 10
151.6071098628101
 20
-32.29155846894168
 10
151.6106413108101
 20
-32.29143791374168
  0
LINE
  5
1A4
330
2
100
AcDbEntity
  8
0
100
AcDbLine
 10
151.5889265316101
 20
-32.29217972814169
 30
0.0
 11
151.5926346436101
 21
-32.29205296334169
 31
0.0
  0
LINE
  5
1A5
330
2
100
AcDbEntity
  8
0
100
AcDbLine
 10
151.5851818676101
 20
-32.29230777774168
 30
0.0
 11
151.5889263076101
 21
-32.29217973614168
 31
0.0
  0
LWPOLYLINE
  5
1A6
330
2
100
AcDbEntity
  8
0
100
AcDbPolyline
 90
        8
 70
     0
 43
0.0
 10
151.9308156260101
 20
-32.16965181294168
 10
151.7473559044101
 20
-32.21380080974167
 10
151.58150438761
 20
-32.24664293454168
 10
151.4313033028101
 20
-32.27090976174167
 10
151.2952599300101
 20
-32.28854401934167
 10
151.1723026084101
 20
-32.30093098734168
 10
151.0616343236101
 20
-32.30910894574167
 10
150.9641193108101
 20
-32.31376152654168
  0
LINE
  5
1A7
330
2
100
AcDbEntity
  8
0
100
AcDbLine
 10
151.6025733748101
 20
-32.29170417934168
 30
0.0
 11
151.9479944772101
 21
-32.27998191854168
 31
0.0
  0
LWPOLYLINE
  5
1A8
330
2
100
AcDbEntity
  8
0
  6
HIDDEN
100
AcDbPolyline
 90
       17
 70
     0
 43
0.0
 10
122.4939465396101
 20
-18.37714134254167
 10
123.2834991156101
 20
-18.34733869294167
 10
124.0767476116101
 20
-18.32138206734168
 10
124.8704981172101
 20
-18.29940495694168
 10
125.6646607828101
 20
-18.28141443694168
 10
126.4591447972101
 20
-18.26741618734168
 10
127.2538610756101
 20
-18.25741445294168
 10
128.0487287380101
 20
-18.25141206574168
 10
128.8436720084101
 20
-18.24941065614167
 10
129.6386152660101
 20
-18.25141076814168
 10
130.4334829204101
 20
-18.25741185934168
 10
131.2281992372101
 20
-18.26741229614167
 10
132.02268334441
 20
-18.28140924974167
 10
132.81684613321
 20
-18.29939847534168
 10
133.6105967604101
 20
-18.32137429294167
 10
134.4038453508101
 20
-18.34732962574167
 10
135.1936552244101
 20
-18.37714134254167
  0
LWPOLYLINE
  5
1A9
330
2
100
AcDbEntity
  8
0
  6
HIDDEN
100
AcDbPolyline
 90
       28
 70
     0
 43
0.0
 10
136.0093657156101
 20
-16.71066326094168
 10
136.0094632628101
 20
-16.71054385454168
 10
136.0079508548101
 20
-16.71219197134168
 10
136.0024417444101
 20
-16.71754725934168
 10
135.9925482436101
 20
-16.72606889134168
 10
135.9779189428101
 20
-16.73730102734167
 10
135.9582296116101
 20
-16.75084417134168
 10
135.9331533156101
 20
-16.76635251374167
 10
135.9023384276101
 20
-16.78352586254168
 10
135.8654906532101
 20
-16.80205239854167
 10
135.8224371764101
 20
-16.82158811054168
 10
135.7730639556101
 20
-16.84180022094167
 10
135.7173053060101
 20
-16.86237296974168
 10
135.6551577636101
 20
-16.88300318254168
 10
135.5866846180101
 20
-16.90340139534167
 10
135.5119935780101
 20
-16.92330012974167
 10
135.4312368276101
 20
-16.94245292974167
 10
135.3446248004101
 20
-16.96063100014167
 10
135.25241075081
 20
-16.97762715054167
 10
135.1548850692101
 20
-16.99325603694167
 10
135.0523763796101
 20
-17.00735304654168
 10
134.9452441940101
 20
-17.01977455534168
 10
134.83387150601
 20
-17.03039758094168
 10
134.7186513844101
 20
-17.03911933134168
 10
134.5999939108101
 20
-17.04585470574167
 10
134.4783276868101
 20
-17.05053516974167
 10
134.3540989780101
 20
-17.05310818574167
 10
134.2311385684101
 20
-17.05355336014167
  0
LWPOLYLINE
  5
1AA
330
2
100
AcDbEntity
  8
0
100
AcDbPolyline
 90
        4
 70
     0
 43
0.0
 10
128.8438008820101
 20
-14.69626460494168
 10
134.3159734388101
 20
-14.69634694414167
 10
139.6516719412101
 20
-14.69651540174167
 10
144.8465160180101
 20
-14.69622625614167
  0
LWPOLYLINE
  5
1AB
330
2
100
AcDbEntity
  8
0
100
AcDbPolyline
 90
       24
 70
     0
 43
0.0
 10
139.9888008820101
 20
-21.42885208334168
 10
139.0874778084101
 20
-21.33423435054167
 10
138.1851330436101
 20
-21.24392059854167
 10
137.28229116521
 20
-21.15915954894167
 10
136.3795334516101
 20
-21.08096729294167
 10
135.9281153124101
 20
-21.04458293774168
 10
135.4760520628101
 20
-21.01007716974167
 10
135.0226890708101
 20
-20.97748546414167
 10
134.5675409444101
 20
-20.94686240494167
 10
134.1103858212101
 20
-20.91827760174167
 10
133.6518866900101
 20
-20.89184164174167
 10
133.1927810244101
 20
-20.86766151214168
 10
132.7332193620101
 20
-20.84578885614168
 10
132.2727928612101
 20
-20.82624764974168
 10
131.8094420852101
 20
-20.80900655694168
 10
131.4977250772101
 20
-20.79877432014168
 10
131.1830505220101
 20
-20.78956864814168
 10
130.8648592548101
 20
-20.78141389934168
 10
130.5425359924101
 20
-20.77433953614168
 10
130.2152409732101
 20
-20.76839538734167
 10
129.8820783220101
 20
-20.76363637934167
 10
129.5423512388101
 20
-20.76012413294167
 10
129.1961592308101
 20
-20.75794704814168
 10
128.8438008820101
 20
-20.75720022094167
  0
LINE
  5
1AC
330
2
100
AcDbEntity
  8
0
100
AcDbLine
 10
164.7439349692982
 20
-12.69823679534168
 30
0.0
 11
92.94366679472203
 21
-12.69823679534168
 31
0.0
  0
LWPOLYLINE
  5
1AD
330
2
100
AcDbEntity
  8
0
100
AcDbPolyline
 90
       10
 70
     0
 43
0.0
 10
101.4671311780101
 20
-14.69744419854168
 10
105.2735995988101
 20
-14.69678952654167
 10
106.0792684692101
 20
-14.69675335854167
 10
106.8961418932101
 20
-14.69678069294167
 10
107.7218757444101
 20
-14.69687485134168
 10
108.5539947188101
 20
-14.69694607214167
 10
109.3917616612101
 20
-14.69687557134167
 10
110.2359427604101
 20
-14.69666353614167
 10
111.0861343732101
 20
-14.69641348814167
 10
111.9416130548101
 20
-14.69623659214168
  0
LWPOLYLINE
  5
1AE
330
2
100
AcDbEntity
  8
0
100
AcDbPolyline
 90
       27
 70
     0
 43
0.0
 10
112.2131789860101
 20
-22.10283835694168
 10
111.9408767620101
 20
-22.13757493934168
 10
111.6677934164101
 20
-22.17463731214167
 10
111.3940765796101
 20
-22.21397230734167
 10
111.1199808596101
 20
-22.25544788654168
 10
110.8457754996101
 20
-22.29889999854167
 10
110.5716813140101
 20
-22.34411540494168
 10
110.2979097732101
 20
-22.39085625614168
 10
110.0246834020101
 20
-22.43883546094168
 10
109.7523169780101
 20
-22.48772879054168
 10
109.4814832564101
 20
-22.53711269774167
 10
109.2129339844101
 20
-22.58653235854168
 10
108.9473789300101
 20
-22.63550714574167
 10
108.7723688740101
 20
-22.66766733774167
 10
108.5993147828101
 20
-22.69925709614168
 10
108.4285310724101
 20
-22.73012018734168
 10
108.2603198388101
 20
-22.76009967214168
 10
108.0949339076101
 20
-22.78903578574168
 10
107.9326137924101
 20
-22.81676804974168
 10
107.8130388004101
 20
-22.83667935214168
 10
107.6954759252101
 20
-22.85574749134168
 10
107.5800774740101
 20
-22.87389673934168
 10
107.4669957524101
 20
-22.89105136334168
 10
107.3563448852101
 20
-22.90714688494168
 10
107.2480862548101
 20
-22.92216384334167
 10
107.1421430644101
 20
-22.93609402894168
 10
107.0384385092101
 20
-22.94892923054168
  0
LWPOLYLINE
  5
1AF
330
2
100
AcDbEntity
  8
0
100
AcDbPolyline
 90
       11
 70
     0
 43
0.0
 10
100.50418401961
 20
-19.77778564014167
 10
100.5875753764101
 20
-20.04308709774167
 10
100.6913162964101
 20
-20.33567329454168
 10
100.8080782660101
 20
-20.65867969294168
 10
100.9318928052101
 20
-21.02035253134168
 10
101.0595564436101
 20
-21.42821972014167
 10
101.1943322388101
 20
-21.89275665934168
 10
101.3227059716101
 20
-22.35737988174168
 10
101.4418883716101
 20
-22.80359396974167
 10
101.5696696196101
 20
-23.30590158734167
 10
101.6778866340101
 20
-23.75984570254168
  0
LWPOLYLINE
  5
1B0
330
2
100
AcDbEntity
  8
0
100
AcDbPolyline
 90
       39
 70
     0
 43
0.0
 10
100.3423379188101
 20
-18.79653369134167
 10
100.3690184212101
 20
-18.85749444174168
 10
100.3876283620101
 20
-18.90028099374168
 10
100.4096211476101
 20
-18.95111536974168
 10
100.4350437028101
 20
-19.01023666254167
 10
100.4644684436101
 20
-19.07912579534168
 10
100.4982971252101
 20
-19.15891727854168
 10
100.5364552900101
 20
-19.24969420014168
 10
100.5756293252101
 20
-19.34376630894168
 10
100.6116918388101
 20
-19.43119418254168
 10
100.6456390564101
 20
-19.51435370734167
 10
100.6812491348101
 20
-19.60256388974168
 10
100.7215839508101
 20
-19.70363577774168
 10
100.7672963460101
 20
-19.81949141774168
 10
100.8177100180101
 20
-19.94857575054167
 10
100.8728152340101
 20
-20.09113369134168
 10
100.9327877316101
 20
-20.24793814574167
 10
100.9980921572101
 20
-20.42061456014168
 10
101.0693072276101
 20
-20.61122370894167
 10
101.1471035508101
 20
-20.82221776494167
 10
101.2322193796101
 20
-21.05647544814168
 10
101.3255370452101
 20
-21.31754677454168
 10
101.4282064884101
 20
-21.61008064014168
 10
101.5418240692101
 20
-21.94074032974167
 10
101.6678514260101
 20
-22.31658367694168
 10
101.8064598372101
 20
-22.74205256494167
 10
101.9476476804101
 20
-23.18984039854167
 10
102.0808004660101
 20
-23.62754399694168
 10
102.2045872628101
 20
-24.04954458094167
 10
102.3236822516101
 20
-24.47217670574168
 10
102.4470058260101
 20
-24.93163198574168
 10
102.5795300852101
 20
-25.45489365774168
 10
102.7076725860101
 20
-25.99335540814168
 10
102.8203580484101
 20
-26.49316693454167
 10
102.9148545284101
 20
-26.93044227534168
 10
102.9960320692101
 20
-27.31785607054168
 10
103.0676549524101
 20
-27.66619393134168
 10
103.1316246564101
 20
-27.98023825774168
 10
103.2411930132101
 20
-28.51956915054167
  0
LWPOLYLINE
  5
1B1
330
2
100
AcDbEntity
  8
0
100
AcDbPolyline
 90
       21
 70
     0
 43
0.0
 10
101.6778869892101
 20
-23.75984724654168
 10
101.7880220484101
 20
-24.25594265454167
 10
101.87736482441
 20
-24.68563151694167
 10
101.9568124708101
 20
-25.08985610894168
 10
102.0285985380101
 20
-25.47516019854167
 10
102.0944426372101
 20
-25.84779770094167
 10
102.1549665700101
 20
-26.20979088654168
 10
102.2102652324101
 20
-26.56087029774168
 10
102.2603673460101
 20
-26.90050724974168
 10
102.3052747620101
 20
-27.22808063054167
 10
102.3451381812101
 20
-27.54429228654167
 10
102.3800028772101
 20
-27.84996071694168
 10
102.4097341396101
 20
-28.14537394574168
 10
102.4340816612101
 20
-28.43110102414168
 10
102.4524506164101
 20
-28.70741691854168
 10
102.4657272212101
 20
-28.97384459534168
 10
102.4768778500101
 20
-29.23166188494167
 10
102.4899682260101
 20
-29.48183726574168
 10
102.5091816612101
 20
-29.72202304334167
 10
102.5388070372101
 20
-29.95046485934167
 10
102.5669745956101
 20
-30.10077951854167
  0
LWPOLYLINE
  5
1B2
330
2
100
AcDbEntity
  8
0
100
AcDbPolyline
 90
       15
 70
     0
 43
0.0
 10
101.6778869892101
 20
-23.75984724654168
 10
101.7035783748101
 20
-23.87235413934168
 10
101.8429076932101
 20
-24.51691558094168
 10
101.9853443028101
 20
-25.24057487694168
 10
102.1218284868101
 20
-26.00903493294168
 10
102.2299533940101
 20
-26.69156517614168
 10
102.3129327620101
 20
-27.28669028974167
 10
102.3750611044101
 20
-27.80444765294168
 10
102.4196437764101
 20
-28.25501501934168
 10
102.4490152628101
 20
-28.64900001934167
 10
102.4674858020101
 20
-29.01403770254168
 10
102.4818903524101
 20
-29.33760675214168
 10
102.5000745476101
 20
-29.62241929934167
 10
102.5273041108101
 20
-29.87392614254167
 10
102.5669745604101
 20
-30.10077934734168
  0
LWPOLYLINE
  5
1B3
330
2
100
AcDbEntity
  8
0
100
AcDbPolyline
 90
        3
 70
     0
 43
0.0
 10
103.2411930132101
 20
-28.51956915054167
 10
103.2878022084101
 20
-28.74800923854167
 10
103.4669352900101
 20
-29.62263626894167
  0
LWPOLYLINE
  5
1B4
330
2
100
AcDbEntity
  8
0
100
AcDbPolyline
 90
        4
 70
     0
 43
0.0
 10
103.4669352900101
 20
-29.62263626894167
 10
103.4998423764101
 20
-29.78253039854168
 10
103.5328405252101
 20
-29.94188599694167
 10
103.5658748772101
 20
-30.09994500814168
  0
LWPOLYLINE
  5
1B5
330
2
100
AcDbEntity
  8
0
100
AcDbPolyline
 90
        5
 70
     0
 43
0.0
 10
103.5658748772101
 20
-30.09994500814168
 10
103.6106265764101
 20
-30.27799766574168
 10
103.6697515428101
 20
-30.45416389134167
 10
103.7429888724101
 20
-30.62668615214167
 10
103.8304874740101
 20
-30.79503040014167
  0
LWPOLYLINE
  5
1B6
330
2
100
AcDbEntity
  8
0
100
AcDbPolyline
 90
        4
 70
     0
 43
0.0
 10
98.21120378281012
 20
-14.45583616814167
 10
97.73673886441011
 20
-13.67210876814167
 10
97.29050523881012
 20
-12.97880367214168
 10
97.0893698987648
 20
-12.69823679534169
  0
LWPOLYLINE
  5
1B7
330
2
100
AcDbEntity
  8
0
100
AcDbPolyline
 90
        6
 70
     0
 43
0.0
 10
93.41118415881011
 20
-14.69829205454167
 10
95.52508779881012
 20
-14.69796996494168
 10
95.9895589828101
 20
-14.69792421934168
 10
96.48648485961011
 20
-14.69788504814167
 10
97.01459053001011
 20
-14.69785132334167
 10
98.77231976361011
 20
-14.69776070574168
  0
LWPOLYLINE
  5
1B8
330
2
100
AcDbEntity
  8
0
100
AcDbPolyline
 90
        4
 70
     0
 43
0.0
 10
92.94366679472203
 20
-12.69823679534168
 10
92.89981340841013
 20
-13.17516331534167
 10
92.85810155401012
 20
-13.94438885134167
 10
92.84380706921011
 20
-14.69823679534167
  0
LINE
  5
1B9
330
2
100
AcDbEntity
  8
0
100
AcDbLine
 10
92.84380706921011
 20
-14.69823679534168
 30
0.0
 11
93.41118415881011
 21
-14.69829205454168
 31
0.0
  0
LWPOLYLINE
  5
1BA
330
2
100
AcDbEntity
  8
0
100
AcDbPolyline
 90
       10
 70
     0
 43
0.0
 10
100.50418401961
 20
-19.77778564014167
 10
100.4676876420101
 20
-19.63945295534168
 10
100.4365681892101
 20
-19.50083852334167
 10
100.4144506756101
 20
-19.38005178254167
 10
100.3991741060101
 20
-19.27253467694168
 10
100.3873033332101
 20
-19.16997132334167
 10
100.3770274356101
 20
-19.07074832974168
 10
100.3658264324101
 20
-18.96456280654168
 10
100.3503336980101
 20
-18.84664599054168
 10
100.3264229524101
 20
-18.76045216174168
  0
LINE
  5
1BB
330
2
100
AcDbEntity
  8
0
100
AcDbLine
 10
100.3264229524101
 20
-18.76045216174168
 30
0.0
 11
100.3423379188101
 21
-18.79653369134168
 31
0.0
  0
LWPOLYLINE
  5
1BC
330
2
100
AcDbEntity
  8
0
100
AcDbPolyline
 90
        3
 70
     0
 43
0.0
 10
98.77231976361011
 20
-14.69776070574168
 10
99.41129362121012
 20
-14.69771900494168
 10
101.4671311780101
 20
-14.69744419854168
  0
LINE
  5
1BD
330
2
100
AcDbEntity
  8
0
100
AcDbLine
 10
105.2735995988101
 20
-14.69678952654168
 30
0.0
 11
104.4809193204101
 21
-14.69687689134168
 31
0.0
  0
LWPOLYLINE
  5
1BE
330
2
100
AcDbEntity
  8
0
100
AcDbPolyline
 90
       31
 70
     0
 43
0.0
 10
117.6988008820101
 20
-21.42885208334168
 10
117.5336902868101
 20
-21.44663693294167
 10
117.3726093780101
 20
-21.46425560334167
 10
117.2156299700101
 20
-21.48167212654168
 10
117.0628238740101
 20
-21.49885053774168
 10
116.9142629060101
 20
-21.51575486894167
 10
116.7699695268101
 20
-21.53235629134167
 10
116.6297687908101
 20
-21.54865451854168
 10
116.4934364004101
 20
-21.56465640014168
 10
116.3607480580101
 20
-21.58036878734167
 10
116.2314794676101
 20
-21.59579853134168
 10
116.1054195380101
 20
-21.61095249614167
 10
115.9824099972101
 20
-21.62583761294168
 10
115.8623057844101
 20
-21.64046082094167
 10
115.7449618324101
 20
-21.65482906574168
 10
115.6302330788101
 20
-21.66894928814168
 10
115.4902720452101
 20
-21.68626376974168
 10
115.3538469572101
 20
-21.70322957294168
 10
115.2206341764101
 20
-21.71987469934168
 10
115.0903100644101
 20
-21.73622715534168
 10
114.9625545668101
 20
-21.75231547534168
 10
114.8370619588101
 20
-21.76817030254167
 10
114.7135301012101
 20
-21.78382281134167
 10
114.5916568516101
 20
-21.79930417454168
 10
114.4312002068101
 20
-21.81973740014167
 10
114.2723379620101
 20
-21.84001821774168
 10
114.1142530164101
 20
-21.86024305614167
 10
113.6398271252101
 20
-21.92112803694168
 10
113.1637496852101
 20
-21.98233888974167
 10
112.6876607652101
 20
-22.04325170254168
 10
112.2131789860101
 20
-22.10283835694168
  0
LWPOLYLINE
  5
1BF
330
2
100
AcDbEntity
  8
0
  6
HIDDEN
100
AcDbPolyline
 90
       27
 70
     0
 43
0.0
 10
123.4564632004101
 20
-17.05355336014167
 10
123.3332263540101
 20
-17.05310486094167
 10
123.2090011092101
 20
-17.05052710094167
 10
123.0873393780101
 20
-17.04584193294168
 10
122.9686874276101
 20
-17.03910192974167
 10
122.8534738436101
 20
-17.03037566254167
 10
122.7421086900101
 20
-17.01974827534168
 10
122.6349850164101
 20
-17.00732260174167
 10
122.5324858084101
 20
-16.99322168014167
 10
122.4349705652101
 20
-16.97758919214168
 10
122.3427678756101
 20
-16.96058981134167
 10
122.2561680420101
 20
-16.94240894094167
 10
122.1754242068101
 20
-16.92325382734168
 10
122.1007466612101
 20
-16.90335331374167
 10
122.0322874692101
 20
-16.88295390894167
 10
121.9701542548101
 20
-16.86232315374168
 10
121.9144102020101
 20
-16.84175058094167
 10
121.8650516852101
 20
-16.82153940334167
 10
121.8220128756101
 20
-16.80200543054168
 10
121.7851795908101
 20
-16.78348148494167
 10
121.7543788740101
 20
-16.76631161934167
 10
121.7293162564101
 20
-16.75080766574167
 10
121.7096398996101
 20
-16.73726978414167
 10
121.6950227764101
 20
-16.72604383214168
 10
121.6851406436101
 20
-16.71752945294167
 10
121.6796421252101
 20
-16.71218278094167
 10
121.6790708212101
 20
-16.71157759374167
  0
LWPOLYLINE
  5
1C0
330
2
100
AcDbEntity
  8
0
  6
HIDDEN
100
AcDbPolyline
 90
        4
 70
     0
 43
0.0
 10
122.0462475860101
 20
-18.39027311374167
 10
122.1939403140101
 20
-18.38703159534168
 10
122.3451449444101
 20
-18.38259555534168
 10
122.4939465412101
 20
-18.37714134254167
  0
LWPOLYLINE
  5
1C1
330
2
100
AcDbEntity
  8
0
100
AcDbPolyline
 90
        4
 70
     0
 43
0.0
 10
111.9416130548101
 20
-14.69623659214168
 10
118.0388911956101
 20
-14.69651533294167
 10
123.3740977364101
 20
-14.69634687374168
 10
128.8438008820101
 20
-14.69626460494168
  0
LWPOLYLINE
  5
1C2
330
2
100
AcDbEntity
  8
0
100
AcDbPolyline
 90
       24
 70
     0
 43
0.0
 10
128.8438008820101
 20
-20.75720022094167
 10
128.4902580052101
 20
-20.75795206894167
 10
128.1429424356101
 20
-20.76014343374168
 10
127.8021548228101
 20
-20.76367804494168
 10
127.4679953652101
 20
-20.76846639854167
 10
127.1397624388101
 20
-20.77444606414168
 10
126.8165539716101
 20
-20.78156137294168
 10
126.4975242004101
 20
-20.78976182734167
 10
126.1820526148101
 20
-20.79901758734167
 10
125.8695750148101
 20
-20.80930398094167
 10
125.4051428196101
 20
-20.82663330254168
 10
124.9437014724101
 20
-20.84627037134168
 10
124.4831803972101
 20
-20.86824599374168
 10
124.0231314148101
 20
-20.89253686894168
 10
123.5636372500101
 20
-20.91909442254168
 10
123.1052818884101
 20
-20.94782314574167
 10
122.6486406740101
 20
-20.97861991534168
 10
122.1937531156101
 20
-21.01139813134167
 10
121.7405154532101
 20
-21.04607457454167
 10
121.2887866772101
 20
-21.08256303054167
 10
120.3890615124101
 20
-21.16062968654168
 10
119.4924394660101
 20
-21.24489558734168
 10
118.5965074868101
 20
-21.33460609134167
 10
117.6988008820101
 20
-21.42885208334168
  0
LWPOLYLINE
  5
1C3
330
2
100
AcDbEntity
  8
0
  6
HIDDEN
100
AcDbPolyline
 90
       18
 70
     0
 43
0.0
 10
121.0262018436101
 20
-16.33296503214168
 10
121.0690126004101
 20
-16.32933030894167
 10
121.1118647300101
 20
-16.32896822894167
 10
121.1547356148101
 20
-16.33185210254167
 10
121.1976340788101
 20
-16.33799752494168
 10
121.2405610356101
 20
-16.34746416174168
 10
121.2835402308101
 20
-16.36036612014167
 10
121.3263630868101
 20
-16.37677924334167
 10
121.3687927396101
 20
-16.39675339214167
 10
121.4107488436101
 20
-16.42041494574168
 10
121.4521025380101
 20
-16.44790325134168
 10
121.4924512212101
 20
-16.47917345614168
 10
121.5313975348101
 20
-16.51411089934167
 10
121.5687685732101
 20
-16.55276642574168
 10
121.6042242644101
 20
-16.59502746894168
 10
121.6373366900101
 20
-16.64060680494168
 10
121.6677703444101
 20
-16.68924416654168
 10
121.6886968964101
 20
-16.72764977774167
  0
LWPOLYLINE
  5
1C4
330
2
100
AcDbEntity
  8
0
  6
HIDDEN
100
AcDbPolyline
 90
        4
 70
     0
 43
0.0
 10
121.0262018436101
 20
-16.33296503214168
 10
120.1374675412101
 20
-16.44917813614168
 10
119.2499356100101
 20
-16.57790925134167
 10
118.3637383380101
 20
-16.71914691694168
  0
LWPOLYLINE
  5
1C5
330
2
100
AcDbEntity
  8
0
  6
HIDDEN
100
AcDbPolyline
 90
       18
 70
     0
 43
0.0
 10
118.3030029220101
 20
-17.91843325454168
 10
118.4666440100101
 20
-17.97691172494167
 10
118.6475749924101
 20
-18.03417698734168
 10
118.8360237956101
 20
-18.08679575854167
 10
119.0315930500101
 20
-18.13488969774167
 10
119.2338567396101
 20
-18.17856507854168
 10
119.4423939828101
 20
-18.21792371374167
 10
119.6568700516101
 20
-18.25307511054168
 10
119.8769640148101
 20
-18.28411812334167
 10
120.1023404644101
 20
-18.31113826574168
 10
120.3326273604101
 20
-18.33420866414167
 10
120.5674397092101
 20
-18.35339606094167
 10
120.8063858756101
 20
-18.36876265774167
 10
121.0490671476101
 20
-18.38036680814168
 10
121.2950792964101
 20
-18.38826368494167
 10
121.5440117188101
 20
-18.39250568174168
 10
121.7954568788101
 20
-18.39314282414167
 10
122.0462475972101
 20
-18.39027311214167
  0
LWPOLYLINE
  5
1C6
330
2
100
AcDbEntity
  8
0
  6
HIDDEN
100
AcDbPolyline
 90
       13
 70
     0
 43
0.0
 10
118.3030029236101
 20
-17.91843324814168
 10
118.2611253508101
 20
-17.90080833934168
 10
118.2201223636101
 20
-17.87992617614168
 10
118.1810980692101
 20
-17.85628832974168
 10
118.1446254404101
 20
-17.83032890414168
 10
118.1110291028101
 20
-17.80243635694167
 10
118.0804109988101
 20
-17.77287078254168
 10
118.0529861508101
 20
-17.74203574734168
 10
118.0289071796101
 20
-17.71036277774167
 10
118.0081585972101
 20
-17.67813806734167
 10
117.9907246996101
 20
-17.64567776174168
 10
117.9765468164101
 20
-17.61327203534168
 10
117.9655610100101
 20
-17.58128519694167
  0
LWPOLYLINE
  5
1C7
330
2
100
AcDbEntity
  8
0
  6
HIDDEN
100
AcDbPolyline
 90
        8
 70
     0
 43
0.0
 10
118.6003021652101
 20
-17.95147925294168
 10
118.5620298084101
 20
-17.95629136654167
 10
118.5212352388101
 20
-17.95826166094168
 10
118.4787349124101
 20
-17.95706800654168
 10
118.4352059044101
 20
-17.95254888494167
 10
118.3911346164101
 20
-17.94462574894168
 10
118.3470419700101
 20
-17.93329014734168
 10
118.3030029236101
 20
-17.91843324814168
  0
LWPOLYLINE
  5
1C8
330
2
100
AcDbEntity
  8
0
  6
HIDDEN
100
AcDbPolyline
 90
        3
 70
     0
 43
0.0
 10
117.9655610100101
 20
-17.58128519694167
 10
117.9406766020101
 20
-17.49703053294167
 10
117.9160367700101
 20
-17.41223132014168
  0
LWPOLYLINE
  5
1C9
330
2
100
AcDbEntity
  8
0
  6
HIDDEN
100
AcDbPolyline
 90
       24
 70
     0
 43
0.0
 10
117.9160367700101
 20
-17.41223132014168
 10
117.9048861140101
 20
-17.36774845934168
 10
117.8971551364101
 20
-17.32395649294167
 10
117.8927147988101
 20
-17.28103266894167
 10
117.8914271940101
 20
-17.23909418574167
 10
117.8931606692101
 20
-17.19822988334168
 10
117.8977892068101
 20
-17.15854712654167
 10
117.9052045444101
 20
-17.12007459214167
 10
117.9153008196101
 20
-17.08290147214168
 10
117.9279857284101
 20
-17.04708339374167
 10
117.9432052580101
 20
-17.01261735214167
 10
117.9608786484101
 20
-16.97960050094168
 10
117.9809865812101
 20
-16.94803292334168
 10
118.0035050756101
 20
-16.91796645774168
 10
118.0283923604101
 20
-16.88949308974167
 10
118.0557091956101
 20
-16.86261351534168
 10
118.0854190036101
 20
-16.83745915374167
 10
118.1175610676101
 20
-16.81410519374168
 10
118.1522002964101
 20
-16.79264068494167
 10
118.1893151140101
 20
-16.77322909134167
 10
118.2290294148101
 20
-16.75597607854167
 10
118.2713005300101
 20
-16.74108817134167
 10
118.3162041108101
 20
-16.72873856334168
 10
118.3637383380101
 20
-16.71914691694168
  0
LWPOLYLINE
  5
1CA
330
2
100
AcDbEntity
  8
0
  6
HIDDEN
100
AcDbPolyline
 90
        4
 70
     0
 43
0.0
 10
121.6790708212101
 20
-16.71157759374167
 10
121.6781393764101
 20
-16.71054491054168
 10
121.6801472372101
 20
-16.71322967854168
 10
121.6849944372101
 20
-16.72085659534168
  0
LWPOLYLINE
  5
1CB
330
2
100
AcDbEntity
  8
0
  6
HIDDEN
100
AcDbPolyline
 90
        7
 70
     0
 43
0.0
 10
121.6886968964101
 20
-16.72764977774167
 10
121.6952366468101
 20
-16.74069687374168
 10
121.7193000708101
 20
-16.79432707854168
 10
121.7396315268101
 20
-16.84944049454168
 10
121.7560903908101
 20
-16.90561184654167
 10
121.7685162260101
 20
-16.96215189934167
 10
121.7768381940101
 20
-17.01825126254168
  0
LINE
  5
1CC
330
2
100
AcDbEntity
  8
0
100
AcDbLine
 10
118.0388911956101
 20
-14.69651533294168
 30
0.0
 11
112.8410857476101
 21
-14.69622625614168
 31
0.0
  0
LINE
  5
1CD
330
2
100
AcDbEntity
  8
0
100
AcDbLine
 10
112.8410857476101
 20
-14.69622505134168
 30
0.0
 11
112.8410899876101
 21
-14.71424851694168
 31
0.0
  0
LINE
  5
1CE
330
2
100
AcDbEntity
  8
0
100
AcDbLine
 10
111.9416130564101
 20
-14.69623658734168
 30
0.0
 11
111.9423626388101
 21
-14.71424915534169
 31
0.0
  0
LINE
  5
1CF
330
2
100
AcDbEntity
  8
CENTER
 48
4.0
100
AcDbLine
 10
128.8438008820101
 20
-19.40858747781566
 30
0.0
 11
128.8438008820101
 21
-12.93259571823105
 31
0.0
  0
LWPOLYLINE
  5
1D0
330
2
100
AcDbEntity
  8
0
100
AcDbPolyline
 90
       20
 70
     0
 43
0.0
 10
130.0315925540101
 20
-16.20851154414168
 10
130.0272557044101
 20
-16.30924260494167
 10
130.0141967764101
 20
-16.40999747374168
 10
129.9922417236101
 20
-16.51028033934167
 10
129.9613618068101
 20
-16.60922652014167
 10
129.9217270612101
 20
-16.70565806574167
 10
129.8748912196101
 20
-16.79619191214167
 10
129.8230883972101
 20
-16.87850443694168
 10
129.7682501108101
 20
-16.95204552494168
 10
129.7111108308101
 20
-17.01776916494168
 10
129.6504679972101
 20
-17.07802091374168
 10
129.5845775908101
 20
-17.13455902414168
 10
129.5119599412101
 20
-17.18798342414167
 10
129.4316106132101
 20
-17.23794064334167
 10
129.3435491204101
 20
-17.28318704654168
 10
129.2491356900101
 20
-17.32199492014167
 10
129.1507564980101
 20
-17.35282996494167
 10
129.0497997236101
 20
-17.37509053934168
 10
128.9471550836101
 20
-17.38853068014168
 10
128.8438008820101
 20
-17.39301759854167
  0
LWPOLYLINE
  5
1D1
330
2
100
AcDbEntity
  8
0
100
AcDbPolyline
 90
       20
 70
     0
 43
0.0
 10
130.03130088201
 20
-16.19811346734168
 10
130.0270527636101
 20
-16.29812539214168
 10
130.0139746740101
 20
-16.39953323854167
 10
129.9919568148101
 20
-16.50020959854167
 10
129.96138497641
 20
-16.59816785934168
 10
129.9223083508101
 20
-16.69333220814168
 10
129.8759481652101
 20
-16.78323399534167
 10
129.8248609700101
 20
-16.86476819374168
 10
129.7704163396101
 20
-16.93802878254167
 10
129.7137614564101
 20
-17.00337131854168
 10
129.6531463300101
 20
-17.06378989774168
 10
129.5861639300101
 20
-17.12140344494167
 10
129.5122907540101
 20
-17.17576592974168
 10
129.4311909476101
 20
-17.22611169934168
 10
129.3426308740101
 20
-17.27149119534168
 10
129.2481884612101
 20
-17.31018055694167
 10
129.1497295236101
 20
-17.34092226094168
 10
129.0489373428101
 20
-17.36304500174168
 10
128.9466922660101
 20
-17.37636594734168
 10
128.8438008820101
 20
-17.38080994414167
  0
LWPOLYLINE
  5
1D2
330
2
100
AcDbEntity
  8
0
100
AcDbPolyline
 90
       20
 70
     0
 43
0.0
 10
128.8438008820101
 20
-17.39301759694167
 10
128.7403838596101
 20
-17.38852518254168
 10
128.6377620884101
 20
-17.37508374894167
 10
128.5368526868101
 20
-17.35283203854167
 10
128.4384861428101
 20
-17.32200245454167
 10
128.3440109604101
 20
-17.28316777454168
 10
128.2558239332101
 20
-17.23784618254167
 10
128.1753617172101
 20
-17.18779364814167
 10
128.1026921924101
 20
-17.13429498094167
 10
128.03682823721
 20
-17.07773742734167
 10
127.9762559812101
 20
-17.01751851694167
 10
127.9192003044101
 20
-16.95185954894168
 10
127.8644496948101
 20
-16.87840975374167
 10
127.8126861972101
 20
-16.79615261134168
 10
127.7658619220101
 20
-16.70562785454167
 10
127.7262149060101
 20
-16.60915583054168
 10
127.6953218916101
 20
-16.51013910254168
 10
127.6733751652101
 20
-16.40982477614167
 10
127.6603345492101
 20
-16.30910618254168
 10
127.6560092100101
 20
-16.20851154094168
  0
LWPOLYLINE
  5
1D3
330
2
100
AcDbEntity
  8
0
100
AcDbPolyline
 90
       20
 70
     0
 43
0.0
 10
128.8438008820101
 20
-17.38080994414167
 10
128.7413241908101
 20
-17.37640176494167
 10
128.6395297252101
 20
-17.36319568974167
 10
128.5394011428101
 20
-17.34132683214167
 10
128.4413997380101
 20
-17.31089454414167
 10
128.34653312521
 20
-17.27220949934168
 10
128.2567032948101
 20
-17.22627731854167
 10
128.1742640932101
 20
-17.17505538094168
 10
128.0992989060101
 20
-17.11969410094168
 10
128.0316693300101
 20
-17.06119833934168
 10
127.9709915108101
 20
-17.00030781614168
 10
127.9145122660101
 20
-16.93469545134168
 10
127.8603379604101
 20
-16.86124596334167
 10
127.8096100580101
 20
-16.77964177774167
 10
127.7636752772101
 20
-16.68981879374167
 10
127.7250858228101
 20
-16.59501683694168
 10
127.6948707652101
 20
-16.49727239054168
 10
127.6731591396101
 20
-16.39681438574167
 10
127.6603847492101
 20
-16.29617628334168
 10
127.6563008820101
 20
-16.19811346734168
  0
LWPOLYLINE
  5
1D4
330
2
100
AcDbEntity
  8
0
  6
HIDDEN
100
AcDbPolyline
 90
       18
 70
     0
 43
0.0
 10
134.2311385188101
 20
-17.05355335854167
 10
133.6039715780101
 20
-17.05073838254168
 10
132.9723908676101
 20
-17.04816685934167
 10
132.3394644868101
 20
-17.04589097454167
 10
131.7054009540101
 20
-17.04394391214168
 10
131.0704118308101
 20
-17.04235327214168
 10
130.4347074820101
 20
-17.04114108974168
 10
129.7984954484101
 20
-17.04032385294168
 10
129.1619789924101
 20
-17.03991253614168
 10
128.5253610932101
 20
-17.03991262094167
 10
127.8888447396101
 20
-17.04032410734167
 10
127.2526329284101
 20
-17.04114150894167
 10
126.6169289300101
 20
-17.04235384974167
 10
125.9819402644101
 20
-17.04394464014167
 10
125.3478772612101
 20
-17.04589184334167
 10
124.7149514324101
 20
-17.04816785614167
 10
124.0833712724101
 20
-17.05073949294167
 10
123.4564632452101
 20
-17.05355335854167
  0
LWPOLYLINE
  5
1D5
330
2
100
AcDbEntity
  8
0
100
AcDbPolyline
 90
       20
 70
     0
 43
0.0
 10
127.6568163252101
 20
-16.16411921134168
 10
127.6610424052101
 20
-16.09246590094167
 10
127.6749166036101
 20
-15.98939629294167
 10
127.6973157380101
 20
-15.88979017454167
 10
127.7272101860101
 20
-15.79532283694168
 10
127.7632667540101
 20
-15.70729956014167
 10
127.8045848292101
 20
-15.62552731854168
 10
127.8508576804101
 20
-15.54910661614168
 10
127.9019757380101
 20
-15.47742459374167
 10
127.9582314708101
 20
-15.40979781454167
 10
128.0198803972101
 20
-15.34602551054168
 10
128.0876042308101
 20
-15.28582335214167
 10
128.1621773652101
 20
-15.22924908494168
 10
128.2443400580101
 20
-15.17675716014167
 10
128.3336422612101
 20
-15.12969577934167
 10
128.4291729636101
 20
-15.08942220014168
 10
128.5298864196101
 20
-15.05705433934167
 10
128.6334248548101
 20
-15.03368699374168
 10
128.7382948516101
 20
-15.01965504974168
 10
128.8438008820101
 20
-15.01497728334167
  0
LWPOLYLINE
  5
1D6
330
2
100
AcDbEntity
  8
0
100
AcDbPolyline
 90
       20
 70
     0
 43
0.0
 10
127.6565051780101
 20
-16.17420834414167
 10
127.6606755732101
 20
-16.10339778254167
 10
127.6745896916101
 20
-15.99972455694168
 10
127.6972526708101
 20
-15.89916098414167
 10
127.7274342356101
 20
-15.80420936334168
 10
127.7637163540101
 20
-15.71606529774167
 10
127.8051015796101
 20
-15.63451830894168
 10
127.8511977492101
 20
-15.55864217934167
 10
127.9020531636101
 20
-15.48748299854167
 10
127.9580984228101
 20
-15.42019805774168
 10
128.0196305540101
 20
-15.35659910734167
 10
128.0873282596101
 20
-15.29645466734167
 10
128.16183405001
 20
-15.23995373134168
 10
128.2438077380101
 20
-15.18758409774167
 10
128.33323915881
 20
-15.14044687534168
 10
128.4291380724101
 20
-15.10002991054167
 10
128.5295468116101
 20
-15.06776824174167
 10
128.6329675732101
 20
-15.04440859374168
 10
128.7381741988101
 20
-15.03031624494167
 10
128.8438008820101
 20
-15.02563138254167
  0
LINE
  5
1D7
330
2
100
AcDbEntity
  8
CENTER
 48
4.0
100
AcDbLine
 10
132.0817967618024
 20
-16.17059159802335
 30
0.0
 11
125.6058050022178
 21
-16.17059159802335
 31
0.0
  0
LINE
  5
1D8
330
2
100
AcDbEntity
  8
0
100
AcDbLine
 10
127.6567922740101
 20
-16.16411851054169
 30
0.0
 11
127.6565007876101
 21
-16.17420821774168
 31
0.0
  0
LINE
  5
1D9
330
2
100
AcDbEntity
  8
0
100
AcDbLine
 10
127.6563008820101
 20
-16.19811346734169
 30
0.0
 11
127.6560092100101
 21
-16.20851154094169
 31
0.0
  0
LINE
  5
1DA
330
2
100
AcDbEntity
  8
0
100
AcDbLine
 10
127.6563008820101
 20
-16.19811346734169
 30
0.0
 11
127.6568163252101
 21
-16.16411921134169
 31
0.0
  0
LINE
  5
1DB
330
2
100
AcDbEntity
  8
0
100
AcDbLine
 10
127.6560092100101
 20
-16.20851154094169
 30
0.0
 11
127.6565051780101
 21
-16.17420834414168
 31
0.0
  0
LINE
  5
1DC
330
2
100
AcDbEntity
  8
0
100
AcDbLine
 10
130.0310931044101
 20
-16.17419247214169
 30
0.0
 11
130.0315925540101
 21
-16.20851154414169
 31
0.0
  0
LINE
  5
1DD
330
2
100
AcDbEntity
  8
0
100
AcDbLine
 10
130.0307899652101
 20
-16.16410358734169
 30
0.0
 11
130.03130088201
 21
-16.19811346734169
 31
0.0
  0
LINE
  5
1DE
330
2
100
AcDbEntity
  8
0
100
AcDbLine
 10
130.03130088201
 20
-16.19811346734169
 30
0.0
 11
130.0315925540101
 21
-16.20851154414169
 31
0.0
  0
LINE
  5
1DF
330
2
100
AcDbEntity
  8
0
100
AcDbLine
 10
130.0311008052101
 20
-16.17419224814168
 30
0.0
 11
130.0308093236101
 21
-16.16410302574168
 31
0.0
  0
LWPOLYLINE
  5
1E0
330
2
100
AcDbEntity
  8
0
100
AcDbPolyline
 90
       20
 70
     0
 43
0.0
 10
128.8438008820101
 20
-15.02563138254167
 10
128.9494530228101
 20
-15.03031880334168
 10
129.0545005012101
 20
-15.04438403854168
 10
129.1575732244101
 20
-15.06763896974168
 10
129.2575069700101
 20
-15.09967438254167
 10
129.3529019620101
 20
-15.13975614414168
 10
129.4420913940101
 20
-15.18659560654167
 10
129.5241958692101
 20
-15.23885650414167
 10
129.5990318580101
 20
-15.29543482094168
 10
129.6671022244101
 20
-15.35576464174168
 10
129.7289661444101
 20
-15.41959974414167
 10
129.7852775364101
 20
-15.48713172334167
 10
129.8363730388101
 20
-15.55859271374167
 10
129.8826371604101
 20
-15.63476540814167
 10
129.9240750132101
 20
-15.71647387694167
 10
129.9603182516101
 20
-15.80462248814167
 10
129.9904218084101
 20
-15.89942915374168
 10
130.0130229124101
 20
-15.99978906254168
 10
130.0269206644101
 20
-16.10333251854167
 10
130.0310931044101
 20
-16.17419247214168
  0
LWPOLYLINE
  5
1E1
330
2
100
AcDbEntity
  8
0
100
AcDbPolyline
 90
       21
 70
     0
 43
0.0
 10
128.8438008820101
 20
-15.01497728334167
 10
128.9440218660101
 20
-15.01919732814168
 10
129.0437004916101
 20
-15.03185678894168
 10
129.1422415316101
 20
-15.05294112334168
 10
129.2386120244101
 20
-15.08226592974168
 10
129.3306902388101
 20
-15.11897382574167
 10
129.4173119044101
 20
-15.16207344814168
 10
129.4977187444101
 20
-15.21047788814168
 10
129.5712643796101
 20
-15.26292003534168
 10
129.6382913780101
 20
-15.31872071374168
 10
129.6994818148101
 20
-15.37768535054168
 10
129.7555366852101
 20
-15.43998595694168
 10
129.8068295572101
 20
-15.50580063534168
 10
129.8535989748101
 20
-15.57545934414167
 10
129.8960108772101
 20
-15.64959343054168
 10
129.93389941641
 20
-15.72876772174167
 10
129.9669255268101
 20
-15.81378351694168
 10
129.9941645764101
 20
-15.90448582254167
 10
130.0144789300101
 20
-15.99963084014167
 10
130.0270246276101
 20
-16.09777318094167
 10
130.0307899652101
 20
-16.16410358734168
  0
LINE
  5
1E2
330
2
100
AcDbEntity
  8
0
100
AcDbLine
 10
134.3159734388101
 20
-14.69634694414168
 30
0.0
 11
134.3135040276101
 21
-14.69634687374169
 31
0.0
  0
LWPOLYLINE
  5
1E3
330
2
100
AcDbEntity
  8
0
100
AcDbPolyline
 90
        7
 70
     0
 43
0.0
 10
158.9152820004101
 20
-14.69776070574168
 10
160.6730112340101
 20
-14.69785132334167
 10
161.2011169044101
 20
-14.69788504814167
 10
161.6980427812101
 20
-14.69792421934168
 10
162.1625139652101
 20
-14.69796996494168
 10
162.5933079540101
 20
-14.69802144814168
 10
162.9892180740101
 20
-14.69807808014167
  0
LWPOLYLINE
  5
1E4
330
2
100
AcDbEntity
  8
0
100
AcDbPolyline
 90
        4
 70
     0
 43
0.0
 10
159.4763979828101
 20
-14.45583616814167
 10
159.9508628996101
 20
-13.67210876814167
 10
160.3970965252101
 20
-12.97880367214168
 10
160.5982318652554
 20
-12.69823679534168
  0
LWPOLYLINE
  5
1E5
330
2
100
AcDbEntity
  8
0
100
AcDbPolyline
 90
       36
 70
     0
 43
0.0
 10
157.29997340201
 20
-18.90028099374168
 10
157.2779806164101
 20
-18.95111536974168
 10
157.2525580612101
 20
-19.01023666254167
 10
157.2231333204101
 20
-19.07912579534168
 10
157.1893046388101
 20
-19.15891727854168
 10
157.1511464740101
 20
-19.24969420014168
 10
157.1119724388101
 20
-19.34376630894168
 10
157.0759099268101
 20
-19.43119418254168
 10
157.0419627076101
 20
-19.51435370734167
 10
157.0063526292101
 20
-19.60256388974168
 10
156.9660178132101
 20
-19.70363577774168
 10
156.9203054180101
 20
-19.81949141774168
 10
156.8698917460101
 20
-19.94857575054167
 10
156.8147865300101
 20
-20.09113369134168
 10
156.75481403401
 20
-20.24793814574167
 10
156.6895096068101
 20
-20.42061456014168
 10
156.6182945364101
 20
-20.61122370894167
 10
156.5404982132101
 20
-20.82221776494167
 10
156.4553823844101
 20
-21.05647544814168
 10
156.3620647188101
 20
-21.31754677454168
 10
156.2593952756101
 20
-21.61008064014168
 10
156.1457776948101
 20
-21.94074032974167
 10
156.0197503396101
 20
-22.31658367694168
 10
155.8811419268101
 20
-22.74205256494167
 10
155.7399540836101
 20
-23.18984039854167
 10
155.6068012980101
 20
-23.62754399694168
 10
155.4830145012101
 20
-24.04954458094167
 10
155.3639195124101
 20
-24.47217670574168
 10
155.2405959380101
 20
-24.93163198574168
 10
155.1080716788101
 20
-25.45489365774168
 10
154.9799291780101
 20
-25.99335540814168
 10
154.8672437156101
 20
-26.49316693454167
 10
154.77274723561
 20
-26.93044227534168
 10
154.6915696948101
 20
-27.31785607054168
 10
154.6199468116101
 20
-27.66619393134168
 10
154.5559771076101
 20
-27.98023825774168
  0
LWPOLYLINE
  5
1E6
330
2
100
AcDbEntity
  8
0
100
AcDbPolyline
 90
       31
 70
     0
 43
0.0
 10
145.4744227780101
 20
-22.10283835694168
 10
144.9989401188101
 20
-22.04312442894168
 10
144.5217715940101
 20
-21.98207163534168
 10
144.0446003748101
 20
-21.92071998414167
 10
143.5691404244101
 20
-21.85970420334168
 10
143.4107930356101
 20
-21.83944684974167
 10
143.25172748521
 20
-21.81914139214168
 10
143.0911298500101
 20
-21.79869183854167
 10
142.9691932772101
 20
-21.78320389614167
 10
142.8456339508101
 20
-21.76754958734167
 10
142.72014874761
 20
-21.75169759854168
 10
142.5924345396101
 20
-21.73561661454167
 10
142.4621847236101
 20
-21.71927585294167
 10
142.3290787684101
 20
-21.70264667694168
 10
142.1927926628101
 20
-21.68570098414168
 10
142.0530023940101
 20
-21.66841066894168
 10
141.9384328804101
 20
-21.65431263374168
 10
141.8212680548101
 20
-21.63996902574167
 10
141.7013626372101
 20
-21.62537281614167
 10
141.5785713460101
 20
-21.61051697774168
 10
141.4527488996101
 20
-21.59539448014168
 10
141.3237367924101
 20
-21.57999829774168
 10
141.1913236036101
 20
-21.56432142094168
 10
141.0552846916101
 20
-21.54835684014167
 10
140.9153954084101
 20
-21.53209754734167
 10
140.7714311108101
 20
-21.51553653614168
 10
140.6232165860101
 20
-21.49867393134167
 10
140.4707743524101
 20
-21.48153839214168
 10
140.3141763556101
 20
-21.46416570894167
 10
140.1534945492101
 20
-21.44659167534168
 10
139.9888008820101
 20
-21.42885208334168
  0
LWPOLYLINE
  5
1E7
330
2
100
AcDbEntity
  8
0
100
AcDbPolyline
 90
       27
 70
     0
 43
0.0
 10
150.6491632548101
 20
-22.94892923054168
 10
150.5454586996101
 20
-22.93609402894168
 10
150.4395155076101
 20
-22.92216384334167
 10
150.3312568788101
 20
-22.90714688494168
 10
150.2206060100101
 20
-22.89105136174168
 10
150.10752428841
 20
-22.87389673934168
 10
149.9921258356101
 20
-22.85574749134168
 10
149.8745629604101
 20
-22.83667935054168
 10
149.7549879700101
 20
-22.81676804974168
 10
149.5926678532101
 20
-22.78903578414168
 10
149.4272819236101
 20
-22.76009967214168
 10
149.25907069001
 20
-22.73012018734168
 10
149.0882869796101
 20
-22.69925709454168
 10
148.9152328900101
 20
-22.66766733774167
 10
148.7402228324101
 20
-22.63550714574167
 10
148.4746677796101
 20
-22.58653235854168
 10
148.2061185076101
 20
-22.53711269774167
 10
147.9352847860101
 20
-22.48772879054168
 10
147.6629183620101
 20
-22.43883546094168
 10
147.3896919892101
 20
-22.39085625614168
 10
147.1159204500101
 20
-22.34411540494168
 10
146.8418262644101
 20
-22.29889999854167
 10
146.5676209044101
 20
-22.25544788654168
 10
146.2935251844101
 20
-22.21397230734167
 10
146.0198083476101
 20
-22.17463731214167
 10
145.7467250020101
 20
-22.13757493934168
 10
145.4744227780101
 20
-22.10283835694168
  0
LWPOLYLINE
  5
1E8
330
2
100
AcDbEntity
  8
0
100
AcDbPolyline
 90
        6
 70
     0
 43
0.0
 10
154.1217268868101
 20
-30.09994500814168
 10
154.0769740500101
 20
-30.27800154894168
 10
154.01784922761
 20
-30.45416651054168
 10
153.9446121828101
 20
-30.62668765454167
 10
153.8571139508101
 20
-30.79503099534167
 10
153.7548264116101
 20
-30.95929930414168
  0
LWPOLYLINE
  5
1E9
330
2
100
AcDbEntity
  8
0
100
AcDbPolyline
 90
        6
 70
     0
 43
0.0
 10
154.3997995572101
 20
-28.74800923854167
 10
154.2534128324101
 20
-29.46294042734168
 10
154.2206664740101
 20
-29.62263626894167
 10
154.1877593876101
 20
-29.78253039854168
 10
154.1547612388101
 20
-29.94188599694167
 10
154.1217268868101
 20
-30.09994500814168
  0
LWPOLYLINE
  5
1EA
330
2
100
AcDbEntity
  8
0
100
AcDbPolyline
 90
        3
 70
     0
 43
0.0
 10
154.5559771076101
 20
-27.98023825774168
 10
154.4464087508101
 20
-28.51956915054167
 10
154.3997995572101
 20
-28.74800923854167
  0
LWPOLYLINE
  5
1EB
330
2
100
AcDbEntity
  8
0
100
AcDbPolyline
 90
        8
 70
     0
 43
0.0
 10
145.7459887092101
 20
-14.69623659214168
 10
146.6014673908101
 20
-14.69641348814167
 10
147.4516590036101
 20
-14.69666353614167
 10
148.2958401028101
 20
-14.69687557134167
 10
149.1336070452101
 20
-14.69694607214167
 10
149.9657260196101
 20
-14.69687485134168
 10
150.7914598708101
 20
-14.69678069294167
 10
151.6083332948101
 20
-14.69675335854167
  0
LWPOLYLINE
  5
1EC
330
2
100
AcDbEntity
  8
0
  6
HIDDEN
100
AcDbPolyline
 90
       18
 70
     0
 43
0.0
 10
135.9989048724101
 20
-16.72764976814167
 10
136.0198314196101
 20
-16.68924416654168
 10
136.0502650740101
 20
-16.64060680494168
 10
136.0833774996101
 20
-16.59502746894168
 10
136.1188331924101
 20
-16.55276642574168
 10
136.1562042292101
 20
-16.51411089934167
 10
136.1951505428101
 20
-16.47917345614168
 10
136.2354992260101
 20
-16.44790325134168
 10
136.2768529204101
 20
-16.42041494574168
 10
136.3188090244101
 20
-16.39675339214167
 10
136.3612386772101
 20
-16.37677924334167
 10
136.40406153321
 20
-16.36036612014167
 10
136.4470407284101
 20
-16.34746416174168
 10
136.4899676852101
 20
-16.33799752494168
 10
136.5328661492101
 20
-16.33185210254167
 10
136.5757370356101
 20
-16.32896822894167
 10
136.6185891636101
 20
-16.32933030894167
 10
136.6613999204101
 20
-16.33296503214168
  0
LWPOLYLINE
  5
1ED
330
2
100
AcDbEntity
  8
0
  6
HIDDEN
100
AcDbPolyline
 90
        4
 70
     0
 43
0.0
 10
139.3238634244101
 20
-16.71914691694168
 10
138.4376661556101
 20
-16.57790925134167
 10
137.5501342228101
 20
-16.44917813614168
 10
136.6613999204101
 20
-16.33296503214168
  0
LWPOLYLINE
  5
1EE
330
2
100
AcDbEntity
  8
0
  6
HIDDEN
100
AcDbPolyline
 90
       18
 70
     0
 43
0.0
 10
135.6413541652101
 20
-18.39027311054167
 10
135.8919000228101
 20
-18.39314170894167
 10
136.1433494004101
 20
-18.39250801774167
 10
136.3922859876101
 20
-18.38826947374167
 10
136.6383021604101
 20
-18.38037607054167
 10
136.8809874868101
 20
-18.36877543374168
 10
137.11993782761
 20
-18.35341240014168
 10
137.3547545396101
 20
-18.33422862254168
 10
137.5850459812101
 20
-18.31116191534167
 10
137.8104271348101
 20
-18.28414555214168
 10
138.0305259508101
 20
-18.25310642894167
 10
138.2450070580101
 20
-18.21795904174168
 10
138.4535495764101
 20
-18.17860455214167
 10
138.6558188532101
 20
-18.13493345934168
 10
138.8513942020101
 20
-18.08684391694168
 10
139.0398498100101
 20
-18.03422958894167
 10
139.2207884692101
 20
-17.97696874094167
 10
139.3845988852101
 20
-17.91843323854168
  0
LWPOLYLINE
  5
1EF
330
2
100
AcDbEntity
  8
0
  6
HIDDEN
100
AcDbPolyline
 90
        4
 70
     0
 43
0.0
 10
135.1936552228101
 20
-18.37714134254167
 10
135.3422049764101
 20
-18.38258723214168
 10
135.4934105300101
 20
-18.38702516654167
 10
135.6413541780101
 20
-18.39027311374167
  0
LWPOLYLINE
  5
1F0
330
2
100
AcDbEntity
  8
0
  6
HIDDEN
100
AcDbPolyline
 90
        7
 70
     0
 43
0.0
 10
135.9107635700101
 20
-17.01825126254168
 10
135.9190855380101
 20
-16.96215189934167
 10
135.9315113732101
 20
-16.90561184654167
 10
135.9479702372101
 20
-16.84944049454168
 10
135.9683016932101
 20
-16.79432707854168
 10
135.9923651188101
 20
-16.74069687374168
 10
135.9989048724101
 20
-16.72764976814167
  0
LWPOLYLINE
  5
1F1
330
2
100
AcDbEntity
  8
0
  6
HIDDEN
100
AcDbPolyline
 90
        3
 70
     0
 43
0.0
 10
136.00262271081
 20
-16.72083014734167
 10
136.0074637092101
 20
-16.71321663534168
 10
136.0093657156101
 20
-16.71066326094168
  0
LWPOLYLINE
  5
1F2
330
2
100
AcDbEntity
  8
0
  6
HIDDEN
100
AcDbPolyline
 90
       24
 70
     0
 43
0.0
 10
139.3238634244101
 20
-16.71914691694168
 10
139.3713976532101
 20
-16.72873856334168
 10
139.4163012356101
 20
-16.74108817134167
 10
139.4585723508101
 20
-16.75597607854167
 10
139.4982866516101
 20
-16.77322909134167
 10
139.5354014692101
 20
-16.79264068494167
 10
139.5700406980101
 20
-16.81410519214168
 10
139.6021827604101
 20
-16.83745915214167
 10
139.6318925668101
 20
-16.86261351374167
 10
139.6592094020101
 20
-16.88949308814167
 10
139.6840966868101
 20
-16.91796645454168
 10
139.7066151828101
 20
-16.94803292174168
 10
139.7267231156101
 20
-16.97960049934168
 10
139.7443965076101
 20
-17.01261735214167
 10
139.7596160372101
 20
-17.04708339214167
 10
139.7723009460101
 20
-17.08290147214168
 10
139.7823972212101
 20
-17.12007459214167
 10
139.7898125588101
 20
-17.15854712654167
 10
139.7944410980101
 20
-17.19822988014168
 10
139.7961745732101
 20
-17.23909418254167
 10
139.7948869668101
 20
-17.28103266094167
 10
139.7904466308101
 20
-17.32395648334167
 10
139.7827156548101
 20
-17.36774844654168
 10
139.7715650020101
 20
-17.41223129774168
  0
LWPOLYLINE
  5
1F3
330
2
100
AcDbEntity
  8
0
  6
HIDDEN
100
AcDbPolyline
 90
       13
 70
     0
 43
0.0
 10
139.72204076681
 20
-17.58128515534168
 10
139.7110549220101
 20
-17.61327209614167
 10
139.6968770020101
 20
-17.64567788814167
 10
139.6794430548101
 20
-17.67813825454167
 10
139.6586944180101
 20
-17.71036301934167
 10
139.6346153828101
 20
-17.74203603054167
 10
139.6071904628101
 20
-17.77287110094167
 10
139.5765722676101
 20
-17.80243671214167
 10
139.5429758132101
 20
-17.83032929774167
 10
139.5065030388101
 20
-17.85628876014168
 10
139.4674786084101
 20
-17.87992661614168
 10
139.4264755348101
 20
-17.90080874574167
 10
139.38459888201
 20
-17.91843323214168
  0
LWPOLYLINE
  5
1F4
330
2
100
AcDbEntity
  8
0
  6
HIDDEN
100
AcDbPolyline
 90
        8
 70
     0
 43
0.0
 10
139.38459888201
 20
-17.91843323214168
 10
139.3405589556101
 20
-17.93329039534167
 10
139.2964662708101
 20
-17.94462594094167
 10
139.2523947220101
 20
-17.95254904654167
 10
139.2088652660101
 20
-17.95706811214167
 10
139.1663640132101
 20
-17.95826163534167
 10
139.1255697188101
 20
-17.95629117134168
 10
139.0872995972101
 20
-17.95147925294168
  0
LWPOLYLINE
  5
1F5
330
2
100
AcDbEntity
  8
0
  6
HIDDEN
100
AcDbPolyline
 90
        3
 70
     0
 43
0.0
 10
139.7715650020101
 20
-17.41223129774168
 10
139.7469251652101
 20
-17.49703052334167
 10
139.72204076681
 20
-17.58128515534168
  0
LINE
  5
1F6
330
2
100
AcDbEntity
  8
0
100
AcDbLine
 10
139.6516719412101
 20
-14.69651540174167
 30
0.0
 11
139.6487105684101
 21
-14.69651533294168
 31
0.0
  0
LINE
  5
1F7
330
2
100
AcDbEntity
  8
0
100
AcDbLine
 10
145.7459886996101
 20
-14.69623641934168
 30
0.0
 11
145.7452391156101
 21
-14.71424898734169
 31
0.0
  0
LINE
  5
1F8
330
2
100
AcDbEntity
  8
0
100
AcDbLine
 10
144.8465160180101
 20
-14.69622624974168
 30
0.0
 11
144.8465117764101
 21
-14.71424915694169
 31
0.0
  0
LINE
  5
1F9
330
2
100
AcDbEntity
  8
0
100
AcDbLine
 10
144.8465160180101
 20
-14.69622625614168
 30
0.0
 11
145.7459887092101
 21
-14.69623659214168
 31
0.0
  0
LWPOLYLINE
  5
1FA
330
2
100
AcDbEntity
  8
0
100
AcDbPolyline
 90
        7
 70
     0
 43
0.0
 10
157.3611788116101
 20
-18.76045216174168
 10
157.6082732564101
 20
-18.18027171534168
 10
157.8838190404101
 20
-17.55892344654167
 10
158.1993943028101
 20
-16.87860923214168
 10
158.5697244308101
 20
-16.12072555374167
 10
159.0017410836101
 20
-15.30549748334167
 10
159.4763979828101
 20
-14.45583616814167
  0
LWPOLYLINE
  5
1FB
330
2
100
AcDbEntity
  8
0
100
AcDbPolyline
 90
       10
 70
     0
 43
0.0
 10
157.1834177444101
 20
-19.77778564014167
 10
157.2199141220101
 20
-19.63945295534168
 10
157.2510335748101
 20
-19.50083852334167
 10
157.2731510884101
 20
-19.38005178254167
 10
157.2884276580101
 20
-19.27253467694168
 10
157.3002984308101
 20
-19.16997132334167
 10
157.31057432841
 20
-19.07074832974168
 10
157.3217753316101
 20
-18.96456280654168
 10
157.33726806601
 20
-18.84664599054168
 10
157.3611788116101
 20
-18.76045216174168
  0
LINE
  5
1FC
330
2
100
AcDbEntity
  8
0
100
AcDbLine
 10
157.3611788116101
 20
-18.76045216174168
 30
0.0
 11
157.33358748201
 21
-18.82315528334168
 31
0.0
  0
LINE
  5
1FD
330
2
100
AcDbEntity
  8
0
100
AcDbLine
 10
157.33358748201
 20
-18.82315528334168
 30
0.0
 11
157.29997340201
 21
-18.90028099374168
 31
0.0
  0
LWPOLYLINE
  5
1FE
330
2
100
AcDbEntity
  8
0
100
AcDbPolyline
 90
        5
 70
     0
 43
0.0
 10
151.6083332948101
 20
-14.69675335854167
 10
153.2066824452101
 20
-14.69687689134168
 10
153.98504826601
 20
-14.69700135854167
 10
154.7478186084101
 20
-14.69714729134167
 10
156.2204705860101
 20
-14.69744419854168
  0
LWPOLYLINE
  5
1FF
330
2
100
AcDbEntity
  8
0
100
AcDbPolyline
 90
        5
 70
     0
 43
0.0
 10
156.2204705860101
 20
-14.69744419854168
 10
156.9275268468101
 20
-14.69756774894167
 10
157.6133004724101
 20
-14.69765805774168
 10
158.2763081444101
 20
-14.69771900494168
 10
158.9152820004101
 20
-14.69776070574168
  0
LWPOLYLINE
  5
200
330
2
100
AcDbEntity
  8
0
100
AcDbPolyline
 90
        4
 70
     0
 43
0.0
 10
164.8437946948101
 20
-14.69823679534167
 10
164.8295002100101
 20
-13.94438885134167
 10
164.7877883556101
 20
-13.17516331534167
 10
164.7439349692982
 20
-12.69823679534168
  0
LINE
  5
201
330
2
100
AcDbEntity
  8
0
100
AcDbLine
 10
162.9892180740101
 20
-14.69807808014168
 30
0.0
 11
164.2764176052101
 21
-14.69829205454168
 31
0.0
  0
LINE
  5
202
330
2
100
AcDbEntity
  8
0
100
AcDbLine
 10
164.2764176052101
 20
-14.69829205454168
 30
0.0
 11
164.8437946948101
 21
-14.69823679534168
 31
0.0
  0
ENDSEC
  0
SECTION
  2
OBJECTS
  0
DICTIONARY
  5
A
330
0
100
AcDbDictionary
  3
ACAD_GROUP
350
23
  3
ACAD_LAYOUT
350
9
  3
ACAD_MLINESTYLE
350
24
  3
ACAD_PLOTSETTINGS
350
25
  3
ACAD_PLOTSTYLENAME
350
26
  3
ACDBHEADERROUNDTRIPXREC
350
279
  3
ACDBVARIABLEDICTIONARY
350
203
  0
DICTIONARY
  5
233
330
2
100
AcDbDictionary
280
     1
  3
ACAD_LAYOUTSELFREF
360
29A
  0
DICTIONARY
  5
239
330
B
100
AcDbDictionary
280
     1
  3
ACAD_LAYOUTSELFREF
360
29B
  0
DICTIONARY
  5
23
102
{ACAD_REACTORS
330
A
102
}
330
A
100
AcDbDictionary
  0
DICTIONARY
  5
9
102
{ACAD_REACTORS
330
A
102
}
330
A
100
AcDbDictionary
  0
DICTIONARY
  5
24
102
{ACAD_REACTORS
330
A
102
}
330
A
100
AcDbDictionary
  3
STANDARD
350
27
  0
DICTIONARY
  5
25
102
{ACAD_REACTORS
330
A
102
}
330
A
100
AcDbDictionary
  0
ACDBDICTIONARYWDFLT
  5
26
102
{ACAD_REACTORS
330
A
102
}
330
A
100
AcDbDictionary
281
     1
  3
Normal
350
5
100
AcDbDictionaryWithDefault
340
5
  0
DICTIONARY
  5
279
102
{ACAD_REACTORS
330
A
102
}
330
A
100
AcDbDictionary
  3
CEPSNTYPE
350
283
  3
DIMSTYLEDATA
350
287
  3
FINGERPRINTGUID
350
284
  3
HYPERLINKBASE
350
27C
  3
INSUNITS
350
282
  3
LAYOUTDICT
350
27E
  3
LWETCUNION
350
281
  3
PLOTSETDICT
350
27F
  3
PLOTSTYLNAMDICT
350
280
  3
PSVPSCALE
350
286
  3
PUCSBASE
350
28A
  3
PUCSORGBACK
350
290
  3
PUCSORGBOTTOM
350
28C
  3
PUCSORGFRONT
350
28F
  3
PUCSORGLEFT
350
28D
  3
PUCSORGRIGHT
350
28E
  3
PUCSORGTOP
350
28B
  3
PUCSORTHOREF
350
288
  3
PUCSORTHOVIEW
350
289
  3
STYLESHEET
350
27D
  3
TSTACKALIGN
350
27A
  3
TSTACKSIZE
350
27B
  3
UCSBASE
350
293
  3
UCSORGBACK
350
299
  3
UCSORGBOTTOM
350
295
  3
UCSORGFRONT
350
298
  3
UCSORGLEFT
350
296
  3
UCSORGRIGHT
350
297
  3
UCSORGTOP
350
294
  3
UCSORTHOREF
350
291
  3
UCSORTHOVIEW
350
292
  3
VERSIONGUID
350
285
  0
DICTIONARY
  5
203
102
{ACAD_REACTORS
330
A
102
}
330
A
100
AcDbDictionary
  3
DIMASSOC
350
205
  3
HIDETEXT
350
204
  0
XRECORD
  5
29A
102
{ACAD_REACTORS
330
233
102
}
330
233
100
AcDbXrecord
340
2
  0
XRECORD
  5
29B
102
{ACAD_REACTORS
330
239
102
}
330
239
100
AcDbXrecord
340
B
  0
MLINESTYLE
  5
27
102
{ACAD_REACTORS
330
24
102
}
330
24
100
AcDbMlineStyle
  2
STANDARD
 70
     0
  3

 62
   256
 51
90.0
 52
90.0
 71
     2
 49
0.5
 62
   256
  6
BYLAYER
 49
-0.5
 62
   256
  6
BYLAYER
  0
ACDBPLACEHOLDER
  5
5
102
{ACAD_REACTORS
330
26
102
}
330
0
100
AcDbPlaceHolder
280
     0
  0
XRECORD
  5
283
102
{ACAD_REACTORS
330
279
102
}
330
279
100
AcDbXrecord
 90
        0
  0
XRECORD
  5
287
102
{ACAD_REACTORS
330
279
102
}
330
279
100
AcDbXrecord
1000
DSTYLE
1002
{
1070
   341
340
1E
1070
   342
340
1E
1002
}
  0
XRECORD
  5
284
102
{ACAD_REACTORS
330
279
102
}
330
279
100
AcDbXrecord
  1

  0
XRECORD
  5
27C
102
{ACAD_REACTORS
330
279
102
}
330
279
100
AcDbXrecord
  1

  0
XRECORD
  5
282
102
{ACAD_REACTORS
330
279
102
}
330
279
100
AcDbXrecord
 90
        1
  0
XRECORD
  5
27E
102
{ACAD_REACTORS
330
279
102
}
330
279
100
AcDbXrecord
340
9
  0
XRECORD
  5
281
102
{ACAD_REACTORS
330
279
102
}
330
279
100
AcDbXrecord
 90
    10781
  0
XRECORD
  5
27F
102
{ACAD_REACTORS
330
279
102
}
330
279
100
AcDbXrecord
340
25
  0
XRECORD
  5
280
102
{ACAD_REACTORS
330
279
102
}
330
279
100
AcDbXrecord
340
26
  0
XRECORD
  5
286
102
{ACAD_REACTORS
330
279
102
}
330
279
100
AcDbXrecord
 40
0.0
  0
XRECORD
  5
28A
102
{ACAD_REACTORS
330
279
102
}
330
279
100
AcDbXrecord
340
0
  0
XRECORD
  5
290
102
{ACAD_REACTORS
330
279
102
}
330
279
100
AcDbXrecord
 10
0.0
 20
0.0
 30
0.0
  0
XRECORD
  5
28C
102
{ACAD_REACTORS
330
279
102
}
330
279
100
AcDbXrecord
 10
0.0
 20
0.0
 30
0.0
  0
XRECORD
  5
28F
102
{ACAD_REACTORS
330
279
102
}
330
279
100
AcDbXrecord
 10
0.0
 20
0.0
 30
0.0
  0
XRECORD
  5
28D
102
{ACAD_REACTORS
330
279
102
}
330
279
100
AcDbXrecord
 10
0.0
 20
0.0
 30
0.0
  0
XRECORD
  5
28E
102
{ACAD_REACTORS
330
279
102
}
330
279
100
AcDbXrecord
 10
0.0
 20
0.0
 30
0.0
  0
XRECORD
  5
28B
102
{ACAD_REACTORS
330
279
102
}
330
279
100
AcDbXrecord
 10
0.0
 20
0.0
 30
0.0
  0
XRECORD
  5
288
102
{ACAD_REACTORS
330
279
102
}
330
279
100
AcDbXrecord
340
0
  0
XRECORD
  5
289
102
{ACAD_REACTORS
330
279
102
}
330
279
100
AcDbXrecord
 70
     0
  0
XRECORD
  5
27D
102
{ACAD_REACTORS
330
279
102
}
330
279
100
AcDbXrecord
  1

  0
XRECORD
  5
27A
102
{ACAD_REACTORS
330
279
102
}
330
279
100
AcDbXrecord
 90
        1
  0
XRECORD
  5
27B
102
{ACAD_REACTORS
330
279
102
}
330
279
100
AcDbXrecord
 90
       70
  0
XRECORD
  5
293
102
{ACAD_REACTORS
330
279
102
}
330
279
100
AcDbXrecord
340
0
  0
XRECORD
  5
299
102
{ACAD_REACTORS
330
279
102
}
330
279
100
AcDbXrecord
 10
0.0
 20
0.0
 30
0.0
  0
XRECORD
  5
295
102
{ACAD_REACTORS
330
279
102
}
330
279
100
AcDbXrecord
 10
0.0
 20
0.0
 30
0.0
  0
XRECORD
  5
298
102
{ACAD_REACTORS
330
279
102
}
330
279
100
AcDbXrecord
 10
0.0
 20
0.0
 30
0.0
  0
XRECORD
  5
296
102
{ACAD_REACTORS
330
279
102
}
330
279
100
AcDbXrecord
 10
0.0
 20
0.0
 30
0.0
  0
XRECORD
  5
297
102
{ACAD_REACTORS
330
279
102
}
330
279
100
AcDbXrecord
 10
0.0
 20
0.0
 30
0.0
  0
XRECORD
  5
294
102
{ACAD_REACTORS
330
279
102
}
330
279
100
AcDbXrecord
 10
0.0
 20
0.0
 30
0.0
  0
XRECORD
  5
291
102
{ACAD_REACTORS
330
279
102
}
330
279
100
AcDbXrecord
340
0
  0
XRECORD
  5
292
102
{ACAD_REACTORS
330
279
102
}
330
279
100
AcDbXrecord
 70
     0
  0
XRECORD
  5
285
102
{ACAD_REACTORS
330
279
102
}
330
279
100
AcDbXrecord
  1
{F72B39FA-800D-487A-9DE5-D804ADD26D62}
  0
DICTIONARYVAR
  5
205
102
{ACAD_REACTORS
330
203
102
}
330
203
100
DictionaryVariables
280
     0
  1
1
  0
DICTIONARYVAR
  5
204
102
{ACAD_REACTORS
330
203
102
}
330
203
100
DictionaryVariables
280
     0
  1
1
  0
ENDSEC
  0
EOF
