  0
SECTION
  2
HEADER
  9
$ACADVER
  1
AC1014
  9
$ACADMAINTVER
 70
     9
  9
$DWGCODEPAGE
  3
ANSI_1252
  9
$INSBASE
 10
128.8438008820101
 20
42.1503910814583
 30
0.0
  9
$EXTMIN
 10
92.83530894213857
 20
28.64595771098663
 30
-0.0015258207003583
  9
$EXTMAX
 10
164.8488257120059
 20
70.65600412657437
 30
0.0000000349246037
  9
$LIMMIN
 10
0.0
 20
0.0
  9
$LIMMAX
 10
17.0
 20
11.0
  9
$ORTHOMODE
 70
     1
  9
$REGENMODE
 70
     1
  9
$FILLMODE
 70
     1
  9
$QTEXTMODE
 70
     0
  9
$MIRRTEXT
 70
     1
  9
$DRAGMODE
 70
     2
  9
$LTSCALE
 40
2.0
  9
$OSMODE
 70
    55
  9
$ATTMODE
 70
     1
  9
$TEXTSIZE
 40
0.2
  9
$TRACEWID
 40
0.05
  9
$TEXTSTYLE
  7
STANDARD
  9
$CLAYER
  8
0
  9
$CELTYPE
  6
BYLAYER
  9
$CECOLOR
 62
   256
  9
$CELTSCALE
 40
1.0
  9
$DELOBJ
 70
     1
  9
$DISPSILH
 70
     0
  9
$DIMSCALE
 40
16.0
  9
$DIMASZ
 40
0.1875
  9
$DIMEXO
 40
0.0625
  9
$DIMDLI
 40
0.38
  9
$DIMRND
 40
0.0
  9
$DIMDLE
 40
0.0
  9
$DIMEXE
 40
0.18
  9
$DIMTP
 40
0.0
  9
$DIMTM
 40
0.0
  9
$DIMTXT
 40
0.125
  9
$DIMCEN
 40
0.09
  9
$DIMTSZ
 40
0.0
  9
$DIMTOL
 70
     0
  9
$DIMLIM
 70
     0
  9
$DIMTIH
 70
     1
  9
$DIMTOH
 70
     1
  9
$DIMSE1
 70
     0
  9
$DIMSE2
 70
     0
  9
$DIMTAD
 70
     0
  9
$DIMZIN
 70
     4
  9
$DIMBLK
  1
_FILLED
  9
$DIMASO
 70
     1
  9
$DIMSHO
 70
     1
  9
$DIMPOST
  1

  9
$DIMAPOST
  1

  9
$DIMALT
 70
     0
  9
$DIMALTD
 70
     2
  9
$DIMALTF
 40
25.4
  9
$DIMLFAC
 40
1.0
  9
$DIMTOFL
 70
     0
  9
$DIMTVP
 40
0.0
  9
$DIMTIX
 70
     0
  9
$DIMSOXD
 70
     0
  9
$DIMSAH
 70
     0
  9
$DIMBLK1
  1

  9
$DIMBLK2
  1

  9
$DIMSTYLE
  2
S_TANDARD
  9
$DIMCLRD
 70
     0
  9
$DIMCLRE
 70
     0
  9
$DIMCLRT
 70
     0
  9
$DIMTFAC
 40
1.0
  9
$DIMGAP
 40
0.09
  9
$DIMJUST
 70
     0
  9
$DIMSD1
 70
     0
  9
$DIMSD2
 70
     0
  9
$DIMTOLJ
 70
     1
  9
$DIMTZIN
 70
     4
  9
$DIMALTZ
 70
     0
  9
$DIMALTTZ
 70
     0
  9
$DIMFIT
 70
     3
  9
$DIMUPT
 70
     0
  9
$DIMUNIT
 70
     2
  9
$DIMDEC
 70
     3
  9
$DIMTDEC
 70
     3
  9
$DIMALTU
 70
     2
  9
$DIMALTTD
 70
     2
  9
$DIMTXSTY
  7
STANDARD
  9
$DIMAUNIT
 70
     0
  9
$LUNITS
 70
     2
  9
$LUPREC
 70
     4
  9
$SKETCHINC
 40
0.1
  9
$FILLETRAD
 40
0.375
  9
$AUNITS
 70
     0
  9
$AUPREC
 70
     0
  9
$MENU
  1
acad
  9
$ELEVATION
 40
0.0
  9
$PELEVATION
 40
0.0
  9
$THICKNESS
 40
0.0
  9
$LIMCHECK
 70
     0
  9
$BLIPMODE
 70
     0
  9
$CHAMFERA
 40
0.0
  9
$CHAMFERB
 40
0.0
  9
$CHAMFERC
 40
0.0
  9
$CHAMFERD
 40
0.0
  9
$SKPOLY
 70
     0
  9
$TDCREATE
 40
2453681.666029074
  9
$TDUPDATE
 40
2453685.487992014
  9
$TDINDWG
 40
0.0304458681
  9
$TDUSRTIMER
 40
0.0304458681
  9
$USRTIMER
 70
     1
  9
$ANGBASE
 50
0.0
  9
$ANGDIR
 70
     0
  9
$PDMODE
 70
     3
  9
$PDSIZE
 40
0.3125
  9
$PLINEWID
 40
0.0
  9
$COORDS
 70
     1
  9
$SPLFRAME
 70
     0
  9
$SPLINETYPE
 70
     6
  9
$SPLINESEGS
 70
     8
  9
$ATTDIA
 70
     0
  9
$ATTREQ
 70
     1
  9
$HANDLING
 70
 22529
  9
$HANDSEED
  5
1E9
  9
$SURFTAB1
 70
     6
  9
$SURFTAB2
 70
     6
  9
$SURFTYPE
 70
     6
  9
$SURFU
 70
     6
  9
$SURFV
 70
     6
  9
$UCSNAME
  2

  9
$UCSORG
 10
0.0
 20
0.0
 30
0.0
  9
$UCSXDIR
 10
1.0
 20
0.0
 30
0.0
  9
$UCSYDIR
 10
0.0
 20
1.0
 30
0.0
  9
$PUCSNAME
  2

  9
$PUCSORG
 10
0.0
 20
0.0
 30
0.0
  9
$PUCSXDIR
 10
1.0
 20
0.0
 30
0.0
  9
$PUCSYDIR
 10
0.0
 20
1.0
 30
0.0
  9
$USERI1
 70
     0
  9
$USERI2
 70
     0
  9
$USERI3
 70
     0
  9
$USERI4
 70
     0
  9
$USERI5
 70
     0
  9
$USERR1
 40
0.0
  9
$USERR2
 40
0.0
  9
$USERR3
 40
0.0
  9
$USERR4
 40
0.0
  9
$USERR5
 40
0.0
  9
$WORLDVIEW
 70
     1
  9
$SHADEDGE
 70
     3
  9
$SHADEDIF
 70
    70
  9
$TILEMODE
 70
     1
  9
$MAXACTVP
 70
    16
  9
$PINSBASE
 10
0.0
 20
0.0
 30
0.0
  9
$PLIMCHECK
 70
     0
  9
$PEXTMIN
 10
1.000000000000000E+20
 20
1.000000000000000E+20
 30
1.000000000000000E+20
  9
$PEXTMAX
 10
-1.000000000000000E+20
 20
-1.000000000000000E+20
 30
-1.000000000000000E+20
  9
$PLIMMIN
 10
0.0
 20
0.0
  9
$PLIMMAX
 10
12.0
 20
9.0
  9
$UNITMODE
 70
     0
  9
$VISRETAIN
 70
     0
  9
$PLINEGEN
 70
     1
  9
$PSLTSCALE
 70
     0
  9
$TREEDEPTH
 70
  3020
  9
$PICKSTYLE
 70
     1
  9
$CMLSTYLE
  2
STANDARD
  9
$CMLJUST
 70
     0
  9
$CMLSCALE
 40
1.0
  9
$PROXYGRAPHICS
 70
     0
  9
$MEASUREMENT
 70
     0
  0
ENDSEC
  0
SECTION
  2
CLASSES
  0
CLASS
  1
ACDBDICTIONARYWDFLT
  2
AcDbDictionaryWithDefault
  3
AutoCAD 2000
 90
        0
280
     0
281
     0
  0
CLASS
  1
ACDBPLACEHOLDER
  2
AcDbPlaceHolder
  3
AutoCAD 2000
 90
        0
280
     0
281
     0
  0
CLASS
  1
LAYOUT
  2
AcDbLayout
  3
AutoCAD 2000
 90
        0
280
     0
281
     0
  0
CLASS
  1
LWPOLYLINE
  2
AcDbPolyline
  3
AutoCAD 2000
 90
        0
280
     0
281
     1
  0
CLASS
  1
IMAGE
  2
AcDbRasterImage
  3
ISM
 90
      127
280
     0
281
     1
  0
CLASS
  1
OLE2FRAME
  2
AcDbOle2Frame
  3
AutoCAD 2000
 90
        0
280
     0
281
     1
  0
CLASS
  1
HATCH
  2
AcDbHatch
  3
AutoCAD 2000
 90
        0
280
     0
281
     1
  0
CLASS
  1
DICTIONARYVAR
  2
AcDbDictionaryVar
  3
AutoCAD 2000
 90
        0
280
     0
281
     0
  0
CLASS
  1
RASTERVARIABLES
  2
AcDbRasterVariables
  3
ISM
 90
        0
280
     0
281
     0
  0
CLASS
  1
IMAGEDEF
  2
AcDbRasterImageDef
  3
ISM
 90
        0
280
     0
281
     0
  0
CLASS
  1
IMAGEDEF_REACTOR
  2
AcDbRasterImageDefReactor
  3
ISM
 90
        1
280
     0
281
     0
  0
CLASS
  1
IDBUFFER
  2
AcDbIdBuffer
  3
AutoCAD 2000
 90
        0
280
     0
281
     0
  0
CLASS
  1
SPATIAL_FILTER
  2
AcDbSpatialFilter
  3
AutoCAD 2000
 90
        0
280
     0
281
     0
  0
CLASS
  1
XRECORD
  2
AcDbXrecord
  3
AutoCAD 2000
 90
        0
280
     0
281
     0
  0
CLASS
  1
SORTENTSTABLE
  2
AcDbSortentsTable
  3
AutoCAD 2000
 90
        0
280
     0
281
     0
  0
CLASS
  1
LAYER_INDEX
  2
AcDbLayerIndex
  3
AutoCAD 2000
 90
        0
280
     0
281
     0
  0
CLASS
  1
SPATIAL_INDEX
  2
AcDbSpatialIndex
  3
AutoCAD 2000
 90
        0
280
     0
281
     0
  0
CLASS
  1
OBJECT_PTR
  2
CAseDLPNTableRecord
  3
ASE-LPNTableRecord
 90
        1
280
     0
281
     0
  0
CLASS
  1
PLOTSETTINGS
  2
AcDbPlotSettings
  3
AutoCAD 2000
 90
        0
280
     0
281
     0
  0
CLASS
  1
VBA_PROJECT
  2
AcDbVbaProject
  3
acadvba
 90
        0
280
     0
281
     0
  0
CLASS
  1
WIPEOUT
  2
AcDbWipeout
  3
WipeOut|AutoCAD Express Tool|expresstools@autodesk.com
 90
      127
280
     1
281
     1
  0
CLASS
  1
WIPEOUTVARIABLES
  2
AcDbWipeoutVariables
  3
WipeOut|AutoCAD Express Tool|expresstools@autodesk.com
 90
        0
280
     1
281
     0
  0
CLASS
  1
RTEXT
  2
RText
  3
RText|AutoCAD Express Tool|expresstools@autodesk.com
 90
        0
280
     1
281
     1
  0
CLASS
  1
ARCALIGNEDTEXT
  2
AcDbArcAlignedText
  3
ATEXT|AutoCAD Express Tool|expresstools@autodesk.com
 90
        0
280
     1
281
     1
  0
CLASS
  1
LONG_TRANSACTION
  2
AcDbLongTransaction
  3
AutoCAD 2000
 90
        0
280
     0
281
     0
  0
CLASS
  1
LWPOLYLINE
  2
AcDbPolyline
  3
AutoCAD 2000
 90
        0
280
     0
281
     1
  0
CLASS
  1
HATCH
  2
AcDbHatch
  3
AutoCAD 2000
 90
        0
280
     0
281
     1
  0
CLASS
  1
XRECORD
  2
AcDbXrecord
  3
AutoCAD 2000
 90
        0
280
     0
281
     0
  0
CLASS
  1
LONG_TRANSACTION
  2
AcDbLongTransaction
  3
AutoCAD 2000
 90
        0
280
     0
281
     0
  0
CLASS
  1
LWPOLYLINE
  2
AcDbPolyline
  3
AutoCAD 2000
 90
        0
280
     0
281
     1
  0
CLASS
  1
HATCH
  2
AcDbHatch
  3
AutoCAD 2000
 90
        0
280
     0
281
     1
  0
CLASS
  1
XRECORD
  2
AcDbXrecord
  3
AutoCAD 2000
 90
        0
280
     0
281
     0
  0
ENDSEC
  0
SECTION
  2
TABLES
  0
TABLE
  2
VPORT
  5
18
330
0
100
AcDbSymbolTable
 70
     3
  0
VPORT
  5
1C5
330
18
100
AcDbSymbolTableRecord
100
AcDbViewportTableRecord
  2
*ACTIVE
 70
     0
 10
0.0
 20
0.0
 11
1.0
 21
1.0
 12
128.8420671654872
 22
49.65098079155453
 13
0.0
 23
0.0
 14
1.0
 24
1.0
 15
0.0
 25
0.0
 16
0.0
 26
0.0
 36
1.0
 17
0.0
 27
0.0
 37
0.0
 40
48.85744673798017
 41
1.786792452830188
 42
50.0
 43
0.0
 44
0.0
 50
0.0
 51
0.0
 71
     0
 72
   100
 73
     1
 74
     1
 75
     0
 76
     0
 77
     0
 78
     0
  0
ENDTAB
  0
TABLE
  2
LTYPE
  5
13
330
0
100
AcDbSymbolTable
 70
     2
  0
LTYPE
  5
14
330
13
100
AcDbSymbolTableRecord
100
AcDbLinetypeTableRecord
  2
BYBLOCK
 70
     0
  3

 72
    65
 73
     0
 40
0.0
  0
LTYPE
  5
15
330
13
100
AcDbSymbolTableRecord
100
AcDbLinetypeTableRecord
  2
BYLAYER
 70
     0
  3

 72
    65
 73
     0
 40
0.0
  0
LTYPE
  5
6
330
13
100
AcDbSymbolTableRecord
100
AcDbLinetypeTableRecord
  2
CONTINUOUS
 70
     0
  3
Solid line
 72
    65
 73
     0
 40
0.0
  0
LTYPE
  5
68
330
13
100
AcDbSymbolTableRecord
100
AcDbLinetypeTableRecord
  2
CENTER
 70
     0
  3
____ _ ____ _ ____ _ ____ _ ____ _ ____ _ ____
 72
    65
 73
     4
 40
0.6
 49
0.375
 74
     0
 49
-0.075
 74
     0
 49
0.075
 74
     0
 49
-0.075
 74
     0
  0
ENDTAB
  0
TABLE
  2
LAYER
  5
F
330
0
100
AcDbSymbolTable
 70
     2
  0
LAYER
  5
4
330
F
100
AcDbSymbolTableRecord
100
AcDbLayerTableRecord
  2
0
 70
     0
 62
     7
  6
CONTINUOUS
  0
LAYER
  5
67
330
F
100
AcDbSymbolTableRecord
100
AcDbLayerTableRecord
  2
CENTER
 70
     0
 62
     1
  6
CENTER
  0
ENDTAB
  0
TABLE
  2
STYLE
  5
10
330
0
100
AcDbSymbolTable
 70
     1
  0
STYLE
  5
11
330
10
100
AcDbSymbolTableRecord
100
AcDbTextStyleTableRecord
  2
STANDARD
 70
     0
 40
0.0
 41
0.8
 50
0.0
 71
     0
 42
0.2
  3
txt
  4

  0
ENDTAB
  0
TABLE
  2
VIEW
  5
16
330
0
100
AcDbSymbolTable
 70
     0
  0
ENDTAB
  0
TABLE
  2
UCS
  5
17
330
0
100
AcDbSymbolTable
 70
     0
  0
ENDTAB
  0
TABLE
  2
APPID
  5
1A
330
0
100
AcDbSymbolTable
 70
     1
  0
APPID
  5
1B
330
1A
100
AcDbSymbolTableRecord
100
AcDbRegAppTableRecord
  2
ACAD
 70
     0
  0
ENDTAB
  0
TABLE
  2
DIMSTYLE
  5
1C
330
0
100
AcDbSymbolTable
 70
     1
  0
DIMSTYLE
105
1D
330
1C
100
AcDbSymbolTableRecord
100
AcDbDimStyleTableRecord
  2
S_TANDARD
 70
     0
  3

  4

  5
_FILLED
  6

  7

 40
16.0
 41
0.1875
 42
0.0625
 43
0.38
 44
0.18
 45
0.0
 46
0.0
 47
0.0
 48
0.0
140
0.125
141
0.09
142
0.0
143
25.4
144
1.0
145
0.0
146
1.0
147
0.09
 71
     0
 72
     0
 73
     1
 74
     1
 75
     0
 76
     0
 77
     0
 78
     4
170
     0
171
     2
172
     0
173
     0
174
     0
175
     0
176
     0
177
     0
178
     0
270
     2
271
     3
272
     3
273
     2
274
     2
340
11
275
     0
280
     0
281
     0
282
     0
283
     1
284
     4
285
     0
286
     0
287
     3
288
     0
  0
ENDTAB
  0
TABLE
  2
BLOCK_RECORD
  5
1
330
0
100
AcDbSymbolTable
 70
     1
  0
BLOCK_RECORD
  5
2
102
{ACAD_XDICTIONARY
360
180
102
}
330
1
100
AcDbSymbolTableRecord
100
AcDbBlockTableRecord
  2
*MODEL_SPACE
  0
BLOCK_RECORD
  5
B
102
{ACAD_XDICTIONARY
360
186
102
}
330
1
100
AcDbSymbolTableRecord
100
AcDbBlockTableRecord
  2
*PAPER_SPACE
  0
BLOCK_RECORD
  5
1E
330
1
100
AcDbSymbolTableRecord
100
AcDbBlockTableRecord
  2
_FILLED
  0
ENDTAB
  0
ENDSEC
  0
SECTION
  2
BLOCKS
  0
BLOCK
  5
3
330
2
100
AcDbEntity
  8
0
100
AcDbBlockBegin
  2
*MODEL_SPACE
 70
     0
 10
0.0
 20
0.0
 30
0.0
  3
*MODEL_SPACE
  1

  0
ENDBLK
  5
7
330
2
100
AcDbEntity
  8
0
100
AcDbBlockEnd
  0
BLOCK
  5
C
330
B
100
AcDbEntity
 67
     1
  8
0
100
AcDbBlockBegin
  2
*PAPER_SPACE
 70
     0
 10
0.0
 20
0.0
 30
0.0
  3
*PAPER_SPACE
  1

  0
ENDBLK
  5
D
330
B
100
AcDbEntity
 67
     1
  8
0
100
AcDbBlockEnd
  0
BLOCK
  5
20
330
1E
100
AcDbEntity
  8
0
100
AcDbBlockBegin
  2
_FILLED
 70
     0
 10
0.0
 20
0.0
 30
0.0
  3
_FILLED
  1

  0
SOLID
  5
1F
330
1E
100
AcDbEntity
  8
0
  6
BYBLOCK
 62
     0
100
AcDbTrace
 10
0.0
 20
0.0
 30
0.0
 11
-1.0
 21
0.1666666667
 31
0.0
 12
-1.0
 22
-0.1666666667
 32
0.0
 13
-1.0
 23
-0.1666666667
 33
0.0
  0
ENDBLK
  5
21
330
1E
100
AcDbEntity
  8
0
  6
BYBLOCK
 62
     0
100
AcDbBlockEnd
  0
ENDSEC
  0
SECTION
  2
ENTITIES
  0
LWPOLYLINE
  5
28
330
2
100
AcDbEntity
  8
0
100
AcDbPolyline
 90
       25
 70
     0
 43
0.0
 10
154.0970411588101
 20
46.09610629745832
 10
154.1125611988101
 20
46.16273648945832
 10
154.1295073188101
 20
46.22953815185832
 10
154.1479295428101
 20
46.29654967505831
 10
154.1677621732101
 20
46.36343899505831
 10
154.1889000100101
 20
46.42978754865832
 10
154.2111955796101
 20
46.49520123665832
 10
154.2345204932101
 20
46.5593997566583
 10
154.2588649636101
 20
46.62253352945831
 10
154.2756986436101
 20
46.66421395825833
 10
154.2931669956101
 20
46.70594423025832
 10
154.3114427268101
 20
46.74813269265832
 10
154.3257865668101
 20
46.78031887985833
 10
154.3407743908101
 20
46.81315579665832
 10
154.3564988804101
 20
46.8468067454583
 10
154.3730527220101
 20
46.88143502545833
 10
154.3905174932101
 20
46.91718139185832
 10
154.4089303620101
 20
46.95409641105832
 10
154.4283173940101
 20
46.99220810225833
 10
154.4487046516101
 20
47.03154448305832
 10
154.4700778868101
 20
47.07208067505831
 10
154.4922615956101
 20
47.11358020145832
 10
154.5150399620101
 20
47.15575368945832
 10
154.5381971668101
 20
47.19831176465831
 10
154.6003079908101
 20
47.31206273585832
  0
LWPOLYLINE
  5
29
330
2
100
AcDbEntity
  8
0
100
AcDbPolyline
 90
       53
 70
     0
 43
0.0
 10
157.3611788116101
 20
49.6503910814583
 10
157.3593171908101
 20
49.54670264305832
 10
157.3539019652101
 20
49.44713003665831
 10
157.3452638452101
 20
49.35314723505832
 10
157.33358748201
 20
49.26436689105833
 10
157.3185833428101
 20
49.17797443345833
 10
157.29997340201
 20
49.09270124305831
 10
157.2779806164101
 20
49.01020378065831
 10
157.2525580612101
 20
48.93087007985832
 10
157.2231333204101
 20
48.85372178865833
 10
157.1893046388101
 20
48.77878244465833
 10
157.1511464740101
 20
48.70730324625833
 10
157.1119724388101
 20
48.64537105425833
 10
157.0759099268101
 20
48.59754107345833
 10
157.0419627076101
 20
48.56146931665833
 10
157.0063526292101
 20
48.53318806225832
 10
156.9660178132101
 20
48.51082778545833
 10
156.9203054180101
 20
48.49377783665833
 10
156.8698917460101
 20
48.47955558225831
 10
156.8147865300101
 20
48.46701643505832
 10
156.75481403401
 20
48.45487991665831
 10
156.6895096068101
 20
48.44227064305832
 10
156.6182945364101
 20
48.42863404945831
 10
156.5404982132101
 20
48.41298623665832
 10
156.4553823844101
 20
48.39395300785833
 10
156.3620647188101
 20
48.37004357105832
 10
156.2593952756101
 20
48.33949748305832
 10
156.1457776948101
 20
48.30055069745833
 10
156.0197503396101
 20
48.25105188785832
 10
155.8811419268101
 20
48.18855923825831
 10
155.7399540836101
 20
48.11585655665831
 10
155.6068012980101
 20
48.03807677585831
 10
155.4830145012101
 20
47.95712590865832
 10
155.3639195124101
 20
47.87038953265832
 10
155.2405959380101
 20
47.76967113585832
 10
155.1080716788101
 20
47.64693942705832
 10
154.9799291780101
 20
47.5115828558583
 10
154.8672437156101
 20
47.37728585105833
 10
154.77274723561
 20
47.25254758705832
 10
154.6915696948101
 20
47.13609993585831
 10
154.6199468116101
 20
47.02652549905832
 10
154.5559771076101
 20
46.92371377585831
 10
154.4983551972101
 20
46.82766744785832
 10
154.4464087508101
 20
46.7387930702583
 10
154.3997995572101
 20
46.65754525585831
 10
154.3582483956101
 20
46.58399257425833
 10
154.3208888660101
 20
46.51698047825831
 10
154.2863942308101
 20
46.45438614385831
 10
154.2534128324101
 20
46.39387202705832
 10
154.2206664740101
 20
46.33294845425831
 10
154.1877593876101
 20
46.27062491345832
 10
154.1547612388101
 20
46.20676406705832
 10
154.1217268868101
 20
46.14123069905832
  0
LWPOLYLINE
  5
2A
330
2
100
AcDbEntity
  8
0
100
AcDbPolyline
 90
       24
 70
     0
 43
0.0
 10
162.4199723300101
 20
45.2515947518583
 10
162.4794742548101
 20
45.4380763502583
 10
162.5366518980101
 20
45.6260699006583
 10
162.5913074916101
 20
45.81720976305831
 10
162.6433511396101
 20
46.00674232305832
 10
162.6926216340101
 20
46.19630912305832
 10
162.7391230228101
 20
46.38585145585831
 10
162.7829359476101
 20
46.57564389745831
 10
162.8240500756101
 20
46.76560571345831
 10
162.8624746708101
 20
46.95573671185832
 10
162.8982184724101
 20
47.14603738865832
 10
162.9312936324101
 20
47.3365325230583
 10
162.9617147092101
 20
47.52727550225833
 10
162.9894909140101
 20
47.71830604305833
 10
163.0146255700101
 20
47.90963624945831
 10
163.0371213492101
 20
48.10128163185831
 10
163.0569814260101
 20
48.29327525105833
 10
163.07420714921
 20
48.48565175825831
 10
163.0887921172101
 20
48.67836079025832
 10
163.1007716580101
 20
48.87206068465832
 10
163.1101015780101
 20
49.06635688945832
 10
163.1167161460101
 20
49.25927091345832
 10
163.1207006996101
 20
49.45192491345832
 10
163.1220807716101
 20
49.6503910814583
  0
LWPOLYLINE
  5
2B
330
2
100
AcDbEntity
  8
0
100
AcDbPolyline
 90
        7
 70
     0
 43
0.0
 10
164.2770970036101
 20
44.68395684305831
 10
164.4257286884101
 20
45.3760004062583
 10
164.5557916228101
 20
46.09850036625831
 10
164.6632656980101
 20
46.83436079985833
 10
164.7468715124101
 20
47.58494144145831
 10
164.8053987572101
 20
48.34966067665831
 10
164.8160019268101
 20
48.5436445662583
  0
LWPOLYLINE
  5
2C
330
2
100
AcDbEntity
  8
0
100
AcDbPolyline
 90
       24
 70
     0
 43
0.0
 10
103.1522003604101
 20
47.19318975825831
 10
103.1753578116101
 20
47.15060040625831
 10
103.1980726996101
 20
47.10849349905831
 10
103.2201391876101
 20
47.06714826705831
 10
103.2413514308101
 20
47.02684393425832
 10
103.2615440692101
 20
46.98780560785832
 10
103.2807136532101
 20
46.95004190225833
 10
103.2988972116101
 20
46.91350731025832
 10
103.3161317780101
 20
46.87815632305833
 10
103.3324638708101
 20
46.84392321905832
 10
103.3479779780101
 20
46.8106614286583
 10
103.3627680788101
 20
46.77820416145832
 10
103.3769281508101
 20
46.74638463345831
 10
103.3949833076101
 20
46.70465673265832
 10
103.4122642932101
 20
46.66333695825833
 10
103.4289499140101
 20
46.62199619025833
 10
103.4531520740101
 20
46.55920982865831
 10
103.4764138116101
 20
46.49517957585831
 10
103.4987018564101
 20
46.42978698385832
 10
103.5198625348101
 20
46.36336437265832
 10
103.5397233956101
 20
46.29636815025832
 10
103.5581572804101
 20
46.22930030225832
 10
103.5750833108101
 20
46.16256218225832
 10
103.5905604484101
 20
46.09610700145831
  0
LWPOLYLINE
  5
2D
330
2
100
AcDbEntity
  8
0
100
AcDbPolyline
 90
       53
 70
     0
 43
0.0
 10
100.3264229524101
 20
49.6503910814583
 10
100.3282845732101
 20
49.54670264305832
 10
100.3336998004101
 20
49.44713003665831
 10
100.3423379188101
 20
49.35314723505832
 10
100.3540142820101
 20
49.26436689105833
 10
100.3690184212101
 20
49.17797443345833
 10
100.3876283620101
 20
49.09270124305831
 10
100.4096211476101
 20
49.01020378065831
 10
100.4350437028101
 20
48.93087007985832
 10
100.4644684436101
 20
48.85372178865833
 10
100.4982971252101
 20
48.77878244465833
 10
100.5364552900101
 20
48.70730324625833
 10
100.5756293252101
 20
48.64537105425833
 10
100.6116918388101
 20
48.59754107345833
 10
100.6456390564101
 20
48.56146931665833
 10
100.6812491348101
 20
48.53318806225832
 10
100.7215839508101
 20
48.51082778545833
 10
100.7672963460101
 20
48.49377783665833
 10
100.8177100180101
 20
48.47955558225831
 10
100.8728152340101
 20
48.46701643505832
 10
100.9327877316101
 20
48.45487991665831
 10
100.9980921572101
 20
48.44227064305832
 10
101.0693072276101
 20
48.42863404945831
 10
101.1471035508101
 20
48.41298623665832
 10
101.2322193796101
 20
48.39395300785833
 10
101.3255370452101
 20
48.37004357105832
 10
101.4282064884101
 20
48.33949748305832
 10
101.5418240692101
 20
48.30055069745833
 10
101.6678514260101
 20
48.25105188785832
 10
101.8064598372101
 20
48.18855923825831
 10
101.9476476804101
 20
48.11585655665831
 10
102.0808004660101
 20
48.03807677585831
 10
102.2045872628101
 20
47.95712590865832
 10
102.3236822516101
 20
47.87038953265832
 10
102.4470058260101
 20
47.76967113585832
 10
102.5795300852101
 20
47.64693942705832
 10
102.7076725860101
 20
47.5115828558583
 10
102.8203580484101
 20
47.37728585105833
 10
102.9148545284101
 20
47.25254758705832
 10
102.9960320692101
 20
47.13609993585831
 10
103.0676549524101
 20
47.02652549905832
 10
103.1316246564101
 20
46.92371377585831
 10
103.1892465668101
 20
46.82766744785832
 10
103.2411930132101
 20
46.7387930702583
 10
103.2878022084101
 20
46.65754525585831
 10
103.3293533684101
 20
46.58399257425833
 10
103.3667128980101
 20
46.51698047825831
 10
103.4012075332101
 20
46.45438614385831
 10
103.4341889316101
 20
46.39387202705832
 10
103.4669352900101
 20
46.33294845425831
 10
103.4998423764101
 20
46.27062491345832
 10
103.5328405252101
 20
46.20676406705832
 10
103.5658748772101
 20
46.14123069905832
  0
LWPOLYLINE
  5
2E
330
2
100
AcDbEntity
  8
0
100
AcDbPolyline
 90
       35
 70
     0
 43
0.0
 10
121.0098828532101
 20
49.6503910814583
 10
121.0118653780101
 20
49.30096156625831
 10
121.0178493844101
 20
48.95200665105832
 10
121.0278157348101
 20
48.60387714065831
 10
121.0417373444101
 20
48.25692144945833
 10
121.0595753284101
 20
47.91155275985832
 10
121.0812616900101
 20
47.56844309745832
 10
121.1067836996101
 20
47.22723991825833
 10
121.1361127684101
 20
46.88787638225832
 10
121.1691970404101
 20
46.55058302385831
 10
121.2059475748101
 20
46.21588173105831
 10
121.2462472772101
 20
45.88437952625831
 10
121.2900040276101
 20
45.5540998910583
 10
121.3371173364101
 20
45.2298239582583
 10
121.3874682708101
 20
44.9096565006583
 10
121.4409223220101
 20
44.5939758574583
 10
121.4973370596101
 20
44.2831337390583
 10
121.5565518148101
 20
43.97751181265831
 10
121.6184710788101
 20
43.67711695025831
 10
121.6830373188101
 20
43.38179728625831
 10
121.7502281972101
 20
43.0912456734583
 10
121.8199687700101
 20
42.8054133486583
 10
121.8920861028101
 20
42.5246472254583
 10
121.9664508116101
 20
42.2490840574583
 10
122.0429470852101
 20
41.97879933425831
 10
122.1213825540101
 20
41.7141166494583
 10
122.2016345444101
 20
41.4550913502583
 10
122.2835890212101
 20
41.20174850865831
 10
122.3670699028101
 20
40.9542930606583
 10
122.4519360916101
 20
40.7128025518583
 10
122.5380036660101
 20
40.4774582686583
 10
122.6251123972101
 20
40.2483525518583
 10
122.7132314052101
 20
40.0252405310583
 10
122.8023443108101
 20
39.8078681566583
 10
122.8924127476101
 20
39.59604417745831
  0
LWPOLYLINE
  5
2F
330
2
100
AcDbEntity
  8
0
100
AcDbPolyline
 90
       37
 70
     0
 43
0.0
 10
122.9546077460101
 20
39.6096431518583
 10
122.8763947284101
 20
39.78806160785831
 10
122.7984640836101
 20
39.9714116734583
 10
122.7205888692101
 20
40.1604747726583
 10
122.6427011668101
 20
40.3557742814583
 10
122.5649854532101
 20
40.55722611665831
 10
122.4873443732101
 20
40.7655013422583
 10
122.4096500516101
 20
40.98145326545831
 10
122.3314941268101
 20
41.2068900222583
 10
122.2524800996101
 20
41.4438793838583
 10
122.1726357140101
 20
41.6934969086583
 10
122.0935375652101
 20
41.95185308625831
 10
122.0166238772101
 20
42.21479320465831
 10
121.9416547188101
 20
42.4834489406583
 10
121.8687607668101
 20
42.7577326510583
 10
121.7981493956101
 20
43.0372364718583
 10
121.7304784948101
 20
43.3195411502583
 10
121.6661313124101
 20
43.6029317422583
 10
121.6049888916101
 20
43.8877095294583
 10
121.5467047284101
 20
44.17538126225831
 10
121.4908999332101
 20
44.46804971825829
 10
121.4377192804101
 20
44.7654030478583
 10
121.3872663396101
 20
45.0673187662583
 10
121.3396493348101
 20
45.37363446865831
 10
121.2949929924101
 20
45.68629459025831
 10
121.2533925972101
 20
46.00065649265832
 10
121.2149576308101
 20
46.31868227985832
 10
121.1797899828101
 20
46.64008365265831
 10
121.1479743332101
 20
46.96467731665831
 10
121.1196442372101
 20
47.2916501566583
 10
121.0948647108101
 20
47.62073214705833
 10
121.0736587700101
 20
47.95219572785831
 10
121.0560603316101
 20
48.28621661105831
 10
121.0421365780101
 20
48.62238772145833
 10
121.0319421012101
 20
48.96036350705833
 10
121.0255238196101
 20
49.29973778705832
 10
121.0229176308101
 20
49.64006631505833
  0
LWPOLYLINE
  5
30
330
2
100
AcDbEntity
  8
0
100
AcDbPolyline
 90
       35
 70
     0
 43
0.0
 10
134.7951890164101
 20
39.59604417745831
 10
134.88525745321
 20
39.8078681566583
 10
134.9743703588101
 20
40.0252405310583
 10
135.06248936681
 20
40.2483525518583
 10
135.1495980980101
 20
40.4774582686583
 10
135.23566567241
 20
40.7128025518583
 10
135.32053186121
 20
40.9542930606583
 10
135.4040127428101
 20
41.20174850865831
 10
135.4859672196101
 20
41.4550913502583
 10
135.5662192100101
 20
41.7141166494583
 10
135.6446546788101
 20
41.97879933425831
 10
135.7211509524101
 20
42.2490840574583
 10
135.7955156612101
 20
42.5246472254583
 10
135.8676329940101
 20
42.8054133486583
 10
135.9373735668101
 20
43.0912456734583
 10
136.0045644452101
 20
43.38179728625831
 10
136.06913068521
 20
43.67711695025831
 10
136.1310499492101
 20
43.97751181265831
 10
136.1902647044101
 20
44.2831337390583
 10
136.2466794436101
 20
44.5939758574583
 10
136.3001334932101
 20
44.9096565006583
 10
136.3504844276101
 20
45.2298239582583
 10
136.3975977380101
 20
45.5540998910583
 10
136.44135448681
 20
45.88437952625831
 10
136.4816541908101
 20
46.21588173105831
 10
136.51840472361
 20
46.55058302385831
 10
136.5514889972101
 20
46.88787638225832
 10
136.58081806441
 20
47.22723991825833
 10
136.6063400740101
 20
47.56844309745832
 10
136.6280264356101
 20
47.91155275985832
 10
136.6458644196101
 20
48.25692144945833
 10
136.6597860292101
 20
48.60387714065831
 10
136.6697523796101
 20
48.95200665105832
 10
136.6757363876101
 20
49.30096156625831
 10
136.6777189108101
 20
49.6503910814583
  0
LWPOLYLINE
  5
31
330
2
100
AcDbEntity
  8
0
100
AcDbPolyline
 90
       29
 70
     0
 43
0.0
 10
135.31043627401
 20
41.0231430126583
 10
135.4205139172101
 20
41.3500903998583
 10
135.5252036964101
 20
41.6788620254583
 10
135.6246809940101
 20
42.00941934865831
 10
135.7190496932101
 20
42.3415718094583
 10
135.8083946836101
 20
42.67509662225831
 10
135.8927963988101
 20
43.0097941534583
 10
135.9723405092101
 20
43.34550343985831
 10
136.0471380804101
 20
43.68219506065829
 10
136.1173496996101
 20
44.0201415662583
 10
136.1833086116101
 20
44.3606918462583
 10
136.2250931060101
 20
44.5899697406583
 10
136.26519805001
 20
44.8215963582583
 10
136.3036666964101
 20
45.0560440878583
 10
136.3405217204101
 20
45.2936767822583
 10
136.3757035268101
 20
45.5344241550583
 10
136.4091319460101
 20
45.78035545425833
 10
136.4407294452101
 20
46.02679123505832
 10
136.4704290276101
 20
46.27577832465831
 10
136.4981663364101
 20
46.52711099665831
 10
136.5238792260101
 20
46.78058288305831
 10
136.5475144116101
 20
47.03598505265833
 10
136.5690208244101
 20
47.29310793265833
 10
136.5971890612101
 20
47.68157090385833
 10
136.6203509812101
 20
48.07279119025833
 10
136.6384153588101
 20
48.46606712945831
 10
136.65133272361
 20
48.86046139985831
 10
136.6590714180101
 20
49.2551991534583
 10
136.6616292564101
 20
49.6503910814583
  0
LWPOLYLINE
  5
32
330
2
100
AcDbEntity
  8
0
100
AcDbPolyline
 90
       37
 70
     0
 43
0.0
 10
136.6646841332101
 20
49.64006631505833
 10
136.6620785636101
 20
49.2997843662583
 10
136.6556622116101
 20
48.96046734545831
 10
136.6454708884101
 20
48.62254703665832
 10
136.6315517572101
 20
48.28643603345833
 10
136.6139588388101
 20
47.95246735985833
 10
136.5927593764101
 20
47.62105274225831
 10
136.5679881268101
 20
47.29202808305831
 10
136.5396666564101
 20
46.96510218865831
 10
136.5078614340101
 20
46.64056239505831
 10
136.4727047316101
 20
46.31920861745832
 10
136.4342817956101
 20
46.00123024145831
 10
136.39269428841
 20
45.68691387665832
 10
136.3480508100101
 20
45.3742918878583
 10
136.3004486292101
 20
45.06802073105831
 10
136.2500109348101
 20
44.76614569105831
 10
136.1968456164101
 20
44.4688280078583
 10
136.1410533412101
 20
44.1761762110583
 10
136.0827869348101
 20
43.8885439214583
 10
136.0216670148101
 20
43.6038218958583
 10
135.9573419348101
 20
43.32047834865831
 10
135.8896933700101
 20
43.0382156862583
 10
135.8191012036101
 20
42.75873666385829
 10
135.7462274116101
 20
42.4844782670583
 10
135.6712786916101
 20
42.2158458846583
 10
135.5943859572101
 20
41.95292812305829
 10
135.5153089444101
 20
41.6945923022583
 10
135.4354717876101
 20
41.44495103825831
 10
135.3564683140101
 20
41.20795048625831
 10
135.2783221012101
 20
40.98250172305831
 10
135.2006402772101
 20
40.7665466478583
 10
135.1230133764101
 20
40.5582729998583
 10
135.0453117444101
 20
40.3568223998583
 10
134.9674557316101
 20
40.1615671374583
 10
134.8894538244101
 20
39.97216761905831
 10
134.8114144516101
 20
39.78854044945831
 10
134.73299417321
 20
39.60964350225831
  0
LWPOLYLINE
  5
33
330
2
100
AcDbEntity
  8
0
100
AcDbPolyline
 90
       24
 70
     0
 43
0.0
 10
94.56552099241012
 20
49.6503910814583
 10
94.56690106441012
 20
49.45192491345832
 10
94.57088561801013
 20
49.25927091345832
 10
94.57750018601013
 20
49.06635688945832
 10
94.58683010601012
 20
48.87206068465832
 10
94.5988096484101
 20
48.67836079025832
 10
94.61339461481012
 20
48.48565175825831
 10
94.63062033801012
 20
48.29327525105833
 10
94.65048041481011
 20
48.10128163185831
 10
94.67297619401012
 20
47.90963624945831
 10
94.69811085001012
 20
47.71830604305833
 10
94.72588705481012
 20
47.52727550225833
 10
94.75630813321012
 20
47.3365325230583
 10
94.7893832916101
 20
47.14603738865832
 10
94.82512709321012
 20
46.95573671185832
 10
94.86355168841013
 20
46.76560571345831
 10
94.90466581641012
 20
46.57564389745831
 10
94.94847874121012
 20
46.38585145585831
 10
94.99498013001012
 20
46.19630912305832
 10
95.04425062441013
 20
46.00674232305832
 10
95.09629427241012
 20
45.81720976305831
 10
95.15094986601011
 20
45.6260699006583
 10
95.20812751081011
 20
45.4380763502583
 10
95.26762943401012
 20
45.2515947518583
  0
LWPOLYLINE
  5
34
330
2
100
AcDbEntity
  8
0
100
AcDbPolyline
 90
        7
 70
     0
 43
0.0
 10
92.87159983721011
 20
48.5436445662583
 10
92.88220300681011
 20
48.34966067665831
 10
92.94073025161011
 20
47.58494144145831
 10
93.02433606601011
 20
46.83436079985833
 10
93.13181014121012
 20
46.09850036625831
 10
93.26187307561012
 20
45.3760004062583
 10
93.41050476041012
 20
44.68395684305831
  0
LINE
  5
35
330
2
100
AcDbEntity
  8
0
100
AcDbLine
 10
134.7444136644101
 20
38.2695582942583
 30
0.0
 11
135.0592894580101
 21
38.2027689166583
 31
0.0
  0
LINE
  5
36
330
2
100
AcDbEntity
  8
0
100
AcDbLine
 10
135.06024697961
 20
38.21926448945831
 30
0.0
 11
134.9188232388101
 21
38.24706162385828
 31
0.0
  0
LWPOLYLINE
  5
37
330
2
100
AcDbEntity
  8
0
100
AcDbPolyline
 90
       42
 70
     0
 43
0.0
 10
135.7020112948101
 20
37.1569748126583
 10
135.5540900292101
 20
37.18870030225831
 10
135.4092860708101
 20
37.2190567598583
 10
135.2677105956101
 20
37.24807064465831
 10
135.1294747812101
 20
37.27576842065831
 10
134.99462350921
 20
37.3021876590583
 10
134.86293650281
 20
37.3274103486583
 10
134.7341271908101
 20
37.3515295870583
 10
134.6079090036101
 20
37.3746384718583
 10
134.4431935668101
 20
37.40402448465831
 10
134.2821367220101
 20
37.4319099838583
 10
134.1243000740101
 20
37.4584251390583
 10
133.9692297268101
 20
37.4836975902583
 10
133.81640978761
 20
37.50784487505831
 10
133.6653088628101
 20
37.5309820126583
 10
133.4407883204101
 20
37.56401869905831
 10
133.2175671892101
 20
37.5952699854583
 10
132.9942552052101
 20
37.6249531198583
 10
132.7693919764101
 20
37.65323974865831
 10
132.5419160532101
 20
37.6802331918583
 10
132.3124318484101
 20
37.70580908305831
 10
132.1590494244101
 20
37.7219694606583
 10
132.0068423620101
 20
37.7372865502583
 10
131.8574248676101
 20
37.7516276558583
 10
131.7121707780101
 20
37.7648914574583
 10
131.5714924436101
 20
37.77710211185831
 10
131.4355618452101
 20
37.78831514865831
 10
131.3043798308101
 20
37.7985947390583
 10
131.1772627236101
 20
37.8080396190583
 10
131.0533557108101
 20
37.81675716785831
 10
130.8717829076101
 20
37.8286749070583
 10
130.6934566164101
 20
37.8393817854583
 10
130.5162311044101
 20
37.84904901265831
 10
130.3375892212101
 20
37.85779651025831
 10
130.1554706868101
 20
37.8656980126583
 10
129.9700141108101
 20
37.87269378385831
 10
129.7819846980101
 20
37.87869618225831
 10
129.5924551396101
 20
37.88363941745831
 10
129.4026407428101
 20
37.88747288785831
 10
129.2140198036101
 20
37.89018488465831
 10
129.0277946628101
 20
37.8917817806583
 10
128.8438008820101
 20
37.8923033774583
  0
LWPOLYLINE
  5
38
330
2
100
AcDbEntity
  8
0
100
AcDbPolyline
 90
       22
 70
     0
 43
0.0
 10
134.1136528868101
 20
35.6053408382583
 10
134.2303600308101
 20
35.5798705054583
 10
134.3483311428101
 20
35.54793134545831
 10
134.4644877684101
 20
35.5101447822583
 10
134.5784866052101
 20
35.4666263054583
 10
134.6899910356101
 20
35.4175094334583
 10
134.7986719732101
 20
35.3629452510583
 10
134.9042086980101
 20
35.30310196625831
 10
135.0062898500101
 20
35.2381643278583
 10
135.1046141172101
 20
35.16833320785831
 10
135.1988913348101
 20
35.0938248862583
 10
135.2888437284101
 20
35.01487007505831
 10
135.3742089300101
 20
34.93171084785831
 10
135.45474016681
 20
34.8445992062583
 10
135.5302045364101
 20
34.7537979726583
 10
135.6003840772101
 20
34.65957914865831
 10
135.66507741641
 20
34.5622207230583
 10
135.7240982564101
 20
34.4620073550583
 10
135.7772751988101
 20
34.3592298638583
 10
135.8244513604101
 20
34.2541855918583
 10
135.8654847316101
 20
34.1471778350583
 10
135.8944376196101
 20
34.0582538942583
  0
LWPOLYLINE
  5
39
330
2
100
AcDbEntity
  8
0
100
AcDbPolyline
 90
       25
 70
     0
 43
0.0
 10
147.1093087092101
 20
33.3390329486583
 10
146.8392756660101
 20
33.3124149310583
 10
146.5614736340101
 20
33.2880999502583
 10
146.2753325364101
 20
33.26617505585831
 10
145.9802882676101
 20
33.2467427310583
 10
145.6756840036101
 20
33.2299147726583
 10
145.3606831172101
 20
33.21581262225831
 10
145.0348678452101
 20
33.20458811185829
 10
144.6926225700101
 20
33.1962957278583
 10
144.3163446260101
 20
33.1909496782583
 10
143.8925046100101
 20
33.1889230014583
 10
143.4142358404101
 20
33.19034773585831
 10
142.8796665780101
 20
33.1947685086583
 10
142.2849508180101
 20
33.2011723054583
 10
141.6215915428101
 20
33.2079530238583
 10
140.8790906948101
 20
33.21365141745831
 10
140.0472752212101
 20
33.2180162414583
 10
139.1150700484101
 20
33.2209013966583
 10
138.0698106132101
 20
33.22211280305831
 10
136.8975121044101
 20
33.2214571966583
 10
135.5836625028101
 20
33.21883231985831
 10
134.1129666324101
 20
33.21442036305831
 10
132.4592638324101
 20
33.2089315886583
 10
130.6031006468101
 20
33.20396029425831
 10
128.8438008820101
 20
33.2020298830583
  0
LWPOLYLINE
  5
3A
330
2
100
AcDbEntity
  8
0
100
AcDbPolyline
 90
        4
 70
     0
 43
0.0
 10
128.8438008820101
 20
28.65039108145831
 10
134.3159734388101
 20
28.6502866558583
 10
139.6516719412101
 20
28.6500761998583
 10
144.8465160180101
 20
28.65044090865831
  0
LWPOLYLINE
  5
3B
330
2
100
AcDbEntity
  8
0
100
AcDbPolyline
 90
       17
 70
     0
 43
0.0
 10
135.2678280180101
 20
36.9317995598583
 10
134.4690930644101
 20
37.0385249598583
 10
133.66662040201
 20
37.13137418545831
 10
132.8636180468101
 20
37.20991598225831
 10
132.0601804404101
 20
37.27416138065831
 10
131.2564029812101
 20
37.32411964945831
 10
130.4523793828101
 20
37.3597985118583
 10
129.6481951284101
 20
37.38120414065831
 10
128.8439305860101
 20
37.38834044785831
 10
128.0396659940101
 20
37.38120874065831
 10
127.2354816276101
 20
37.35980771185831
 10
126.4314579156101
 20
37.3241334494583
 10
125.6276803572101
 20
37.2741797854583
 10
124.8242426356101
 20
37.20993899345831
 10
124.0212400980101
 20
37.13140180465831
 10
123.2187671556101
 20
37.0385571806583
 10
122.4197737460101
 20
36.9317995598583
  0
LINE
  5
3C
330
2
100
AcDbEntity
  8
0
100
AcDbLine
 10
122.0795167316101
 20
34.64814301265829
 30
0.0
 11
135.6081333316101
 21
34.64814301265829
 31
0.0
  0
LWPOLYLINE
  5
3D
330
2
100
AcDbEntity
  8
0
100
AcDbPolyline
 90
       59
 70
     0
 43
0.0
 10
109.9883686500101
 20
37.37410251825831
 10
109.7975529828101
 20
37.42437713105831
 10
109.6092865684101
 20
37.4771234654583
 10
109.4235668772101
 20
37.5322576926583
 10
109.2404158500101
 20
37.58968662225831
 10
109.0599533156101
 20
37.6492796382583
 10
108.8823235684101
 20
37.7108967662583
 10
108.7076598100101
 20
37.7743982974583
 10
108.5360508484101
 20
37.8396456062583
 10
108.3675744020101
 20
37.90650033425831
 10
108.2023087924101
 20
37.9748223662583
 10
108.0403347684101
 20
38.04446454225831
 10
107.8817336916101
 20
38.1152779518583
 10
107.7266344628101
 20
38.1870849470583
 10
107.5753561604101
 20
38.2595929534583
 10
107.4282654100101
 20
38.3324806702583
 10
107.3209116948101
 20
38.38719946385831
 10
107.2162486980101
 20
38.44179821425831
 10
107.1144054196101
 20
38.49612401905829
 10
107.0155108548101
 20
38.55002398385831
 10
106.9196579668101
 20
38.6033650254583
 10
106.8267955780101
 20
38.6560933390583
 10
106.7368364756101
 20
38.7081749326583
 10
106.6496934468101
 20
38.75957581585831
 10
106.5377311796101
 20
38.82700185585831
 10
106.4304051972101
 20
38.8931317022583
 10
106.3275004772101
 20
38.9579397390583
 10
106.2288093012101
 20
39.0214016686583
 10
106.1341531796101
 20
39.0834984590583
 10
106.0433609348101
 20
39.1442123998583
 10
105.9562657684101
 20
39.2035275518583
 10
105.8727184164101
 20
39.2614350814583
 10
105.7925739988101
 20
39.31792793105831
 10
105.7156813396101
 20
39.3730079758583
 10
105.6418640756101
 20
39.42671282865831
 10
105.5709395444101
 20
39.47908903985831
 10
105.5027223860101
 20
39.53018984625831
 10
105.4370164228101
 20
39.58009524945831
 10
105.3736227780101
 20
39.6288919390583
 10
105.3123402276101
 20
39.6766728046583
 10
105.2529581668101
 20
39.72355552625831
 10
105.1952636436101
 20
39.7696639790583
 10
105.1114161332101
 20
39.8376636350583
 10
105.0301435572101
 20
39.90472444625829
 10
104.9507439796101
 20
39.97134838065831
 10
104.8726792772101
 20
40.0379471358583
 10
104.7954590068101
 20
40.10491263505831
 10
104.7186196484101
 20
40.1726479470583
 10
104.6417115364101
 20
40.2415618478583
 10
104.5643134884101
 20
40.3120747790583
 10
104.5122446740101
 20
40.3601770702583
 10
104.4596906548101
 20
40.4092811710583
 10
104.4065679988101
 20
40.45949005265831
 10
104.3527847300101
 20
40.5109182766583
 10
104.2982146676101
 20
40.56372677905829
 10
104.2427230868101
 20
40.61808808625831
 10
104.1862159284101
 20
40.6741362686583
 10
104.1287618132101
 20
40.73185155025831
 10
104.0704700324101
 20
40.7911757022583
  0
LWPOLYLINE
  5
3E
330
2
100
AcDbEntity
  8
0
100
AcDbPolyline
 90
       35
 70
     0
 43
0.0
 10
106.7871722676101
 20
40.5968145278583
 10
106.8605984756101
 20
40.5374208766583
 10
106.9360544404101
 20
40.47733420145831
 10
107.0133480996101
 20
40.41671163025831
 10
107.0923642388101
 20
40.35564597425831
 10
107.1732950404101
 20
40.29397279185831
 10
107.2564095380101
 20
40.2314633278583
 10
107.3418835604101
 20
40.16796860625831
 10
107.4295201252101
 20
40.1036587614583
 10
107.5190290436101
 20
40.03878370225829
 10
107.6101201300101
 20
39.97359334385831
 10
107.7025031988101
 20
39.9083375982583
 10
107.7958880644101
 20
39.8432663758583
 10
107.8664938708101
 20
39.79467683025831
 10
107.9378833076101
 20
39.74609171985831
 10
108.0102825428101
 20
39.6973779422583
 10
108.0832890148101
 20
39.64882972625831
 10
108.1807482500101
 20
39.5849404670583
 10
108.2778059332101
 20
39.5223550142583
 10
108.3739760756101
 20
39.4613698526583
 10
108.4689230660101
 20
39.40218606225831
 10
108.5629128148101
 20
39.34462311505831
 10
108.6563616100101
 20
39.2884050814583
 10
108.7961721988101
 20
39.2061565838583
 10
108.9355535876101
 20
39.1263447006583
 10
109.0744073364101
 20
39.0489755646583
 10
109.2128360804101
 20
38.9739542334583
 10
109.3509927172101
 20
38.9011604926583
 10
109.4890301460101
 20
38.83047412945831
 10
109.6731763572101
 20
38.7393082526583
 10
109.8578497108101
 20
38.6514636238583
 10
110.0435174596101
 20
38.56672875665831
 10
110.2305438036101
 20
38.48494118065831
 10
110.4188807588101
 20
38.4061344734583
 10
110.6083772964101
 20
38.3303912286583
  0
LWPOLYLINE
  5
3F
330
2
100
AcDbEntity
  8
0
100
AcDbPolyline
 90
       33
 70
     0
 43
0.0
 10
107.0384385092101
 20
36.5681739710583
 10
107.1421441188101
 20
36.5041987150583
 10
107.2480883028101
 20
36.4403967774583
 10
107.3563478612101
 20
36.37679800465831
 10
107.4669995924101
 20
36.3134322462583
 10
107.5800821124101
 20
36.2503489918583
 10
107.6954812932101
 20
36.18767631185831
 10
107.8130448292101
 20
36.1255619246583
 10
107.9326204068101
 20
36.06415354225831
 10
108.0949411940101
 20
35.98360617265831
 10
108.2603276628101
 20
35.9047882686583
 10
108.4285393060101
 20
35.8279115726583
 10
108.5993232948101
 20
35.7531834014583
 10
108.7723775268101
 20
35.6807933758583
 10
108.9473875828101
 20
35.61092669585831
 10
109.1240569044101
 20
35.54375246705831
 10
109.3021603924101
 20
35.4793754206583
 10
109.4814908068101
 20
35.4178841902583
 10
109.6618378004101
 20
35.35936185265831
 10
109.8429785908101
 20
35.3038692398583
 10
110.0246872836101
 20
35.2514616206583
 10
110.2067645364101
 20
35.20218301265831
 10
110.3891172132101
 20
35.1560324174583
 10
110.5716787316101
 20
35.1129975838583
 10
110.7543833236101
 20
35.0730658670583
 10
110.9371684820101
 20
35.0362230558583
 10
111.1199725124101
 20
35.0024545502583
 10
111.3027301476101
 20
34.9717451742583
 10
111.4853618324101
 20
34.9440774558583
 10
111.6677844372101
 20
34.9194333486583
 10
111.8499227044101
 20
34.89779313745831
 10
112.0317328548101
 20
34.8791304462583
 10
112.2131789860101
 20
34.8634172302583
  0
LWPOLYLINE
  5
40
330
2
100
AcDbEntity
  8
0
100
AcDbPolyline
 90
       92
 70
     0
 43
0.0
 10
103.5658770564101
 20
46.14122622545832
 10
103.6019323620101
 20
45.98387649105832
 10
103.6400274596101
 20
45.82595452785831
 10
103.6801910020101
 20
45.66766081425832
 10
103.7224479316101
 20
45.50694645425831
 10
103.7668211572101
 20
45.3484989566583
 10
103.8133078484101
 20
45.1903337214583
 10
103.8618757236101
 20
45.03278090065831
 10
103.9124686436101
 20
44.87620391825831
 10
103.9650584900101
 20
44.7208409614583
 10
104.0197499380101
 20
44.5665250510583
 10
104.0767284532101
 20
44.4128861214583
 10
104.1360577956101
 20
44.2599218334583
 10
104.1974429908101
 20
44.10850529905831
 10
104.2604067396101
 20
43.9597910990583
 10
104.3247139412101
 20
43.81420851985831
 10
104.3903408468101
 20
43.67166398065831
 10
104.4572691892101
 20
43.53206174705831
 10
104.5254762532101
 20
43.3953247086583
 10
104.5949189492101
 20
43.26142145905831
 10
104.6656422228101
 20
43.1301611118583
 10
104.7374477108101
 20
43.0018042190583
 10
104.8092732900101
 20
42.87802977425831
 10
104.8799817476101
 20
42.7604018750583
 10
104.9493759956101
 20
42.6487864702583
 10
105.0177840676101
 20
42.5422574990583
 10
105.0854710452101
 20
42.4400905598583
 10
105.1526227716101
 20
42.3417563518583
 10
105.2193942100101
 20
42.24682524465831
 10
105.2859144644101
 20
42.15494715505831
 10
105.3522901060101
 20
42.0658368366583
 10
105.4186292772101
 20
41.9792351822583
 10
105.4849969028101
 20
41.8949621086583
 10
105.5515553876101
 20
41.81273656305831
 10
105.6182330820101
 20
41.73258198705831
 10
105.6850570740101
 20
41.65440614545831
 10
105.7544996420101
 20
41.57537481905831
 10
105.8311291460101
 20
41.4906501022583
 10
105.9166577428101
 20
41.3989644254583
 10
106.0084178452101
 20
41.3037388942583
 10
106.1040015796101
 20
41.2077456894583
 10
106.2035157428101
 20
41.1110072830583
 10
106.3076353140101
 20
41.0130083470583
 10
106.4170381860101
 20
40.91328165745831
 10
106.5323911172101
 20
40.8114095726583
 10
106.6552880692101
 20
40.7062273406583
 10
106.7856916260101
 20
40.59802430865831
 10
106.9143670804101
 20
40.4943263838583
 10
107.0307257412101
 20
40.4028941038583
 10
107.1352399556101
 20
40.3224592574583
 10
107.2318564260101
 20
40.24937695985831
 10
107.3226358532101
 20
40.1817103726583
 10
107.4123068132101
 20
40.1157260830583
 10
107.5064420932101
 20
40.0473207022583
 10
107.6069599380101
 20
39.97526928305831
 10
107.7141543508101
 20
39.8995758510583
 10
107.8290797236101
 20
39.81975680625831
 10
107.9530818340101
 20
39.7352065822583
 10
108.0878177828101
 20
39.6452197134583
 10
108.2362418020101
 20
39.54839839985829
 10
108.4001567316101
 20
39.4443303982583
 10
108.5721640436101
 20
39.3384050158583
 10
108.7430619732101
 20
39.2365255678583
 10
108.9131828468101
 20
39.13841602225831
 10
109.0839825460101
 20
39.0431654942583
 10
109.2549338260101
 20
38.95104055825831
 10
109.4258537828101
 20
38.86209629265831
 10
109.5965573908101
 20
38.7763829182583
 10
109.7669375220101
 20
38.6939058814583
 10
109.9371003652101
 20
38.6145694990583
 10
110.1073749940101
 20
38.53818168625831
 10
110.2780539332101
 20
38.46457699185831
 10
110.4492129380101
 20
38.39370035185829
 10
110.6208722660101
 20
38.3255251998583
 10
110.7930974996101
 20
38.26001065105831
 10
110.9659840948101
 20
38.19710998225831
 10
111.1396502628101
 20
38.1367746094583
 10
111.3141508692101
 20
38.07898332465831
 10
111.4894125620101
 20
38.0237607710583
 10
111.6654431700101
 20
37.97110855985831
 10
111.8425057780101
 20
37.92095399985831
 10
112.0209207508101
 20
37.87322110545831
 10
112.2009800372101
 20
37.82785559985831
 10
112.3829829156101
 20
37.7848142126583
 10
112.5672259780101
 20
37.7440671470583
 10
112.7540248756101
 20
37.7055939502583
 10
112.9443690372101
 20
37.6692590430583
 10
113.1397334244101
 20
37.6348769726583
 10
113.3408616900101
 20
37.60243320145831
 10
113.5477877236101
 20
37.5720566254583
 10
113.7604902980101
 20
37.5438819934583
 10
113.9789429252101
 20
37.51804267985831
  0
LWPOLYLINE
  5
41
330
2
100
AcDbEntity
  8
0
100
AcDbPolyline
 90
       75
 70
     0
 43
0.0
 10
96.66783626441011
 20
42.0917583454583
 10
96.77367082441012
 20
41.9053875054583
 10
96.88243567081011
 20
41.71982061265831
 10
96.99413952681013
 20
41.53508412945831
 10
97.10880864041012
 20
41.35117336625831
 10
97.22656577161012
 20
41.1679372622583
 10
97.34740493961012
 20
40.98543635505831
 10
97.47126266921013
 20
40.80381024305831
 10
97.59807843721013
 20
40.62318863505831
 10
97.72780942441011
 20
40.44367080305831
 10
97.86047948041012
 20
40.26525892785831
 10
97.99612600041012
 20
40.0879396670583
 10
98.13481354921012
 20
39.9116686046583
 10
98.27661080041011
 20
39.7364018670583
 10
98.42152650761011
 20
39.56217441425831
 10
98.56955854601011
 20
39.3890338494583
 10
98.72070001641013
 20
39.2170314126583
 10
98.87501077481012
 20
39.0461433198583
 10
99.03253924521012
 20
38.8763625310583
 10
99.19329985161011
 20
38.70772086065831
 10
99.35728701161011
 20
38.5402705966583
 10
99.5243779700101
 20
38.37417974545831
 10
99.69450303561012
 20
38.2095566222583
 10
99.86766106121011
 20
38.0464390382583
 10
100.0438613012101
 20
37.88485470705831
 10
100.2231235284101
 20
37.7248223470583
 10
100.4054700660101
 20
37.56635956145831
 10
100.5908817652101
 20
37.40951953905831
 10
100.7793866100101
 20
37.2543158670583
 10
100.9709225140101
 20
37.10083570225831
 10
101.1654063700101
 20
36.9491767822583
 10
101.3627495252101
 20
36.79943662705831
 10
101.5615150788101
 20
36.6527010942583
 10
101.7608657460101
 20
36.5095626318583
 10
101.9603575268101
 20
36.3702919038583
 10
102.1599219028101
 20
36.23487399985831
 10
102.3596360852101
 20
36.1031989326583
 10
102.5595143460101
 20
35.9752037534583
 10
102.7594378788101
 20
35.85090944145831
 10
102.9590893716101
 20
35.73044709425831
 10
103.1582507316101
 20
35.61387037105831
 10
103.3568373300101
 20
35.5011515742583
 10
103.5548275684101
 20
35.3922285358583
 10
103.7522359780101
 20
35.28702011505831
 10
103.9490797108101
 20
35.1854467278583
 10
104.1453842388101
 20
35.0874269150583
 10
104.3412000228101
 20
34.9928700158583
 10
104.5365604628101
 20
34.9016968446583
 10
104.7316458884101
 20
34.81377090705831
 10
104.9272048004101
 20
34.72871310385831
 10
105.1237251812101
 20
34.64628280305831
 10
105.3212141764101
 20
34.5664592590583
 10
105.5197291060101
 20
34.48920304465831
 10
105.7193813716101
 20
34.41445815025831
 10
105.9203159668101
 20
34.34216244305829
 10
106.1226473540101
 20
34.2722709646583
 10
106.3264487572101
 20
34.2047574974583
 10
106.5318014036101
 20
34.1395968670583
 10
106.7392227924101
 20
34.07663462865831
 10
106.9494050132101
 20
34.0156833502583
 10
107.1625482388101
 20
33.9567170382583
 10
107.3787297028101
 20
33.8997490478583
 10
107.5981168132101
 20
33.84477180785831
 10
107.8209443700101
 20
33.7917672750583
 10
108.0473545492101
 20
33.7407473310583
 10
108.2774240388101
 20
33.69174218545831
 10
108.5114117860101
 20
33.6447467198583
 10
108.7499431028101
 20
33.5996948334583
 10
108.9936569300101
 20
33.5565311502583
 10
109.2430038692101
 20
33.51524722225831
 10
109.4982180980101
 20
33.47588126865831
 10
109.7596854260101
 20
33.4384522622583
 10
110.0282513652101
 20
33.40293492145831
 10
110.3027245588101
 20
33.3695433934583
 10
110.5782930548101
 20
33.3390329486583
  0
LWPOLYLINE
  5
42
330
2
100
AcDbEntity
  8
0
100
AcDbPolyline
 90
       26
 70
     0
 43
0.0
 10
94.69838369001012
 20
40.81707441745829
 10
95.09429381001011
 20
39.9707238078583
 10
95.52508779881012
 20
39.1454869198583
 10
95.9895589828101
 20
38.34311490225831
 10
96.48648485961011
 20
37.56523613105831
 10
97.01459053001011
 20
36.8132211886583
 10
97.57250573481011
 20
36.08847783665829
 10
98.15886465801012
 20
35.3923280670583
 10
98.77231976361011
 20
34.7258234078583
 10
99.41129362121012
 20
34.09018247345831
 10
100.0743012916101
 20
33.4864675854583
 10
100.7600749172101
 20
32.9153609534583
 10
101.4671311780101
 20
32.3776767694583
 10
102.1941073716101
 20
31.8741200654583
 10
102.9397831556101
 20
31.40518386385831
 10
103.7025534980101
 20
30.97154625585829
 10
104.4809193204101
 20
30.5738082206583
 10
105.2735995988101
 20
30.2123570574583
 10
106.0792684692101
 20
29.88754311345831
 10
106.8961418932101
 20
29.5999117998583
 10
107.7218757444101
 20
29.3500363326583
 10
108.5539947188101
 20
29.1383535758583
 10
109.3917616612101
 20
28.9648380462583
 10
110.2359427604101
 20
28.82921434225831
 10
111.0861343732101
 20
28.73147764305831
 10
111.9416130548101
 20
28.6718054782583
  0
LWPOLYLINE
  5
43
330
2
100
AcDbEntity
  8
0
100
AcDbPolyline
 90
       49
 70
     0
 43
0.0
 10
104.0704700324101
 20
40.7911757022583
 10
104.0897290772101
 20
40.7047012910583
 10
104.1104082388101
 20
40.6174046750583
 10
104.1325525236101
 20
40.5292997534583
 10
104.1562025924101
 20
40.4404138446583
 10
104.1813817076101
 20
40.3508279310583
 10
104.2081087892101
 20
40.2606364078583
 10
104.2364054820101
 20
40.1699223006583
 10
104.2663043588101
 20
40.0787231406583
 10
104.2978407188101
 20
39.98706508625831
 10
104.3310443172101
 20
39.8949869854583
 10
104.3659227076101
 20
39.8025784366583
 10
104.4024779012101
 20
39.70994172785831
 10
104.4407179828101
 20
39.6171622590583
 10
104.4806753508101
 20
39.5242578622583
 10
104.5223884820101
 20
39.4312294782583
 10
104.5658950612101
 20
39.3380821486583
 10
104.6112295876101
 20
39.2448372958583
 10
104.6584257684101
 20
39.1515204382583
 10
104.7075212948101
 20
39.0581519550583
 10
104.7585697940101
 20
38.9647316494583
 10
104.8116288836101
 20
38.87125418705831
 10
104.8667536388101
 20
38.77772145425831
 10
104.9239889828101
 20
38.6841642398583
 10
104.9833772996101
 20
38.5906205582583
 10
105.0449609380101
 20
38.4971296638583
 10
105.1087820996101
 20
38.40373578065831
 10
105.1748829524101
 20
38.31048437265831
 10
105.2432987988101
 20
38.2174302270583
 10
105.3140375060101
 20
38.1246654110583
 10
105.3871000756101
 20
38.0322913134583
 10
105.4624755636101
 20
37.9404184622583
 10
105.5401052324101
 20
37.84919395185831
 10
105.6199183940101
 20
37.7587740110583
 10
105.7018515924101
 20
37.66930226065831
 10
105.7858702932101
 20
37.58087187185831
 10
105.8719471908101
 20
37.4935634062583
 10
105.9600428772101
 20
37.4074649694583
 10
106.0500695252101
 20
37.3226948574583
 10
106.1419272036101
 20
37.23937891505831
 10
106.2355248148101
 20
37.15763110545831
 10
106.3308065908101
 20
37.0775178862583
 10
106.4277256004101
 20
36.9990938334583
 10
106.5262205700101
 20
36.92242074065831
 10
106.6261728852101
 20
36.84758926865831
 10
106.7274495908101
 20
36.7746972958583
 10
106.8299378084101
 20
36.7038255438583
 10
106.9336049508101
 20
36.63498611825831
 10
107.0384385092101
 20
36.5681739710583
  0
LWPOLYLINE
  5
44
330
2
100
AcDbEntity
  8
0
100
AcDbPolyline
 90
       19
 70
     0
 43
0.0
 10
95.26762943401012
 20
45.2515947518583
 10
95.31510359241011
 20
45.10856372145831
 10
95.36688877321012
 20
44.95749652945831
 10
95.42327544521013
 20
44.79835071825831
 10
95.48467661961012
 20
44.63076990385831
 10
95.55151665481011
 20
44.45445613425831
 10
95.62374222921011
 20
44.2703887278583
 10
95.69864252841012
 20
44.0858899294583
 10
95.77561184041011
 20
43.9024195598583
 10
95.85479602761012
 20
43.71955098065831
 10
95.93616337161012
 20
43.5373032062583
 10
96.01970184841011
 20
43.35564370705831
 10
96.10540996681011
 20
43.1745151998583
 10
96.19331643241011
 20
42.9938068462583
 10
96.28348966121013
 20
42.81334324465831
 10
96.37599405641012
 20
42.6329765118583
 10
96.47086472521012
 20
42.4526303038583
 10
96.56813299881012
 20
42.27224525745831
 10
96.66783626441011
 20
42.0917583454583
  0
LWPOLYLINE
  5
45
330
2
100
AcDbEntity
  8
0
100
AcDbPolyline
 90
        5
 70
     0
 43
0.0
 10
93.73304905641012
 20
43.45588190865831
 10
93.84039692041012
 20
43.1018280318583
 10
94.09856676841011
 20
42.32717101425831
 10
94.38485477001012
 20
41.5650096990583
 10
94.69838369001012
 20
40.81707441745829
  0
LWPOLYLINE
  5
46
330
2
100
AcDbEntity
  8
0
100
AcDbPolyline
 90
        4
 70
     0
 43
0.0
 10
93.41050457641012
 20
44.68395763825831
 10
93.51954374441012
 20
44.23517646065831
 10
93.64501999081012
 20
43.7636684798583
 10
93.73304905641012
 20
43.45588190865831
  0
LWPOLYLINE
  5
47
330
2
100
AcDbEntity
  8
0
100
AcDbPolyline
 90
       31
 70
     0
 43
0.0
 10
104.8172660788101
 20
42.8645301534583
 10
104.8824070324101
 20
42.75585011985831
 10
104.9486979108101
 20
42.64875363025831
 10
105.0161310596101
 20
42.54323859825831
 10
105.08470978601
 20
42.43928991345831
 10
105.1544379492101
 20
42.3368934958583
 10
105.2253106372101
 20
42.23605241745831
 10
105.2973261828101
 20
42.1367676846583
 10
105.3705046548101
 20
42.03901485265831
 10
105.4448910612101
 20
41.9427421934583
 10
105.5206084484101
 20
41.84781425425831
 10
105.5977931524101
 20
41.7540931966583
 10
105.6765566356101
 20
41.66151535665831
 10
105.7569349316101
 20
41.5700924734583
 10
105.8386872372101
 20
41.48006371985831
 10
105.9215755188101
 20
41.39163672945831
 10
106.0056496532101
 20
41.3046655294583
 10
106.0624488628101
 20
41.24735245425831
 10
106.12005021801
 20
41.19036095185831
 10
106.1786746628101
 20
41.13346974705829
 10
106.2385369396101
 20
41.07646938225831
 10
106.2998269700101
 20
41.01919768305831
 10
106.3627284772101
 20
40.9615042958583
 10
106.4110817332101
 20
40.9178616302583
 10
106.4605767508101
 20
40.87380110225831
 10
106.5113454916101
 20
40.8292266222583
 10
106.5635199188101
 20
40.78404210385831
 10
106.6172047844101
 20
40.73817540305831
 10
106.6723960068101
 20
40.6916501710583
 10
106.7290622948101
 20
40.6445140014583
 10
106.7871723556101
 20
40.59681449105831
  0
LWPOLYLINE
  5
48
330
2
100
AcDbEntity
  8
0
100
AcDbPolyline
 90
       33
 70
     0
 43
0.0
 10
103.5905604484101
 20
46.09610700145831
 10
103.6250721252101
 20
45.94460677265831
 10
103.6611736052101
 20
45.79378964785831
 10
103.6988940484101
 20
45.64143214705831
 10
103.7382973156101
 20
45.4919178350583
 10
103.7794566580101
 20
45.3428644286583
 10
103.8224481588101
 20
45.1941882718583
 10
103.8673525732101
 20
45.0458122286583
 10
103.9142665028101
 20
44.89763466545831
 10
103.9467262356101
 20
44.7988631806583
 10
103.9802599076101
 20
44.69983914385831
 10
104.0150036516101
 20
44.6002696846583
 10
104.0510994692101
 20
44.49986538225831
 10
104.0887128532101
 20
44.39835062545831
 10
104.1280151636101
 20
44.2954532526583
 10
104.1587067348101
 20
44.21721034705831
 10
104.1905373796101
 20
44.1379289150583
 10
104.2235997556101
 20
44.05750124625831
 10
104.2579865220101
 20
43.9758196270583
 10
104.2937937668101
 20
43.89277916465831
 10
104.3311312932101
 20
43.8082862510583
 10
104.3701123316101
 20
43.7222501022583
 10
104.4108501140101
 20
43.63457993105831
 10
104.4447858324101
 20
43.5632049150583
 10
104.4800035636101
 20
43.4906712942583
 10
104.5165885396101
 20
43.41692434065831
 10
104.5546259908101
 20
43.3419093278583
 10
104.5942011460101
 20
43.26557152625831
 10
104.6353923588101
 20
43.1878754494583
 10
104.6782504836101
 20
43.1088625646583
 10
104.7228194948101
 20
43.0285935790583
 10
104.7691433684101
 20
42.94712919985831
 10
104.8172660836101
 20
42.8645301326583
  0
LWPOLYLINE
  5
49
330
2
100
AcDbEntity
  8
0
100
AcDbPolyline
 90
       71
 70
     0
 43
0.0
 10
121.9855904692101
 20
37.1569748126583
 10
121.7834713060101
 20
37.11396432945831
 10
121.5803236772101
 20
37.0724162894583
 10
121.3760938980101
 20
37.03233678865831
 10
121.1712112212101
 20
36.9938201246583
 10
120.9662187972101
 20
36.9569751294583
 10
120.7616324308101
 20
36.9218805726583
 10
120.5578513140101
 20
36.8885861550583
 10
120.3548355284101
 20
36.85705538865831
 10
120.1520276052101
 20
36.8271830926583
 10
119.9472389780101
 20
36.79867552945831
 10
119.8083300868101
 20
36.7802700174583
 10
119.6666140164101
 20
36.7622766462583
 10
119.5213178292101
 20
36.7446525102583
 10
119.3718532372101
 20
36.7273803646583
 10
119.2183705524101
 20
36.71054562065831
 10
119.0612047396101
 20
36.6942593534583
 10
118.9007583668101
 20
36.6786313422583
 10
118.7377044308101
 20
36.66376617105831
 10
118.5727835380101
 20
36.64976713585831
 10
118.4064943764101
 20
36.6367174302583
 10
118.2383679860101
 20
36.6246198606583
 10
118.0676934852101
 20
36.61345713425831
 10
117.9375647972101
 20
36.6056923454583
 10
117.8051651556101
 20
36.5984613806583
 10
117.6700567860101
 20
36.5917819374583
 10
117.5318019172101
 20
36.58567171505831
 10
117.3899565156101
 20
36.5801559422583
 10
117.2440515268101
 20
36.57528996465831
 10
117.0936116372101
 20
36.57113666065831
 10
116.9381615348101
 20
36.5677589038583
 10
116.8099026004101
 20
36.5656617486583
 10
116.6780570436101
 20
36.5641597902583
 10
116.5425489812101
 20
36.56331163185831
 10
116.4033025268101
 20
36.5631758814583
 10
116.2602417972101
 20
36.5638111406583
 10
116.1133332900101
 20
36.5652765198583
 10
115.9627130404101
 20
36.5676331390583
 10
115.8085594708101
 20
36.5709426254583
 10
115.6510509988101
 20
36.57526660305831
 10
115.4903660452101
 20
36.58066669905831
 10
115.2854071908101
 20
36.5890077198583
 10
115.0766670644101
 20
36.5991492174583
 10
114.8650488708101
 20
36.6111139438583
 10
114.6514558100101
 20
36.62492464945831
 10
114.4367112724101
 20
36.6405983950583
 10
114.2213193780101
 20
36.6581294606583
 10
114.0060230292101
 20
36.67745736465831
 10
113.7928394740101
 20
36.6983253662583
 10
113.5834381108101
 20
36.72050759345831
 10
113.3768225876101
 20
36.7440979326583
 10
113.1713301108101
 20
36.76927020785831
 10
112.9652978884101
 20
36.79619824145829
 10
112.7576731716101
 20
36.8249871086583
 10
112.5498434084101
 20
36.85546688465831
 10
112.3434418036101
 20
36.88743805745831
 10
112.1386444308101
 20
36.9208577422583
 10
111.9354353748101
 20
36.9556861310583
 10
111.7344878852101
 20
36.9917391022583
 10
111.5366475060101
 20
37.02879645905831
 10
111.3427597828101
 20
37.0666379998583
 10
111.1910219668101
 20
37.0973295134583
 10
111.0425373940101
 20
37.1282790862583
 10
110.8974884564101
 20
37.1593838270583
 10
110.7560575524101
 20
37.1905408478583
 10
110.6184270740101
 20
37.2216472574583
 10
110.4847370468101
 20
37.2526104318583
 10
110.3549580164101
 20
37.28337882385829
 10
110.2290181572101
 20
37.31391115665831
 10
110.1068456436101
 20
37.3441661470583
 10
109.9883686500101
 20
37.37410251825831
  0
LWPOLYLINE
  5
4A
330
2
100
AcDbEntity
  8
0
100
AcDbPolyline
 90
       43
 70
     0
 43
0.0
 10
128.8438008820101
 20
37.8923033774583
 10
128.6596383892101
 20
37.89178080785831
 10
128.4732669364101
 20
37.89018127825831
 10
128.2845232212101
 20
37.88746535345831
 10
128.0946017236101
 20
37.8836267998583
 10
127.9049727844101
 20
37.87867743985831
 10
127.7168524100101
 20
37.8726681630583
 10
127.5313091924101
 20
37.8656647166583
 10
127.3490763924101
 20
37.85775322385831
 10
127.1702553780101
 20
37.84899130225831
 10
126.9927552644101
 20
37.8393021566583
 10
126.8738809652101
 20
37.83226930705831
 10
126.7538097044101
 20
37.82471990065831
 10
126.6319303220101
 20
37.8165985470583
 10
126.5075892548101
 20
37.8078408302583
 10
126.3799633204101
 20
37.7983462398583
 10
126.2481869348101
 20
37.78800523505831
 10
126.1115737892101
 20
37.77671768145831
 10
125.9701546724101
 20
37.76442105105831
 10
125.8241396484101
 20
37.75106221905831
 10
125.6739721428101
 20
37.7366190622583
 10
125.5210290324101
 20
37.7211934798583
 10
125.3669205572101
 20
37.70491837105831
 10
125.1363581204101
 20
37.67915877265831
 10
124.9078088116101
 20
37.6519665102583
 10
124.6819152612101
 20
37.6234714398583
 10
124.4578419956101
 20
37.59360389265831
 10
124.2343525284101
 20
37.5622276062583
 10
124.0100844212101
 20
37.5291395006583
 10
123.8594266612101
 20
37.5060125182583
 10
123.7072418004101
 20
37.48190971825831
 10
123.5529683220101
 20
37.4567137726583
 10
123.3960617524101
 20
37.4303049230583
 10
123.2360457972101
 20
37.4025536878583
 10
123.0724612100101
 20
37.3733281550583
 10
122.9471367140101
 20
37.35035550225831
 10
122.8192455604101
 20
37.32638385425831
 10
122.6884867780101
 20
37.3013177054583
 10
122.5545593908101
 20
37.2750615534583
 10
122.4172318964101
 20
37.2475315838583
 10
122.2765506788101
 20
37.2186907246583
 10
122.1326315860101
 20
37.18851359505831
 10
121.9855904692101
 20
37.1569748126583
  0
LWPOLYLINE
  5
4B
330
2
100
AcDbEntity
  8
0
100
AcDbPolyline
 90
        4
 70
     0
 43
0.0
 10
122.4197737460101
 20
36.9317995598583
 10
122.2657259444101
 20
36.9080361742583
 10
122.1090135524101
 20
36.8801451710583
 10
121.9557913444101
 20
36.84921111825831
  0
LWPOLYLINE
  5
4C
330
2
100
AcDbEntity
  8
0
100
AcDbPolyline
 90
       22
 70
     0
 43
0.0
 10
121.7931641444101
 20
34.0582538942583
 10
121.8221933236101
 20
34.14739486065831
 10
121.8632392484101
 20
34.2543991326583
 10
121.9104277268101
 20
34.35943932625831
 10
121.9636167092101
 20
34.46221213425831
 10
122.0226492740101
 20
34.56242020945831
 10
122.0873539812101
 20
34.65977272625831
 10
122.1575444868101
 20
34.7539850254583
 10
122.2330193764101
 20
34.8447791374583
 10
122.3135606820101
 20
34.93188310545831
 10
122.3989355028101
 20
35.0150341630583
 10
122.4888970788101
 20
35.0939803518583
 10
122.5831830228101
 20
35.1684796126583
 10
122.6815155044101
 20
35.2383012254583
 10
122.7836043028101
 20
35.30322890865831
 10
122.8891480468101
 20
35.3630618030583
 10
122.9978353524101
 20
35.4176151918583
 10
123.1093454804101
 20
35.4667209086583
 10
123.2233493316101
 20
35.51022790545831
 10
123.3395102772101
 20
35.5480027054583
 10
123.4574850052101
 20
35.57992985745831
 10
123.5739488772101
 20
35.6053408382583
  0
LWPOLYLINE
  5
4D
330
2
100
AcDbEntity
  8
0
100
AcDbPolyline
 90
       24
 70
     0
 43
0.0
 10
110.5782930548101
 20
33.3390329486583
 10
110.8602411540101
 20
33.3113090750583
 10
111.1506735588101
 20
33.28609695985831
 10
111.4502393812101
 20
33.2634964846583
 10
111.7595872996101
 20
33.2436253822583
 10
112.0794884500101
 20
33.22661237745831
 10
112.4109299508101
 20
33.21259793265831
 10
112.7550581972101
 20
33.20174335345831
 10
113.1209426228101
 20
33.1940875214583
 10
113.5308334420101
 20
33.18974486545831
 10
113.9958940756101
 20
33.1891285838583
 10
114.5220957700101
 20
33.1921451870583
 10
115.1101601748101
 20
33.1979440366583
 10
115.7686660212101
 20
33.20509195985831
 10
116.5078374212101
 20
33.21157391025831
 10
117.3400972724101
 20
33.2166560094583
 10
118.2772811684101
 20
33.2201904334583
 10
119.3331988340101
 20
33.2219691134583
 10
120.5233657668101
 20
33.2217669934583
 10
121.8643578788101
 20
33.21942830705831
 10
123.3724585396101
 20
33.2150816702583
 10
125.0747072116101
 20
33.2094232926583
 10
127.0057208964101
 20
33.2041227182583
 10
128.8438008820101
 20
33.2020298862583
  0
LWPOLYLINE
  5
4E
330
2
100
AcDbEntity
  8
0
100
AcDbPolyline
 90
        4
 70
     0
 43
0.0
 10
112.8410857476101
 20
28.65044090865831
 10
118.0388911956101
 20
28.65007628465831
 10
123.3740977364101
 20
28.6502867454583
 10
128.8438008820101
 20
28.65039108145831
  0
LWPOLYLINE
  5
4F
330
2
100
AcDbEntity
  8
0
100
AcDbPolyline
 90
        4
 70
     0
 43
0.0
 10
111.9416130548101
 20
28.6718054782583
 10
112.2412472004101
 20
28.6599941662583
 10
112.5410825380101
 20
28.6528720078583
 10
112.8410857476101
 20
28.65044090865831
  0
LWPOLYLINE
  5
50
330
2
100
AcDbEntity
  8
0
100
AcDbPolyline
 90
       31
 70
     0
 43
0.0
 10
112.2131789860101
 20
34.8634172302583
 10
112.6886521764101
 20
34.82767029905831
 10
113.1658145412101
 20
34.7950683854583
 10
113.6429794276101
 20
34.7657395598583
 10
114.1184291300101
 20
34.7397677038583
 10
114.2767710084101
 20
34.73183553425831
 10
114.4358300356101
 20
34.72423208305831
 10
114.5964204580101
 20
34.7169251214583
 10
114.7183513684101
 20
34.71162199345831
 10
114.8419049796101
 20
34.7064653934583
 10
114.9673845732101
 20
34.7014531982583
 10
115.0950934292101
 20
34.6965832894583
 10
115.2253383092101
 20
34.6918551646583
 10
115.3584398964101
 20
34.68727477425831
 10
115.4947223572101
 20
34.6828496878583
 10
115.6345098580101
 20
34.67858747185831
 10
115.7490778900101
 20
34.6753011374583
 10
115.8662419620101
 20
34.67213429105831
 10
115.9861474276101
 20
34.66909733425831
 10
116.1089396340101
 20
34.6662006750583
 10
116.2347639332101
 20
34.6634547166583
 10
116.3637789076101
 20
34.66087122065831
 10
116.4961960788101
 20
34.6584673614583
 10
116.6322401988101
 20
34.6562616718583
 10
116.7721360228101
 20
34.6542726798583
 10
116.9161083044101
 20
34.65251891825831
 10
117.0643323396101
 20
34.6510206414583
 10
117.2167856004101
 20
34.6498050190583
 10
117.3733961012101
 20
34.64890094545831
 10
117.5340918564101
 20
34.64833731025831
 10
117.6988008820101
 20
34.64814301265831
  0
LWPOLYLINE
  5
51
330
2
100
AcDbEntity
  8
0
100
AcDbPolyline
 90
       21
 70
     0
 43
0.0
 10
121.9557913460101
 20
36.84921111345831
 10
121.7077678292101
 20
36.7910818286583
 10
121.4589589412101
 20
36.72233266545831
 10
121.2129620260101
 20
36.6437562686583
 10
120.9702203844101
 20
36.5554933566583
 10
120.7311783620101
 20
36.4577078846583
 10
120.4962702308101
 20
36.3505833566583
 10
120.2659210420101
 20
36.2343226222583
 10
120.0405472644101
 20
36.1091479374583
 10
119.8205563252101
 20
35.9753007662583
 10
119.6063444004101
 20
35.83304046065831
 10
119.3982958916101
 20
35.6826437182583
 10
119.1967831572101
 20
35.5244043086583
 10
119.0021651236101
 20
35.3586319758583
 10
118.8147865924101
 20
35.1856517294583
 10
118.6349778484101
 20
35.00580345425831
 10
118.4630536356101
 20
34.81944094705831
 10
118.2993124404101
 20
34.6269311806583
 10
118.1440357140101
 20
34.42865347185831
 10
117.9974863908101
 20
34.22499758865831
 10
117.8923352836101
 20
34.0672379166583
  0
LWPOLYLINE
  5
52
330
2
100
AcDbEntity
  8
0
100
AcDbPolyline
 90
        4
 70
     0
 43
0.0
 10
121.0262018436101
 20
33.98483125105831
 10
120.1374675412101
 20
33.9949985806583
 10
119.2499356100101
 20
34.0062610942583
 10
118.3637383380101
 20
34.0186177886583
  0
LWPOLYLINE
  5
53
330
2
100
AcDbEntity
  8
0
100
AcDbPolyline
 90
       21
 70
     0
 43
0.0
 10
117.8923331684101
 20
34.0672379278583
 10
117.8914271940101
 20
34.0641072798583
 10
117.8931606692101
 20
34.06053211665831
 10
117.8977892068101
 20
34.05706032625831
 10
117.9052045444101
 20
34.0536944158583
 10
117.9153008196101
 20
34.0504421886583
 10
117.9279857284101
 20
34.0473085118583
 10
117.9432052580101
 20
34.04429312465831
 10
117.9608786484101
 20
34.0414045246583
 10
117.9809865812101
 20
34.0386427198583
 10
118.0035050756101
 20
34.0360122446583
 10
118.0283923604101
 20
34.0335211470583
 10
118.0557091956101
 20
34.03116948945831
 10
118.0854190036101
 20
34.0289687678583
 10
118.1175610676101
 20
34.02692556145831
 10
118.1522002964101
 20
34.0250476606583
 10
118.1893151140101
 20
34.0233493662583
 10
118.2290294148101
 20
34.02183992305831
 10
118.2713005300101
 20
34.02053739985831
 10
118.3162041108101
 20
34.0194569486583
 10
118.3637383380101
 20
34.0186177886583
  0
LINE
  5
54
330
2
100
AcDbEntity
  8
0
100
AcDbLine
 10
117.6988008820101
 20
34.64814301265829
 30
0.0
 11
118.3172447716101
 21
34.64814301265829
 31
0.0
  0
LWPOLYLINE
  5
55
330
2
100
AcDbEntity
  8
0
100
AcDbPolyline
 90
       23
 70
     0
 43
0.0
 10
121.0262018436101
 20
33.98483125105831
 10
121.0690126004101
 20
33.9845132542583
 10
121.1118647300101
 20
33.98448157585831
 10
121.1547356148101
 20
33.98473388305831
 10
121.1976340788101
 20
33.9852715374583
 10
121.2405610356101
 20
33.9860997614583
 10
121.2835402308101
 20
33.9872285358583
 10
121.3263630868101
 20
33.9886644990583
 10
121.3687927396101
 20
33.99041200945831
 10
121.4107488436101
 20
33.99248212785831
 10
121.4521025380101
 20
33.99488704305831
 10
121.4924512212101
 20
33.99762283185831
 10
121.5313975348101
 20
34.0006794606583
 10
121.5687685732101
 20
34.0040613822583
 10
121.6042242644101
 20
34.0077587438583
 10
121.6373366900101
 20
34.01174641905831
 10
121.6677703444101
 20
34.0160016366583
 10
121.6952366468101
 20
34.0205031646583
 10
121.7193000708101
 20
34.0251951998583
 10
121.7396315268101
 20
34.0300169998583
 10
121.7560903908101
 20
34.0349313566583
 10
121.7685162260101
 20
34.0398779694583
 10
121.7768381940101
 20
34.04478602865831
  0
LWPOLYLINE
  5
56
330
2
100
AcDbEntity
  8
0
100
AcDbPolyline
 90
        3
 70
     0
 43
0.0
 10
121.7898160612101
 20
34.0543673646583
 10
121.7831929124101
 20
34.04959031025831
 10
121.7768381940101
 20
34.04478602865831
  0
LWPOLYLINE
  5
57
330
2
100
AcDbEntity
  8
0
100
AcDbPolyline
 90
        3
 70
     0
 43
0.0
 10
121.7898160612101
 20
34.0543673646583
 10
121.7928366340101
 20
34.05746462865831
 10
121.7931634052101
 20
34.0582538958583
  0
LWPOLYLINE
  5
58
330
2
100
AcDbEntity
  8
0
100
AcDbPolyline
 90
       20
 70
     0
 43
0.0
 10
128.8438008820101
 20
34.04658639985831
 10
128.7413241908101
 20
34.0461443134583
 10
128.6395297252101
 20
34.04482128145831
 10
128.5394011428101
 20
34.0426349726583
 10
128.4413997380101
 20
34.0396023342583
 10
128.34653312521
 20
34.03576442705831
 10
128.2567032948101
 20
34.0312338782583
 10
128.1742640932101
 20
34.02621773585831
 10
128.0992989060101
 20
34.02084275345831
 10
128.0316693300101
 20
34.0152209086583
 10
127.9709915108101
 20
34.00943774865829
 10
127.9145122660101
 20
34.00329207825831
 10
127.8603379604101
 20
33.9965263742583
 10
127.8096100580101
 20
33.98915801585831
 10
127.7636752772101
 20
33.9812279774583
 10
127.7250858228101
 20
33.9730438286583
 10
127.6948707652101
 20
33.9647607246583
 10
127.6731591396101
 20
33.9563526414583
 10
127.6603847492101
 20
33.9479817534583
 10
127.6563008820101
 20
33.9398345022583
  0
LWPOLYLINE
  5
59
330
2
100
AcDbEntity
  8
0
100
AcDbPolyline
 90
       20
 70
     0
 43
0.0
 10
127.6563008820101
 20
33.9398345022583
 10
127.6610424052101
 20
33.9310355550583
 10
127.6749166036101
 20
33.92240956625831
 10
127.6973157380101
 20
33.91402445585831
 10
127.7272101860101
 20
33.9060232542583
 10
127.7632667540101
 20
33.8985236046583
 10
127.8045848292101
 20
33.8915179886583
 10
127.8508576804101
 20
33.8849375390583
 10
127.9019757380101
 20
33.8787363566583
 10
127.9582314708101
 20
33.8728610110583
 10
128.0198803972101
 20
33.86729888625831
 10
128.0876042308101
 20
33.8620294462583
 10
128.1621773652101
 20
33.8570614750583
 10
128.2443400580101
 20
33.8524383886583
 10
128.3336422612101
 20
33.84828264465831
 10
128.4291729636101
 20
33.8447181278583
 10
128.5298864196101
 20
33.84184779345829
 10
128.6334248548101
 20
33.8397724110583
 10
128.7382948516101
 20
33.8385247310583
 10
128.8438008820101
 20
33.83810849905831
  0
LWPOLYLINE
  5
5A
330
2
100
AcDbEntity
  8
0
100
AcDbPolyline
 90
       13
 70
     0
 43
0.0
 10
128.8438008820101
 20
33.9221841342583
 10
128.7403838596101
 20
33.9217336334583
 10
128.6377620884101
 20
33.9203871454583
 10
128.5368526868101
 20
33.91816283185831
 10
128.4384861428101
 20
33.9150910894583
 10
128.3440109604101
 20
33.9112390510583
 10
128.2558239332101
 20
33.9067693678583
 10
128.1753617172101
 20
33.9018677086583
 10
128.1026921924101
 20
33.8966720398583
 10
128.03682823721
 20
33.89123257585831
 10
127.9762559812101
 20
33.8855068334583
 10
127.9192003044101
 20
33.8793484062583
 10
127.9086349476101
 20
33.8780408702583
  0
LWPOLYLINE
  5
5B
330
2
100
AcDbEntity
  8
0
100
AcDbPolyline
 90
       18
 70
     0
 43
0.0
 10
123.5739488756101
 20
35.6053408526583
 10
124.1876257332101
 20
35.71655716945831
 10
124.8055741908101
 20
35.8143761006583
 10
125.4247676372101
 20
35.89824054865831
 10
126.0450131684101
 20
35.9681411310583
 10
126.6661149220101
 20
36.02406976625831
 10
127.2878782884101
 20
36.06602030705831
 10
127.9101112980101
 20
36.09398851345829
 10
128.5326259108101
 20
36.1079718078583
 10
129.1552343700101
 20
36.1079689038583
 10
129.7777489348101
 20
36.0939798014583
 10
130.3999818708101
 20
36.0660057822583
 10
131.0217451524101
 20
36.0240494222583
 10
131.6428467796101
 20
35.96811495985831
 10
132.2630920836101
 20
35.8982085454583
 10
132.8822851284101
 20
35.8143382766583
 10
133.5002329700101
 20
35.71651354865831
 10
134.1136528884101
 20
35.6053408526583
  0
LWPOLYLINE
  5
5C
330
2
100
AcDbEntity
  8
0
100
AcDbPolyline
 90
       20
 70
     0
 43
0.0
 10
130.03130088201
 20
33.9398345022583
 10
130.0270527636101
 20
33.9481436702583
 10
130.0139746740101
 20
33.9565792942583
 10
129.9919568148101
 20
33.9650078798583
 10
129.96138497641
 20
33.9733131838583
 10
129.9223083508101
 20
33.9815347566583
 10
129.8759481652101
 20
33.98947903985831
 10
129.8248609700101
 20
33.9968479662583
 10
129.7704163396101
 20
34.0036020366583
 10
129.7137614564101
 20
34.00972693105831
 10
129.6531463300101
 20
34.01546864785831
 10
129.5861639300101
 20
34.0210079470583
 10
129.5122907540101
 20
34.0262870446583
 10
129.4311909476101
 20
34.03121759665831
 10
129.3426308740101
 20
34.0356933518583
 10
129.2481884612101
 20
34.03953132465831
 10
129.1497295236101
 20
34.0425945806583
 10
129.0489373428101
 20
34.0448061966583
 10
128.9466922660101
 20
34.0461407214583
 10
128.8438008820101
 20
34.04658639985831
  0
LWPOLYLINE
  5
5D
330
2
100
AcDbEntity
  8
0
100
AcDbPolyline
 90
       13
 70
     0
 43
0.0
 10
129.7787367812101
 20
33.8780683438583
 10
129.7682501108101
 20
33.8793657246583
 10
129.7111108308101
 20
33.8855305182583
 10
129.6504679972101
 20
33.89125969105831
 10
129.5845775908101
 20
33.89669755665831
 10
129.5119599412101
 20
33.90188620625831
 10
129.4316106132101
 20
33.9067786382583
 10
129.3435491204101
 20
33.9112409422583
 10
129.2491356900101
 20
33.91509032625831
 10
129.1507564980101
 20
33.9181626126583
 10
129.0497997236101
 20
33.9203878174583
 10
128.9471550836101
 20
33.9217341790583
 10
128.8438008820101
 20
33.9221841278583
  0
LWPOLYLINE
  5
5E
330
2
100
AcDbEntity
  8
0
100
AcDbPolyline
 90
       21
 70
     0
 43
0.0
 10
128.8438008820101
 20
33.83810849905831
 10
128.9440218660101
 20
33.83848400945831
 10
129.0437004916101
 20
33.8396097390583
 10
129.1422415316101
 20
33.8414826766583
 10
129.2386120244101
 20
33.84408395025831
 10
129.3306902388101
 20
33.84733440785831
 10
129.4173119044101
 20
33.85114285105831
 10
129.4977187444101
 20
33.8554097406583
 10
129.5712643796101
 20
33.8600200846583
 10
129.6382913780101
 20
33.8649111406583
 10
129.6994818148101
 20
33.8700627966583
 10
129.7555366852101
 20
33.87548668625831
 10
129.8068295572101
 20
33.8811944494583
 10
129.8535989748101
 20
33.88721033105831
 10
129.8960108772101
 20
33.8935836350583
 10
129.93389941641
 20
33.9003566766583
 10
129.9669255268101
 20
33.9075906734583
 10
129.9941645764101
 20
33.91526481585831
 10
130.0144789300101
 20
33.9232683006583
 10
130.0270246276101
 20
33.93147847825831
 10
130.03130088201
 20
33.9398345022583
  0
LINE
  5
5F
330
2
100
AcDbEntity
  8
0
100
AcDbLine
 10
122.3216727028101
 20
38.13813017265829
 30
0.0
 11
122.5070212564101
 21
38.17713624465829
 31
0.0
  0
LWPOLYLINE
  5
60
330
2
100
AcDbEntity
  8
0
100
AcDbPolyline
 90
       29
 70
     0
 43
0.0
 10
113.9789429252101
 20
37.51804267985831
 10
114.2031243924101
 20
37.49466975665831
 10
114.4335361988101
 20
37.4738473998583
 10
114.6712550436101
 20
37.4556312622583
 10
114.9170235012101
 20
37.44012532145831
 10
115.1708557988101
 20
37.42750548305831
 10
115.4325423588101
 20
37.41795500145831
 10
115.7019992532101
 20
37.4116463022583
 10
115.9791495956101
 20
37.40874680945831
 10
116.2634145236101
 20
37.4094099774583
 10
116.5541409316101
 20
37.4137610222583
 10
116.8513163012101
 20
37.42191886705831
 10
117.1545453812101
 20
37.4339912526583
 10
117.4628922772101
 20
37.45004503985831
 10
117.7756540580101
 20
37.47012855185831
 10
118.0920762500101
 20
37.49426323825831
 10
118.4111898612101
 20
37.5224285822583
 10
118.7316277604101
 20
37.55453796625831
 10
119.0520475940101
 20
37.5904631390583
 10
119.3717670084101
 20
37.6301153102583
 10
119.6901552164101
 20
37.67339833105831
 10
120.0061137268101
 20
37.7201319214583
 10
120.3183802644101
 20
37.7700712766583
 10
120.6293051540101
 20
37.82357812625831
 10
120.9520786164101
 20
37.8830965630583
 10
121.3070836836101
 20
37.9523356894583
 10
121.7026750948101
 20
38.03231268945831
 10
122.1444244852101
 20
38.1225786350583
 10
122.6273559316101
 20
38.2192647406583
  0
LWPOLYLINE
  5
61
330
2
100
AcDbEntity
  8
0
100
AcDbPolyline
 90
       51
 70
     0
 43
0.0
 10
110.6083773012101
 20
38.3303912206583
 10
110.8009378932101
 20
38.2570164622583
 10
110.9946932068101
 20
38.18678213265831
 10
111.1896866372101
 20
38.1196854174583
 10
111.3859349220101
 20
38.0557312046583
 10
111.5833481540101
 20
37.9949551550583
 10
111.7818097668101
 20
37.93740063025831
 10
111.9812424260101
 20
37.88309600145831
 10
112.1817257236101
 20
37.8320096638583
 10
112.3833784852101
 20
37.7840950302583
 10
112.5863876388101
 20
37.73929341105831
 10
112.7912125284101
 20
37.6974977374583
 10
112.9983805972101
 20
37.65858884465831
 10
113.1556487060101
 20
37.63123042705831
 10
113.3149763844101
 20
37.6053814542583
 10
113.4768084788101
 20
37.5809945854583
 10
113.6415898324101
 20
37.55802248305831
 10
113.8097542228101
 20
37.5364328622583
 10
113.9816911588101
 20
37.5162536558583
 10
114.1577790852101
 20
37.49752785265831
 10
114.3383964436101
 20
37.4802984430583
 10
114.4863963844101
 20
37.46762437105831
 10
114.6376744356101
 20
37.45597650865831
 10
114.7923676628101
 20
37.44539586225831
 10
114.9506131396101
 20
37.4359234366583
 10
115.1125479300101
 20
37.4276002398583
 10
115.2783076644101
 20
37.42047149585831
 10
115.4480221972101
 20
37.41459931345831
 10
115.6218199428101
 20
37.4100500238583
 10
115.7998293140101
 20
37.4068899534583
 10
115.9821787236101
 20
37.4051854334583
 10
116.1689404900101
 20
37.40500164465831
 10
116.3599625396101
 20
37.40639918865831
 10
116.5550367076101
 20
37.4094375198583
 10
116.7539548244101
 20
37.4141760894583
 10
116.9565087204101
 20
37.4206743534583
 10
117.1624812804101
 20
37.4289866046583
 10
117.3716195780101
 20
37.43914649745831
 10
117.5836617364101
 20
37.45118252465831
 10
117.7983458836101
 20
37.46512318385831
 10
118.0154101396101
 20
37.4809969646583
 10
118.2896373796101
 20
37.50358043665831
 10
118.5663559044101
 20
37.5291608702583
 10
118.8447472628101
 20
37.5576701998583
 10
119.1239929956101
 20
37.5890403598583
 10
119.4965107540101
 20
37.6352474382583
 10
119.8688065300101
 20
37.6865440702583
 10
120.2405944884101
 20
37.7430548926583
 10
120.6116763732101
 20
37.8047539262583
 10
120.9822042788101
 20
37.87101271185831
 10
121.3524178772101
 20
37.9410521742583
  0
LINE
  5
62
330
2
100
AcDbEntity
  8
0
100
AcDbLine
 10
122.0688019028101
 20
38.0853665822583
 30
0.0
 11
122.1959340308101
 21
38.11181691185831
 31
0.0
  0
LINE
  5
63
330
2
100
AcDbEntity
  8
0
100
AcDbLine
 10
122.1959340308101
 20
38.11181691185831
 30
0.0
 11
122.3216727028101
 21
38.13813017265829
 31
0.0
  0
LWPOLYLINE
  5
64
330
2
100
AcDbEntity
  8
0
100
AcDbPolyline
 90
        9
 70
     0
 43
0.0
 10
121.3524178772101
 20
37.9410521742583
 10
121.4182757844101
 20
37.95386292945831
 10
121.4840403348101
 20
37.96676775985829
 10
121.5497033940101
 20
37.9797575710583
 10
121.6152568260101
 20
37.9928232750583
 10
121.6806875188101
 20
38.0059548766583
 10
121.7459624628101
 20
38.0191387758583
 10
121.8110436676101
 20
38.03236046865831
 10
121.9404777540101
 20
38.0588603886583
  0
LINE
  5
65
330
2
100
AcDbEntity
  8
0
100
AcDbLine
 10
121.9404777540101
 20
38.0588603886583
 30
0.0
 11
122.0688019028101
 21
38.0853665822583
 31
0.0
  0
LINE
  5
66
330
2
100
AcDbEntity
  8
CENTER
 48
4.0
100
AcDbLine
 10
128.8438008820101
 20
38.910147132866
 30
0.0
 11
128.8438008820101
 21
45.38613889245062
 31
0.0
  0
LWPOLYLINE
  5
69
330
2
100
AcDbEntity
  8
0
100
AcDbPolyline
 90
       44
 70
     0
 43
0.0
 10
128.8438008820101
 20
43.94854170545831
 10
128.7038640852101
 20
43.9430569374583
 10
128.56337940041
 20
43.92645182385829
 10
128.4237023780101
 20
43.8986642206583
 10
128.2861809860101
 20
43.8598464430583
 10
128.1519030596101
 20
43.8102706078583
 10
128.0216848548101
 20
43.7502208334583
 10
127.8963743540101
 20
43.68006050225829
 10
127.7768847956101
 20
43.6002838606583
 10
127.6641262932101
 20
43.51151402225831
 10
127.5588942468101
 20
43.41442616465831
 10
127.4618797572101
 20
43.3097241214583
 10
127.3737881524101
 20
43.1982653902583
 10
127.2951984964101
 20
43.08092584465831
 10
127.2266015460101
 20
42.95862463185829
 10
127.1683502468101
 20
42.8322046190583
 10
127.1208145988101
 20
42.7027751102583
 10
127.0841914804101
 20
42.57134757905831
 10
127.0585767236101
 20
42.4389393486583
 10
127.0439665716101
 20
42.3065633598583
 10
127.0402599508101
 20
42.17525670705831
 10
127.0473671044101
 20
42.0439719006583
 10
127.0655519684101
 20
41.91036986865831
 10
127.0951329076101
 20
41.77489903505831
 10
127.1362062708101
 20
41.6387161422583
 10
127.1864820436101
 20
41.50815904945829
 10
127.2431407604101
 20
41.3869076366583
 10
127.3047974916101
 20
41.2745104574583
 10
127.3705393988101
 20
41.1702844062583
 10
127.4397043140101
 20
41.07365627505831
 10
127.5120964484101
 20
40.9837770894583
 10
127.5876484404101
 20
40.9000098558583
 10
127.6665725124101
 20
40.8217147022583
 10
127.7491067908101
 20
40.74851148785831
 10
127.8357177860101
 20
40.6800648414583
 10
127.9268228260101
 20
40.61632191505831
 10
128.0229134020101
 20
40.5573872926583
 10
128.1244454980101
 20
40.5035924174583
 10
128.2318894804101
 20
40.4554570686583
 10
128.3452782676101
 20
40.4138507182583
 10
128.4641795732101
 20
40.37984217105829
 10
128.5878879460101
 20
40.35450294385831
 10
128.7151492228101
 20
40.33882906545831
 10
128.8438008820101
 20
40.33353971345831
  0
CIRCLE
  5
6A
330
2
100
AcDbEntity
  8
0
100
AcDbCircle
 10
128.8438008820101
 20
42.14814301265829
 30
0.0
 40
1.448223304
  0
LWPOLYLINE
  5
6B
330
2
100
AcDbEntity
  8
0
100
AcDbPolyline
 90
       45
 70
     0
 43
0.0
 10
128.8438008820101
 20
43.9485419806583
 10
128.9805460468101
 20
43.94330444145831
 10
129.1178453844101
 20
43.92744930545831
 10
129.2544321764101
 20
43.9009114398583
 10
129.3890382260101
 20
43.8638244574583
 10
129.52062813961
 20
43.81643787665831
 10
129.6484301588101
 20
43.75901359345831
 10
129.7716596596101
 20
43.69187845745829
 10
129.8894691300101
 20
43.6154753150583
 10
130.0010003988101
 20
43.5303697550583
 10
130.1054899924101
 20
43.4371851966583
 10
130.2022812756101
 20
43.33656516305831
 10
130.2907096260101
 20
43.2292822526583
 10
130.3702044212101
 20
43.11615102065831
 10
130.4402806372101
 20
42.9980256942583
 10
130.5005826244101
 20
42.8756940542583
 10
130.5507563604101
 20
42.7501236414583
 10
130.5905626132101
 20
42.62229716625831
 10
130.61987912201
 20
42.4931586446583
 10
130.6386718468101
 20
42.3636534702583
 10
130.6469958836101
 20
42.2348821470583
 10
130.6449778580101
 20
42.1067816862583
 10
130.6325466756101
 20
41.9774307230583
 10
130.6093627860101
 20
41.8458721470583
 10
130.5751309684101
 20
41.7127073694583
 10
130.5306739044101
 20
41.5814376126583
 10
130.4786240116101
 20
41.45745138545831
 10
130.42117051401
 20
41.3424634286583
 10
130.3593271012101
 20
41.23568932945831
 10
130.2938455268101
 20
41.1365233982583
 10
130.2251990948101
 20
41.04434879665831
 10
130.1535078452101
 20
40.95841114385829
 10
130.0787610852101
 20
40.8781223086583
 10
130.00073790601
 20
40.80294115985831
 10
129.9191715044101
 20
40.7325331550583
 10
129.8336179364101
 20
40.6666344750583
 10
129.7436807300101
 20
40.60523447185831
 10
129.6489001988101
 20
40.54846777425831
 10
129.5488484884101
 20
40.49667413425829
 10
129.4431179316101
 20
40.4503795934583
 10
129.3317313556101
 20
40.4104280574583
 10
129.2151280740101
 20
40.3778267406583
 10
129.0939944212101
 20
40.35357400305831
 10
128.9695354964101
 20
40.33859185745831
 10
128.8438008820101
 20
40.3335392398583
  0
LWPOLYLINE
  5
6C
330
2
100
AcDbEntity
  8
0
100
AcDbPolyline
 90
       10
 70
     0
 43
0.0
 10
128.0857603060101
 20
38.8597386542583
 10
128.16780249001
 20
38.86216796625831
 10
128.2266646948101
 20
38.8637866718583
 10
128.2838707876101
 20
38.8652556222583
 10
128.3399805716101
 20
38.86659296465831
 10
128.3956139108101
 20
38.8678120222583
 10
128.5072007812101
 20
38.86991778865831
 10
128.6195507284101
 20
38.87153493745831
 10
128.7319698852101
 20
38.8725784430583
 10
128.8438008820101
 20
38.87295110865831
  0
LWPOLYLINE
  5
6D
330
2
100
AcDbEntity
  8
0
100
AcDbPolyline
 90
       21
 70
     0
 43
0.0
 10
128.8438008820101
 20
38.96165859345831
 10
128.7049770548101
 20
38.9610886670583
 10
128.5535707044101
 20
38.95935209585831
 10
128.3916551412101
 20
38.9564525390583
 10
128.2214941940101
 20
38.95242779185831
 10
128.0408043652101
 20
38.94719810865831
 10
127.8486044532101
 20
38.94066481265831
 10
127.6423666100101
 20
38.93262831345831
 10
127.4142702132101
 20
38.9225743630583
 10
127.1520358852101
 20
38.9095691726583
 10
126.8633474116101
 20
38.89354689425831
 10
126.5826686692101
 20
38.8763422254583
 10
126.3267369236101
 20
38.8592980286583
 10
126.0907749204101
 20
38.8424256158583
 10
125.8667760212101
 20
38.82533911665831
 10
125.6375796324101
 20
38.8067041694583
 10
125.3973786804101
 20
38.78580716785831
 10
125.1570307780101
 20
38.76335128465831
 10
124.9339795364101
 20
38.7409704094583
 10
124.7308663364101
 20
38.7191483006583
 10
124.5455756884101
 20
38.6978930254583
  0
LINE
  5
6E
330
2
100
AcDbEntity
  8
CENTER
 48
4.0
100
AcDbLine
 10
132.0817967618024
 20
42.14814301265829
 30
0.0
 11
125.6058050022178
 21
42.14814301265829
 31
0.0
  0
LWPOLYLINE
  5
6F
330
2
100
AcDbEntity
  8
0
100
AcDbPolyline
 90
       31
 70
     0
 43
0.0
 10
123.5382213764101
 20
38.39641913425831
 10
123.6065247348101
 20
38.4109169934583
 10
123.6757113940101
 20
38.4253180830583
 10
123.7457593492101
 20
38.4396033262583
 10
123.8166412740101
 20
38.4537529838583
 10
123.8883085668101
 20
38.46774464785831
 10
123.9607073076101
 20
38.4815552430583
 10
124.0337932132101
 20
38.49516387025831
 10
124.1075605636101
 20
38.5085583150583
 10
124.1820132724101
 20
38.5217285358583
 10
124.2571458052101
 20
38.53466297265831
 10
124.3329148292101
 20
38.54734398065831
 10
124.4092675588101
 20
38.55975239025831
 10
124.4861559524101
 20
38.5718711966583
 10
124.5635509428101
 20
38.5836920318583
 10
124.6414282084101
 20
38.5952086862583
 10
124.7197632580101
 20
38.60641633265831
 10
124.7985309300101
 20
38.61731566705831
 10
124.8777058948101
 20
38.6279087646583
 10
124.9572555796101
 20
38.63819665425831
 10
125.0371184468101
 20
38.64817616945831
 10
125.1172257172101
 20
38.65784309745831
 10
125.1975198788101
 20
38.6671946350583
 10
125.2779884884101
 20
38.67623363505831
 10
125.3586303732101
 20
38.68496435825831
 10
125.4394329124101
 20
38.69338984305831
 10
125.5203377268101
 20
38.70150821105831
 10
125.6012749876101
 20
38.7093163566583
 10
125.6821829364101
 20
38.7168121118583
 10
125.7630320532101
 20
38.7239970430583
 10
125.8438008820101
 20
38.7308736558583
  0
LINE
  5
70
330
2
100
AcDbEntity
  8
0
100
AcDbLine
 10
123.7757816788101
 20
38.4524811486583
 30
0.0
 11
123.7018614740101
 21
38.43656118225828
 31
0.0
  0
LWPOLYLINE
  5
71
330
2
100
AcDbEntity
  8
0
100
AcDbPolyline
 90
       34
 70
     0
 43
0.0
 10
124.5056550660101
 20
38.6625091822583
 10
124.4994552500101
 20
38.6578368542583
 10
124.4922081428101
 20
38.6530570958583
 10
124.4839125492101
 20
38.6481662974583
 10
124.4745584500101
 20
38.6431580318583
 10
124.4641304468101
 20
38.6380255342583
 10
124.4526102804101
 20
38.63276262705831
 10
124.4400036068101
 20
38.62737441265831
 10
124.4263413348101
 20
38.6218744926583
 10
124.4116383172101
 20
38.6162675550583
 10
124.3959008340101
 20
38.6105543230583
 10
124.3791377572101
 20
38.60473624945831
 10
124.3613580564101
 20
38.59881453585831
 10
124.3425714788101
 20
38.5927903934583
 10
124.3227883524101
 20
38.58666497905831
 10
124.3020196532101
 20
38.5804394158583
 10
124.2802769844101
 20
38.57411480625831
 10
124.2575725796101
 20
38.5676922238583
 10
124.2339192852101
 20
38.5611727262583
 10
124.2093306084101
 20
38.55455736785831
 10
124.1838207108101
 20
38.54784721105831
 10
124.1574043412101
 20
38.5410433134583
 10
124.1300969508101
 20
38.5341467598583
 10
124.1019144020101
 20
38.52715860945831
 10
124.0728725316101
 20
38.52007978865831
 10
124.0429881444101
 20
38.5129113566583
 10
124.0122793236101
 20
38.5056545774583
 10
123.9807642116101
 20
38.4983106382583
 10
123.9484610900101
 20
38.4908806846583
 10
123.9153884868101
 20
38.48336586065831
 10
123.8815662548101
 20
38.47576755985831
 10
123.8470131972101
 20
38.46808690545831
 10
123.8117450372101
 20
38.4603243214583
 10
123.7757816788101
 20
38.4524811486583
  0
LINE
  5
72
330
2
100
AcDbEntity
  8
0
100
AcDbLine
 10
123.6255130340101
 20
38.42035940305828
 30
0.0
 11
123.5471614996101
 21
38.4039421390583
 31
0.0
  0
LINE
  5
73
330
2
100
AcDbEntity
  8
0
100
AcDbLine
 10
123.1298410708101
 20
38.3188416158583
 30
0.0
 11
122.9971745812101
 21
38.2923216622583
 31
0.0
  0
LINE
  5
74
330
2
100
AcDbEntity
  8
0
100
AcDbLine
 10
122.8656361348101
 20
38.25308437425829
 30
0.0
 11
123.3202631476101
 21
38.34983080785829
 31
0.0
  0
LINE
  5
75
330
2
100
AcDbEntity
  8
0
100
AcDbLine
 10
122.7220023156101
 20
38.23784843825831
 30
0.0
 11
122.6273547844101
 21
38.21926448945831
 31
0.0
  0
LINE
  5
76
330
2
100
AcDbEntity
  8
0
100
AcDbLine
 10
122.8612310564101
 20
38.2653266782583
 30
0.0
 11
122.7220023156101
 21
38.23784843825831
 31
0.0
  0
LINE
  5
77
330
2
100
AcDbEntity
  8
0
100
AcDbLine
 10
122.9971745812101
 20
38.2923216622583
 30
0.0
 11
122.8612310564101
 21
38.2653266782583
 31
0.0
  0
LINE
  5
78
330
2
100
AcDbEntity
  8
0
100
AcDbLine
 10
122.5070212564101
 20
38.17713624465829
 30
0.0
 11
122.8656361348101
 21
38.25308437425829
 31
0.0
  0
LINE
  5
79
330
2
100
AcDbEntity
  8
0
100
AcDbLine
 10
123.2164439284101
 20
38.33626353265831
 30
0.0
 11
123.1298410708101
 21
38.3188416158583
 31
0.0
  0
LINE
  5
7A
330
2
100
AcDbEntity
  8
0
100
AcDbLine
 10
123.3015376484101
 20
38.35348287985829
 30
0.0
 11
123.2164439284101
 21
38.33626353265831
 31
0.0
  0
LINE
  5
7B
330
2
100
AcDbEntity
  8
0
100
AcDbLine
 10
123.3850718676101
 20
38.3705020430583
 30
0.0
 11
123.3015376484101
 21
38.35348287985829
 31
0.0
  0
LINE
  5
7C
330
2
100
AcDbEntity
  8
0
100
AcDbLine
 10
123.4669767636101
 20
38.3873220478583
 30
0.0
 11
123.3850718676101
 21
38.3705020430583
 31
0.0
  0
LINE
  5
7D
330
2
100
AcDbEntity
  8
0
100
AcDbLine
 10
123.5471614996101
 20
38.4039421390583
 30
0.0
 11
123.4669767636101
 21
38.3873220478583
 31
0.0
  0
LINE
  5
7E
330
2
100
AcDbEntity
  8
0
100
AcDbLine
 10
123.3202631476101
 20
38.34983080785829
 30
0.0
 11
123.5382213764101
 21
38.39641913425831
 31
0.0
  0
LINE
  5
7F
330
2
100
AcDbEntity
  8
0
100
AcDbLine
 10
123.7018614740101
 20
38.43656118225828
 30
0.0
 11
123.6255130340101
 21
38.42035940305828
 31
0.0
  0
LWPOLYLINE
  5
80
330
2
100
AcDbEntity
  8
0
100
AcDbPolyline
 90
       17
 70
     0
 43
0.0
 10
124.5056550820101
 20
38.6625091934583
 10
124.3819710436101
 20
38.6530662094583
 10
124.2578434788101
 20
38.6536031550583
 10
124.1340658804101
 20
38.6641165918583
 10
124.0114295172101
 20
38.6845393134583
 10
123.8907183556101
 20
38.7147407630583
 10
123.7727040580101
 20
38.7545278766583
 10
123.6581410500101
 20
38.8036463070583
 10
123.5477616900101
 20
38.8617820590583
 10
123.4422715924101
 20
38.92856349105831
 10
123.3423451156101
 20
39.0035636958583
 10
123.2486210548101
 20
39.0863032238583
 10
123.1616985540101
 20
39.1762531502583
 10
123.0821332756101
 20
39.2728384606583
 10
123.0104338532101
 20
39.3754417150583
 10
122.9470586356101
 20
39.4834070094583
 10
122.8924127476101
 20
39.59604417745831
  0
LWPOLYLINE
  5
81
330
2
100
AcDbEntity
  8
0
100
AcDbPolyline
 90
       58
 70
     0
 43
0.0
 10
124.5455756900101
 20
38.6978930270583
 10
124.5078514244101
 20
38.6939126878583
 10
124.4700353812101
 20
38.6908698238583
 10
124.4321530260101
 20
38.6887665326583
 10
124.3942182116101
 20
38.6876038718583
 10
124.3562937092101
 20
38.68738290065831
 10
124.3186453140101
 20
38.68809381585831
 10
124.2815442964101
 20
38.6897020846583
 10
124.2450404084101
 20
38.6921663022583
 10
124.2091067156101
 20
38.6954501054583
 10
124.1737279812101
 20
38.6995199166583
 10
124.1388943556101
 20
38.70434430545831
 10
124.1045871460101
 20
38.7098956526583
 10
124.0707837556101
 20
38.7161500654583
 10
124.0374685396101
 20
38.72308531345831
 10
124.0046257220101
 20
38.7306816366583
 10
123.9722397140101
 20
38.7389215966583
 10
123.9402954388101
 20
38.7477898862583
 10
123.9087782020101
 20
38.75727326385831
 10
123.8776740452101
 20
38.7673603550583
 10
123.8469690180101
 20
38.7780418014583
 10
123.8166516740101
 20
38.7893092990583
 10
123.7867055732101
 20
38.8011583470583
 10
123.7571315300101
 20
38.8135792686583
 10
123.7278812756101
 20
38.8265854222583
 10
123.6988722324101
 20
38.8402122702583
 10
123.6701204436101
 20
38.8544544782583
 10
123.6416495092101
 20
38.86930205905831
 10
123.6134517124101
 20
38.8847611870583
 10
123.5855302500101
 20
38.90083355825831
 10
123.5578868020101
 20
38.9175226510583
 10
123.5305251780101
 20
38.9348316590583
 10
123.5034506820101
 20
38.95276370065831
 10
123.4766685748101
 20
38.97132277265831
 10
123.4501906004101
 20
38.9905090062583
 10
123.4240294180101
 20
39.01032201265831
 10
123.3981888500101
 20
39.03076865745831
 10
123.3726770084101
 20
39.0518536094583
 10
123.3475064900101
 20
39.0735785326583
 10
123.3226894628101
 20
39.09594590385831
 10
123.2982393716101
 20
39.11895753265829
 10
123.2741702692101
 20
39.1426150830583
 10
123.2504968548101
 20
39.16692001425831
 10
123.2272347780101
 20
39.1918732094583
 10
123.2043988884101
 20
39.21747687185831
 10
123.1820114500101
 20
39.2437250142583
 10
123.1600942052101
 20
39.2706115214583
 10
123.1386565348101
 20
39.2981458302583
 10
123.1177120084101
 20
39.3263340030583
 10
123.0972798788101
 20
39.3551756574583
 10
123.0773777316101
 20
39.38467347825831
 10
123.0580267428101
 20
39.41482570385831
 10
123.0392430628101
 20
39.4456394670583
 10
123.0210595332101
 20
39.4770947854583
 10
123.0034711444101
 20
39.5092392958583
 10
122.9865521316101
 20
39.54197553585831
 10
122.9703177412101
 20
39.5753077806583
 10
122.9546076404101
 20
39.6096431470583
  0
LINE
  5
82
330
2
100
AcDbEntity
  8
0
100
AcDbLine
 10
127.9982843988101
 20
38.8569352382583
 30
0.0
 11
128.0857603060101
 21
38.8597386542583
 31
0.0
  0
LINE
  5
83
330
2
100
AcDbEntity
  8
0
100
AcDbLine
 10
127.9042940532101
 20
38.85368972145829
 30
0.0
 11
127.9982843988101
 21
38.8569352382583
 31
0.0
  0
LINE
  5
84
330
2
100
AcDbEntity
  8
0
100
AcDbLine
 10
127.8032537908101
 20
38.84994240625829
 30
0.0
 11
127.9042940532101
 21
38.85368972145829
 31
0.0
  0
LWPOLYLINE
  5
85
330
2
100
AcDbEntity
  8
0
100
AcDbPolyline
 90
       30
 70
     0
 43
0.0
 10
125.8438008820101
 20
38.7308736558583
 10
125.9258430388101
 20
38.7376231694583
 10
126.0062354724101
 20
38.74407601585831
 10
126.0849633460101
 20
38.7502433646583
 10
126.1620118148101
 20
38.7561363854583
 10
126.2373753028101
 20
38.7617664414583
 10
126.3110852692101
 20
38.7671456478583
 10
126.3831824388101
 20
38.77228630865831
 10
126.4537075316101
 20
38.7772007326583
 10
126.5226986708101
 20
38.7819006190583
 10
126.5901835636101
 20
38.7863952398583
 10
126.6561873108101
 20
38.7906932622583
 10
126.7207350212101
 20
38.7948033550583
 10
126.7838530164101
 20
38.7987339950583
 10
126.8455724916101
 20
38.8024928910583
 10
126.9059258628101
 20
38.80608756625831
 10
126.9649455428101
 20
38.80952553745831
 10
127.0416183124101
 20
38.8138781310583
 10
127.1160453460101
 20
38.81797969745831
 10
127.1882942916101
 20
38.82184442545831
 10
127.2584329332101
 20
38.8254860878583
 10
127.3265296196101
 20
38.8289168014583
 10
127.3926528404101
 20
38.8321482670583
 10
127.4568630932101
 20
38.8351915438583
 10
127.5191889220101
 20
38.83805512145831
 10
127.5796508820101
 20
38.84074684625831
 10
127.6382693092101
 20
38.8432744174583
 10
127.6950636676101
 20
38.8456449358583
 10
127.7500532068101
 20
38.8478653534583
 10
127.8032537908101
 20
38.84994240625831
  0
LWPOLYLINE
  5
86
330
2
100
AcDbEntity
  8
0
100
AcDbPolyline
 90
       31
 70
     0
 43
0.0
 10
131.8438008820101
 20
38.7308736558583
 10
131.9245697156101
 20
38.7239970430583
 10
132.0054188372101
 20
38.7168121118583
 10
132.0863267876101
 20
38.7093163566583
 10
132.1672640516101
 20
38.70150820945831
 10
132.2481688660101
 20
38.69338984145831
 10
132.32897140521
 20
38.68496435665831
 10
132.4096132916101
 20
38.67623363345831
 10
132.4900819028101
 20
38.6671946334583
 10
132.5703760660101
 20
38.65784309585831
 10
132.6504833396101
 20
38.64817616785831
 10
132.7303462068101
 20
38.63819665105831
 10
132.80989589161
 20
38.6279087614583
 10
132.8890708532101
 20
38.61731566385831
 10
132.9678385204101
 20
38.60641633105831
 10
133.0461735684101
 20
38.5952086846583
 10
133.1240508340101
 20
38.5836920302583
 10
133.2014458276101
 20
38.5718711950583
 10
133.2783342212101
 20
38.55975238705831
 10
133.3546869492101
 20
38.54734397745831
 10
133.4304559716101
 20
38.53466297105831
 10
133.5055885012101
 20
38.5217285342583
 10
133.5800412084101
 20
38.5085583134583
 10
133.6538085572101
 20
38.49516386865831
 10
133.7268944628101
 20
38.4815552430583
 10
133.7992932020101
 20
38.46774464625831
 10
133.8709604948101
 20
38.4537529822583
 10
133.9418424180101
 20
38.4396033246583
 10
134.0118903732101
 20
38.4253180814583
 10
134.0810770324101
 20
38.4109169934583
 10
134.1493803876101
 20
38.39641913425831
  0
LWPOLYLINE
  5
87
330
2
100
AcDbEntity
  8
0
100
AcDbPolyline
 90
       24
 70
     0
 43
0.0
 10
133.1421427156101
 20
38.69778167665831
 10
133.0504250196101
 20
38.70845505585831
 10
132.9486370484101
 20
38.71991061265831
 10
132.8355901412101
 20
38.7321836126583
 10
132.7101176372101
 20
38.74528736145831
 10
132.57099465001
 20
38.75922112305831
 10
132.4151352708101
 20
38.7741367374583
 10
132.2369417236101
 20
38.79035537105831
 10
132.0360901172101
 20
38.80764965425831
 10
131.8215497076101
 20
38.8250574638583
 10
131.5993298500101
 20
38.8420189358583
 10
131.3665502356101
 20
38.8586912174583
 10
131.1118432724101
 20
38.87569910865831
 10
130.8346545188101
 20
38.89275687985831
 10
130.5467945348101
 20
38.9088218302583
 10
130.2854816740101
 20
38.9218724942583
 10
130.0565439636101
 20
38.9320475198583
 10
129.8489851620101
 20
38.94020948785831
 10
129.6548732308101
 20
38.9468723310583
 10
129.4723909524101
 20
38.9522087278583
 10
129.3004282900101
 20
38.9563216750583
 10
129.1368952900101
 20
38.95928685905831
 10
128.9834972308101
 20
38.9610714590583
 10
128.8438008820101
 20
38.96165859345831
  0
LINE
  5
88
330
2
100
AcDbEntity
  8
0
100
AcDbLine
 10
129.6434203716101
 20
38.85843274385829
 30
0.0
 11
129.7340944532101
 21
38.8554186494583
 31
0.0
  0
LINE
  5
89
330
2
100
AcDbEntity
  8
0
100
AcDbLine
 10
129.5588587108101
 20
38.86103621585829
 30
0.0
 11
129.6434203716101
 21
38.85843274385829
 31
0.0
  0
LINE
  5
8A
330
2
100
AcDbEntity
  8
0
100
AcDbLine
 10
129.4596418868101
 20
38.86382107985829
 30
0.0
 11
129.5588587108101
 21
38.86103621585829
 31
0.0
  0
LWPOLYLINE
  5
8B
330
2
100
AcDbEntity
  8
0
100
AcDbPolyline
 90
        8
 70
     0
 43
0.0
 10
128.8438008820101
 20
38.87295110865831
 10
128.9553860596101
 20
38.8725800318583
 10
129.0675562740101
 20
38.87154084945831
 10
129.1796528804101
 20
38.8699302910583
 10
129.2909836148101
 20
38.86783303185831
 10
129.3465025268101
 20
38.86661854225831
 10
129.4025141332101
 20
38.86528572465831
 10
129.4596418868101
 20
38.86382107985831
  0
LWPOLYLINE
  5
8C
330
2
100
AcDbEntity
  8
0
100
AcDbPolyline
 90
       32
 70
     0
 43
0.0
 10
129.7340944532101
 20
38.8554186494583
 10
129.8316019284101
 20
38.85193133905831
 10
129.88302395241
 20
38.8499932030583
 10
129.9362292900101
 20
38.8479177118583
 10
129.9912214724101
 20
38.84569896145831
 10
130.0480166084101
 20
38.8433302142583
 10
130.1066339492101
 20
38.8408045230583
 10
130.1670931220101
 20
38.8381147870583
 10
130.2294152468101
 20
38.83525327825831
 10
130.2936218196101
 20
38.83221211505831
 10
130.3597424148101
 20
38.8289827614583
 10
130.4278389076101
 20
38.8255540830583
 10
130.4979812532101
 20
38.8219142926583
 10
130.5702391876101
 20
38.8180511918583
 10
130.6446815732101
 20
38.8139509214583
 10
130.7213770548101
 20
38.80959920785831
 10
130.7804192228101
 20
38.80616156945831
 10
130.8408003348101
 20
38.8025668894583
 10
130.9025533556101
 20
38.7988075918583
 10
130.9657112484101
 20
38.79487609745829
 10
131.0303057460101
 20
38.7907646382583
 10
131.0963636436101
 20
38.78646467025831
 10
131.1639105060101
 20
38.7819674590583
 10
131.2329718980101
 20
38.7772642686583
 10
131.3035760180101
 20
38.77234574865831
 10
131.3757616068101
 20
38.7672000990583
 10
131.4495700356101
 20
38.7618149022583
 10
131.5250426820101
 20
38.7561777438583
 10
131.6022115124101
 20
38.7502764046583
 10
131.6810708676101
 20
38.7440994398583
 10
131.7616056804101
 20
38.7376356062583
 10
131.8438008820101
 20
38.7308736558583
  0
LINE
  5
8D
330
2
100
AcDbEntity
  8
0
100
AcDbLine
 10
134.1010273412101
 20
38.41217641105831
 30
0.0
 11
134.0236428212101
 21
38.42849021585829
 31
0.0
  0
LINE
  5
8E
330
2
100
AcDbEntity
  8
0
100
AcDbLine
 10
134.1493803876101
 20
38.39641913425831
 30
0.0
 11
134.5349120180101
 21
38.31412058545831
 31
0.0
  0
LINE
  5
8F
330
2
100
AcDbEntity
  8
0
100
AcDbLine
 10
134.5349120180101
 20
38.31412058545831
 30
0.0
 11
134.7444136644101
 21
38.2695582942583
 31
0.0
  0
LINE
  5
90
330
2
100
AcDbEntity
  8
0
100
AcDbLine
 10
134.1803110772101
 20
38.39565721105831
 30
0.0
 11
134.1010273412101
 21
38.41217641105831
 31
0.0
  0
LINE
  5
91
330
2
100
AcDbEntity
  8
0
100
AcDbLine
 10
134.2613686148101
 20
38.37893694065829
 30
0.0
 11
134.1803110772101
 21
38.39565721105831
 31
0.0
  0
LINE
  5
92
330
2
100
AcDbEntity
  8
0
100
AcDbLine
 10
134.3440981812101
 20
38.3620173838583
 30
0.0
 11
134.2613686148101
 21
38.37893694065829
 31
0.0
  0
LINE
  5
93
330
2
100
AcDbEntity
  8
0
100
AcDbLine
 10
134.4284196228101
 20
38.34489835185829
 30
0.0
 11
134.3440981812101
 21
38.3620173838583
 31
0.0
  0
LINE
  5
94
330
2
100
AcDbEntity
  8
0
100
AcDbLine
 10
134.5142730596101
 20
38.32757808465831
 30
0.0
 11
134.4284196228101
 21
38.34489835185829
 31
0.0
  0
LINE
  5
95
330
2
100
AcDbEntity
  8
0
100
AcDbLine
 10
134.6458399124101
 20
38.30121385905829
 30
0.0
 11
134.5142730596101
 21
38.32757808465831
 31
0.0
  0
LINE
  5
96
330
2
100
AcDbEntity
  8
0
100
AcDbLine
 10
134.7806924340101
 20
38.27437844465831
 30
0.0
 11
134.6458399124101
 21
38.30121385905829
 31
0.0
  0
LINE
  5
97
330
2
100
AcDbEntity
  8
0
100
AcDbLine
 10
134.9188232388101
 20
38.24706162385828
 30
0.0
 11
134.7806924340101
 21
38.27437844465831
 31
0.0
  0
LWPOLYLINE
  5
98
330
2
100
AcDbEntity
  8
0
100
AcDbPolyline
 90
       17
 70
     0
 43
0.0
 10
134.7951890164101
 20
39.59604417745831
 10
134.7405431284101
 20
39.4834070094583
 10
134.6771679108101
 20
39.3754417150583
 10
134.6054684884101
 20
39.2728384606583
 10
134.5259032100101
 20
39.1762531502583
 10
134.4389807092101
 20
39.0863032238583
 10
134.3452566484101
 20
39.0035636958583
 10
134.2453301716101
 20
38.92856349105831
 10
134.1398400740101
 20
38.8617820590583
 10
134.02946071401
 20
38.8036463070583
 10
133.9148977060101
 20
38.7545278766583
 10
133.7968834084101
 20
38.7147407630583
 10
133.6761722484101
 20
38.6845393134583
 10
133.5535358836101
 20
38.6641165918583
 10
133.4297582852101
 20
38.6536031550583
 10
133.3056307204101
 20
38.6530662094583
 10
133.1819466820101
 20
38.6625091934583
  0
LWPOLYLINE
  5
99
330
2
100
AcDbEntity
  8
0
100
AcDbPolyline
 90
       58
 70
     0
 43
0.0
 10
134.7329942820101
 20
39.60964350225831
 10
134.7173804692101
 20
39.57550084465831
 10
134.7010767028101
 20
39.54200640785831
 10
134.6841091684101
 20
39.5091659710583
 10
134.6665022916101
 20
39.47698250865831
 10
134.6482797396101
 20
39.4454583054583
 10
134.6294640548101
 20
39.4145944222583
 10
134.6100770100101
 20
39.3843914446583
 10
134.5901392884101
 20
39.3548490318583
 10
134.5696708900101
 20
39.3259666302583
 10
134.5486900692101
 20
39.29774206065831
 10
134.5272164212101
 20
39.2701757054583
 10
134.5052630916101
 20
39.2432605678583
 10
134.4828401988101
 20
39.21698776625829
 10
134.4599704932101
 20
39.1913641486583
 10
134.4366757588101
 20
39.1663947262583
 10
134.4129712404101
 20
39.1420773454583
 10
134.3888727332101
 20
39.1184109038583
 10
134.3643951700101
 20
39.0953938222583
 10
134.3395527700101
 20
39.0730242462583
 10
134.3143591876101
 20
39.0513002222583
 10
134.2888266324101
 20
39.0302190014583
 10
134.2629680708101
 20
39.0097789086583
 10
134.2367913412101
 20
38.9899747790583
 10
134.2103006148101
 20
38.9707997422583
 10
134.1835087732101
 20
38.9522540654583
 10
134.15642724681
 20
38.9343371406583
 10
134.1290616180101
 20
38.9170449518583
 10
134.1014170500101
 20
38.90037405905831
 10
134.0734974964101
 20
38.8843211294583
 10
134.0453043828101
 20
38.8688823390583
 10
134.0168414420101
 20
38.8540560782583
 10
133.9880995204101
 20
38.8398352686583
 10
133.9591065156101
 20
38.8262317358583
 10
133.9298731156101
 20
38.81324808465831
 10
133.9003142116101
 20
38.8008478382583
 10
133.8703875076101
 20
38.78902011185831
 10
133.8400919284101
 20
38.77777362865831
 10
133.8094118084101
 20
38.7671130142583
 10
133.7783355172101
 20
38.7570463262583
 10
133.7468492436101
 20
38.7475827838583
 10
133.7149390532101
 20
38.7387335790583
 10
133.6825903156101
 20
38.7305117742583
 10
133.6497880132101
 20
38.7229324878583
 10
133.6165166596101
 20
38.7160129662583
 10
133.5827605380101
 20
38.70977275505831
 10
133.5485041124101
 20
38.7042338670583
 10
133.5137246708101
 20
38.6994199246583
 10
133.4784038612101
 20
38.6953583294583
 10
133.44253239881
 20
38.6920802654583
 10
133.4060934388101
 20
38.6896188734583
 10
133.3690664292101
 20
38.6880104718583
 10
133.3314651492101
 20
38.68729549905831
 10
133.2935388148101
 20
38.68751086865831
 10
133.2555934548101
 20
38.68866833585831
 10
133.2177024292101
 20
38.6907667790583
 10
133.1798767908101
 20
38.6938052606583
 10
133.1421427140101
 20
38.69778167825831
  0
LWPOLYLINE
  5
9A
330
2
100
AcDbEntity
  8
0
100
AcDbPolyline
 90
       36
 70
     0
 43
0.0
 10
134.0236428212101
 20
38.4284902158583
 10
133.94845374921
 20
38.44455982705829
 10
133.9118200852101
 20
38.4524811486583
 10
133.8758567268101
 20
38.4603243214583
 10
133.8405885668101
 20
38.46808690545831
 10
133.8060355092101
 20
38.47576755985831
 10
133.7722132772101
 20
38.48336586065831
 10
133.7391406740101
 20
38.4908806846583
 10
133.7068375524101
 20
38.4983106382583
 10
133.6753224404101
 20
38.5056545774583
 10
133.6446136196101
 20
38.5129113566583
 10
133.6147292324101
 20
38.52007978865831
 10
133.5856873620101
 20
38.52715860945831
 10
133.5575048132101
 20
38.5341467598583
 10
133.5301974228101
 20
38.5410433134583
 10
133.5037810532101
 20
38.54784721105831
 10
133.4782711556101
 20
38.55455736785831
 10
133.4536824788101
 20
38.5611727262583
 10
133.4300291844101
 20
38.5676922238583
 10
133.4073247812101
 20
38.57411480625831
 10
133.3855821108101
 20
38.5804394158583
 10
133.3648134132101
 20
38.58666497905831
 10
133.34503028521
 20
38.5927903934583
 10
133.3262437076101
 20
38.59881453585831
 10
133.3084640084101
 20
38.60473624945831
 10
133.2917009300101
 20
38.6105543230583
 10
133.2759634468101
 20
38.6162675550583
 10
133.2612604308101
 20
38.6218744926583
 10
133.2475981572101
 20
38.62737441265831
 10
133.2349914836101
 20
38.63276262705831
 10
133.2234713172101
 20
38.6380255342583
 10
133.2130433140101
 20
38.6431580318583
 10
133.2036892148101
 20
38.6481662974583
 10
133.1953936212101
 20
38.6530570958583
 10
133.18814651401
 20
38.6578368542583
 10
133.1819466980101
 20
38.6625091822583
  0
LWPOLYLINE
  5
9B
330
2
100
AcDbEntity
  8
0
100
AcDbPolyline
 90
       26
 70
     0
 43
0.0
 10
145.7459887092101
 20
28.6718054782583
 10
146.6014673908101
 20
28.73147764305831
 10
147.4516590036101
 20
28.82921434225831
 10
148.2958401028101
 20
28.9648380462583
 10
149.1336070452101
 20
29.1383535758583
 10
149.9657260196101
 20
29.3500363326583
 10
150.7914598708101
 20
29.5999117998583
 10
151.6083332948101
 20
29.88754311345831
 10
152.4140021652101
 20
30.2123570574583
 10
153.2066824452101
 20
30.5738082206583
 10
153.98504826601
 20
30.97154625585829
 10
154.7478186084101
 20
31.40518386385831
 10
155.4934943924101
 20
31.8741200654583
 10
156.2204705860101
 20
32.3776767694583
 10
156.9275268468101
 20
32.9153609534583
 10
157.6133004724101
 20
33.4864675854583
 10
158.2763081444101
 20
34.09018247345831
 10
158.9152820004101
 20
34.7258234078583
 10
159.5287371060101
 20
35.3923280670583
 10
160.1150960308101
 20
36.08847783665829
 10
160.6730112340101
 20
36.8132211886583
 10
161.2011169044101
 20
37.56523613105831
 10
161.6980427812101
 20
38.34311490225831
 10
162.1625139652101
 20
39.1454869198583
 10
162.5933079540101
 20
39.9707238078583
 10
162.9892180740101
 20
40.81707441745829
  0
LWPOLYLINE
  5
9C
330
2
100
AcDbEntity
  8
0
100
AcDbPolyline
 90
       75
 70
     0
 43
0.0
 10
147.1093087092101
 20
33.3390329486583
 10
147.38487720521
 20
33.3695433934583
 10
147.6593503988101
 20
33.40293492145831
 10
147.9279163380101
 20
33.4384522622583
 10
148.1893836660101
 20
33.47588126865831
 10
148.4445978948101
 20
33.51524722225831
 10
148.6939448340101
 20
33.5565311502583
 10
148.9376586612101
 20
33.5996948334583
 10
149.1761899780101
 20
33.6447467198583
 10
149.4101777252101
 20
33.69174218545831
 10
149.6402472148101
 20
33.7407473310583
 10
149.8666573940101
 20
33.7917672750583
 10
150.0894849508101
 20
33.84477180785831
 10
150.3088720628101
 20
33.8997490478583
 10
150.5250535252101
 20
33.9567170382583
 10
150.7381967508101
 20
34.0156833502583
 10
150.9483789716101
 20
34.07663462865831
 10
151.1558003604101
 20
34.1395968670583
 10
151.3611530068101
 20
34.2047574974583
 10
151.5649544116101
 20
34.2722709646583
 10
151.7672857972101
 20
34.34216244305829
 10
151.9682203924101
 20
34.41445815025831
 10
152.1678726580101
 20
34.48920304465831
 10
152.3663875876101
 20
34.5664592590583
 10
152.5638765828101
 20
34.64628280305831
 10
152.7603969652101
 20
34.72871310385831
 10
152.9559558756101
 20
34.81377090705831
 10
153.1510413012101
 20
34.9016968446583
 10
153.3464017412101
 20
34.9928700158583
 10
153.5422175252101
 20
35.0874269150583
 10
153.7385220532101
 20
35.1854467278583
 10
153.9353657860101
 20
35.28702011505831
 10
154.1327741956101
 20
35.3922285358583
 10
154.3307644340101
 20
35.5011515742583
 10
154.5293510324101
 20
35.61387037105831
 10
154.72851239241
 20
35.73044709425831
 10
154.92816388521
 20
35.85090944145831
 10
155.1280874180101
 20
35.9752037534583
 10
155.3279656788101
 20
36.1031989326583
 10
155.5276798612101
 20
36.23487399985831
 10
155.7272442372101
 20
36.3702919038583
 10
155.9267360180101
 20
36.5095626318583
 10
156.1260866852101
 20
36.6527010942583
 10
156.3248522388101
 20
36.79943662705831
 10
156.5221953956101
 20
36.9491767822583
 10
156.7166792500101
 20
37.10083570225831
 10
156.9082151540101
 20
37.2543158670583
 10
157.0967199988101
 20
37.40951953905831
 10
157.2821316980101
 20
37.56635956145831
 10
157.46447823561
 20
37.7248223470583
 10
157.6437404628101
 20
37.88485470705831
 10
157.8199407028101
 20
38.0464390382583
 10
157.9930987284101
 20
38.2095566222583
 10
158.1632237940101
 20
38.37417974545831
 10
158.3303147524101
 20
38.5402705966583
 10
158.4943019124101
 20
38.70772086065831
 10
158.6550625188101
 20
38.8763625310583
 10
158.8125909892101
 20
39.0461433198583
 10
158.9669017476101
 20
39.2170314126583
 10
159.1180432180101
 20
39.3890338494583
 10
159.2660752564101
 20
39.56217441425831
 10
159.4109909636101
 20
39.7364018670583
 10
159.5527882148101
 20
39.9116686046583
 10
159.6914757636101
 20
40.0879396670583
 10
159.8271222836101
 20
40.26525892785831
 10
159.9597923396101
 20
40.44367080305831
 10
160.0895233268101
 20
40.62318863505831
 10
160.2163390948101
 20
40.80381024305831
 10
160.34019682441
 20
40.98543635505831
 10
160.4610359924101
 20
41.1679372622583
 10
160.5787931236101
 20
41.35117336625831
 10
160.6934622372101
 20
41.53508412945831
 10
160.8051660932101
 20
41.71982061265831
 10
160.9139309396101
 20
41.9053875054583
 10
161.0197654996101
 20
42.0917583454583
  0
LWPOLYLINE
  5
9D
330
2
100
AcDbEntity
  8
0
100
AcDbPolyline
 90
       49
 70
     0
 43
0.0
 10
150.6491632548101
 20
36.5681739710583
 10
150.7539968132101
 20
36.63498611825831
 10
150.8576639572101
 20
36.7038255438583
 10
150.9601521748101
 20
36.7746972958583
 10
151.0614288804101
 20
36.84758927025831
 10
151.1613811940101
 20
36.92242074225831
 10
151.2598761652101
 20
36.9990938350583
 10
151.3567951732101
 20
37.0775178878583
 10
151.4520769492101
 20
37.15763110545831
 10
151.5456745604101
 20
37.23937891505831
 10
151.6375322388101
 20
37.3226948574583
 10
151.7275588868101
 20
37.4074649694583
 10
151.8156545732101
 20
37.4935634062583
 10
151.9017314708101
 20
37.58087187185831
 10
151.9857501700101
 20
37.66930225905831
 10
152.0676833684101
 20
37.7587740094583
 10
152.1474965300101
 20
37.84919395025831
 10
152.2251261988101
 20
37.9404184606583
 10
152.3005016868101
 20
38.0322913118583
 10
152.3735642580101
 20
38.1246654094583
 10
152.4443029636101
 20
38.2174302270583
 10
152.5127188116101
 20
38.31048437265831
 10
152.5788196644101
 20
38.40373577905831
 10
152.6426408260101
 20
38.4971296622583
 10
152.7042244644101
 20
38.5906205566583
 10
152.7636127812101
 20
38.6841642398583
 10
152.8208481252101
 20
38.77772145265831
 10
152.8759728804101
 20
38.87125418705831
 10
152.9290319700101
 20
38.9647316494583
 10
152.9800804692101
 20
39.0581519550583
 10
153.02917599561
 20
39.1515204382583
 10
153.0763721764101
 20
39.2448372958583
 10
153.1217067028101
 20
39.3380821486583
 10
153.1652132820101
 20
39.4312294782583
 10
153.2069264132101
 20
39.5242578606583
 10
153.2468837812101
 20
39.6171622590583
 10
153.2851238628101
 20
39.70994172785831
 10
153.3216790564101
 20
39.8025784350583
 10
153.3565574468101
 20
39.8949869854583
 10
153.3897610452101
 20
39.98706508625831
 10
153.4212974052101
 20
40.0787231406583
 10
153.4511962820101
 20
40.1699223006583
 10
153.4794929748101
 20
40.2606364078583
 10
153.5062200564101
 20
40.3508279310583
 10
153.5313991716101
 20
40.4404138446583
 10
153.5550492404101
 20
40.5292997534583
 10
153.5771935252101
 20
40.6174046750583
 10
153.5978726868101
 20
40.7047012910583
 10
153.6171317316101
 20
40.7911757022583
  0
LWPOLYLINE
  5
9E
330
2
100
AcDbEntity
  8
0
100
AcDbPolyline
 90
       72
 70
     0
 43
0.0
 10
147.6992331140101
 20
37.37410251825831
 10
147.5961592740101
 20
37.3480286702583
 10
147.4899512132101
 20
37.3216276286583
 10
147.3808230404101
 20
37.29498842385829
 10
147.2688865348101
 20
37.2681773038583
 10
147.1538441940101
 20
37.2411693870583
 10
147.0352961892101
 20
37.21391700785829
 10
146.9129727188101
 20
37.18640329265831
 10
146.7871240836101
 20
37.1587345246583
 10
146.6581306100101
 20
37.1310477726583
 10
146.5596344132101
 20
37.11036783185831
 10
146.4602471380101
 20
37.0898995070583
 10
146.2598166292101
 20
37.0498458110583
 10
146.0550103924101
 20
37.0106015358583
 10
145.8465708452101
 20
36.9723906814583
 10
145.6363543364101
 20
36.93563092625831
 10
145.4264632852101
 20
36.9006750990583
 10
145.2184503812101
 20
36.8677599982583
 10
145.0114233396101
 20
36.8367231134583
 10
144.8043944852101
 20
36.8073781758583
 10
144.5984395380101
 20
36.7798431950583
 10
144.39465018921
 20
36.7542415902583
 10
144.1921186116101
 20
36.73041412625831
 10
143.98922325481
 20
36.7081358862583
 10
143.7834871828101
 20
36.6872018478583
 10
143.57317010761
 20
36.66750208785831
 10
143.36033371401
 20
36.6492871694583
 10
143.1476155796101
 20
36.6328420110583
 10
142.9361549076101
 20
36.61822843025831
 10
142.7266459876101
 20
36.60544606225831
 10
142.51950183721
 20
36.59446887985831
 10
142.3152307204101
 20
36.58526227345831
 10
142.1150031332101
 20
36.57778292785831
 10
141.9198653844101
 20
36.57197276305831
 10
141.7297047908101
 20
36.5677233566583
 10
141.6055775124101
 20
36.5656983486583
 10
141.4838447748101
 20
36.5642809662583
 10
141.3648678980101
 20
36.5634389454583
 10
141.24889779241
 20
36.5631396078583
 10
141.1357436724101
 20
36.5633485966583
 10
141.0251043396101
 20
36.5640311374583
 10
140.8634049332101
 20
36.5658694446583
 10
140.7068890196101
 20
36.5685935646583
 10
140.5556337044101
 20
36.57210978225831
 10
140.4092128372101
 20
36.5763552462583
 10
140.2670744452101
 20
36.58127482865831
 10
140.1286665604101
 20
36.5868133982583
 10
139.9490115492101
 20
36.5950841774583
 10
139.7739380004101
 20
36.6043372974583
 10
139.6023766452101
 20
36.61455268945831
 10
139.4333352548101
 20
36.6257175662583
 10
139.2661297492101
 20
36.6378482926583
 10
139.1001530916101
 20
36.65096851505831
 10
138.9350528180101
 20
36.6650785694583
 10
138.7714947668101
 20
36.68008553105831
 10
138.6103993556101
 20
36.69587316145831
 10
138.4525918148101
 20
36.7123254334583
 10
138.2985166244101
 20
36.72932714065831
 10
138.1485230836101
 20
36.7467632894583
 10
138.0027759332101
 20
36.76454475505831
 10
137.8607017156101
 20
36.7826858942583
 10
137.72154241961
 20
36.80122693745831
 10
137.5166483492101
 20
36.8299023038583
 10
137.3142742868101
 20
36.8598596398583
 10
137.1124427764101
 20
36.8913496414583
 10
136.9105986820101
 20
36.92445909585831
 10
136.7086091892101
 20
36.95922143665831
 10
136.5066084132101
 20
36.99562058065831
 10
136.3047942756101
 20
37.0336265294583
 10
136.1033529764101
 20
37.07320317105831
 10
135.9024289508101
 20
37.1143199710583
 10
135.7020112948101
 20
37.1569748126583
  0
LWPOLYLINE
  5
9F
330
2
100
AcDbEntity
  8
0
100
AcDbPolyline
 90
       33
 70
     0
 43
0.0
 10
145.4744227780101
 20
34.8634172302583
 10
145.6558689092101
 20
34.8791304462583
 10
145.8376790612101
 20
34.89779313745831
 10
146.0198173268101
 20
34.9194333486583
 10
146.2022399316101
 20
34.9440774558583
 10
146.3848716164101
 20
34.9717451742583
 10
146.5676292516101
 20
35.0024545502583
 10
146.7504332820101
 20
35.0362230558583
 10
146.9332184404101
 20
35.0730658670583
 10
147.1159230324101
 20
35.1129975838583
 10
147.2984845508101
 20
35.1560324174583
 10
147.4808372276101
 20
35.20218301265831
 10
147.6629144804101
 20
35.2514616206583
 10
147.8446231732101
 20
35.3038692382583
 10
148.0257639636101
 20
35.35936185265831
 10
148.2061109572101
 20
35.4178841902583
 10
148.3854413716101
 20
35.4793754206583
 10
148.5635448596101
 20
35.54375246705831
 10
148.7402141812101
 20
35.61092669585831
 10
148.9152242356101
 20
35.6807933758583
 10
149.0882784676101
 20
35.7531833998583
 10
149.2590624564101
 20
35.8279115726583
 10
149.4272740996101
 20
35.9047882686583
 10
149.5926605700101
 20
35.98360617105831
 10
149.7549813556101
 20
36.06415354065831
 10
149.8745569332101
 20
36.1255619230583
 10
149.9921204692101
 20
36.18767631185831
 10
150.1075196516101
 20
36.2503489902583
 10
150.2206021700101
 20
36.3134322446583
 10
150.3312539012101
 20
36.37679800465831
 10
150.4395134596101
 20
36.4403967774583
 10
150.5454576452101
 20
36.5041987150583
 10
150.6491632548101
 20
36.5681739710583
  0
LWPOLYLINE
  5
A0
330
2
100
AcDbEntity
  8
0
100
AcDbPolyline
 90
        4
 70
     0
 43
0.0
 10
144.8465160180101
 20
28.65044090865831
 10
145.1465192260101
 20
28.6528720078583
 10
145.4463545636101
 20
28.6599941662583
 10
145.7459887092101
 20
28.6718054782583
  0
LWPOLYLINE
  5
A1
330
2
100
AcDbEntity
  8
0
100
AcDbPolyline
 90
       31
 70
     0
 43
0.0
 10
139.9888008820101
 20
34.64814301265831
 10
140.15392557801
 20
34.64833828625831
 10
140.3150192356101
 20
34.6489047230583
 10
140.4720100052101
 20
34.6498132430583
 10
140.6248260372101
 20
34.6510347662583
 10
140.7733954836101
 20
34.65254021265831
 10
140.9176958692101
 20
34.65430223505831
 10
141.0579022260101
 20
34.65630042065831
 10
141.1942389588101
 20
34.6585160894583
 10
141.3269304756101
 20
34.6609305614583
 10
141.4562011812101
 20
34.66352515665831
 10
141.5822622708101
 20
34.6662825534583
 10
141.7052720900101
 20
34.6691908686583
 10
141.8253757732101
 20
34.67223957265831
 10
141.9427184532101
 20
34.6754181390583
 10
142.0574452644101
 20
34.6787160430583
 10
142.1974030372101
 20
34.6829923358583
 10
142.33382407881
 20
34.68743088465831
 10
142.46703218281
 20
34.6920239310583
 10
142.5973511428101
 20
34.69676371505831
 10
142.7251011700101
 20
34.70164409105831
 10
142.85058814121
 20
34.7066653614583
 10
142.9741143540101
 20
34.7118294478583
 10
143.09598210441
 20
34.7171382654583
 10
143.2564319076101
 20
34.72444971665831
 10
143.4152881732101
 20
34.73205387025831
 10
143.5733683284101
 20
34.7399827134583
 10
144.0477869508101
 20
34.7659232990583
 10
144.5238613332101
 20
34.7952030110583
 10
144.9999473844101
 20
34.82774190545831
 10
145.4744227780101
 20
34.8634172302583
  0
LWPOLYLINE
  5
A2
330
2
100
AcDbEntity
  8
0
100
AcDbPolyline
 90
       21
 70
     0
 43
0.0
 10
139.7952664820101
 20
34.0672379182583
 10
139.6902638228101
 20
34.2247821534583
 10
139.5437238164101
 20
34.4284433582583
 10
139.3884562100101
 20
34.62672673105831
 10
139.2247238740101
 20
34.81924256305831
 10
139.0528082020101
 20
35.00561156625831
 10
138.8730076196101
 20
35.1854667918583
 10
138.6856367988101
 20
35.35845446225831
 10
138.4910260116101
 20
35.5242346510583
 10
138.2895201668101
 20
35.6824822190583
 10
138.0814783236101
 20
35.8328873086583
 10
137.8672729492101
 20
35.97515608305831
 10
137.6472883716101
 20
36.1090119086583
 10
137.4219206340101
 20
36.2341955102583
 10
137.1915770180101
 20
36.3504654830583
 10
136.9566738452101
 20
36.45759959825831
 10
136.7176360116101
 20
36.55539501905831
 10
136.4748976276101
 20
36.64366822705829
 10
136.2289027732101
 20
36.7222552590583
 10
135.9800948660101
 20
36.79101525905831
 10
135.7318104180101
 20
36.84921111185831
  0
LWPOLYLINE
  5
A3
330
2
100
AcDbEntity
  8
0
100
AcDbPolyline
 90
        4
 70
     0
 43
0.0
 10
139.3238634244101
 20
34.0186177886583
 10
138.4376661556101
 20
34.0062610942583
 10
137.5501342228101
 20
33.9949985806583
 10
136.6613999204101
 20
33.98483125105831
  0
LWPOLYLINE
  5
A4
330
2
100
AcDbEntity
  8
0
100
AcDbPolyline
 90
       23
 70
     0
 43
0.0
 10
135.9107635700101
 20
34.04478602865831
 10
135.9190855380101
 20
34.0398779694583
 10
135.9315113732101
 20
34.0349313566583
 10
135.9479702372101
 20
34.0300169998583
 10
135.9683016932101
 20
34.0251951998583
 10
135.9923651188101
 20
34.0205031646583
 10
136.0198314196101
 20
34.0160016366583
 10
136.0502650740101
 20
34.01174641905831
 10
136.0833774996101
 20
34.0077587438583
 10
136.1188331924101
 20
34.0040613822583
 10
136.1562042292101
 20
34.0006794606583
 10
136.1951505428101
 20
33.99762283185831
 10
136.2354992260101
 20
33.99488704305831
 10
136.2768529204101
 20
33.99248212785831
 10
136.3188090244101
 20
33.99041200945831
 10
136.3612386772101
 20
33.9886644990583
 10
136.40406153321
 20
33.9872285358583
 10
136.4470407284101
 20
33.9860997614583
 10
136.4899676852101
 20
33.9852715374583
 10
136.5328661492101
 20
33.98473388305831
 10
136.5757370356101
 20
33.98448157585831
 10
136.6185891636101
 20
33.9845132542583
 10
136.6613999204101
 20
33.98483125105831
  0
LWPOLYLINE
  5
A5
330
2
100
AcDbEntity
  8
0
100
AcDbPolyline
 90
        3
 70
     0
 43
0.0
 10
135.8944383476101
 20
34.0582538958583
 10
135.8947650580101
 20
34.0574647630583
 10
135.8977857028101
 20
34.0543673646583
  0
LWPOLYLINE
  5
A6
330
2
100
AcDbEntity
  8
0
100
AcDbPolyline
 90
        3
 70
     0
 43
0.0
 10
135.9107635700101
 20
34.04478602865831
 10
135.9044088532101
 20
34.04959031025831
 10
135.8977857028101
 20
34.0543673646583
  0
LWPOLYLINE
  5
A7
330
2
100
AcDbEntity
  8
0
100
AcDbPolyline
 90
       21
 70
     0
 43
0.0
 10
139.3238634244101
 20
34.0186177886583
 10
139.3713976532101
 20
34.0194569486583
 10
139.4163012356101
 20
34.02053739985831
 10
139.4585723508101
 20
34.02183992305831
 10
139.4982866516101
 20
34.0233493662583
 10
139.5354014692101
 20
34.0250476606583
 10
139.5700406980101
 20
34.02692556145831
 10
139.6021827604101
 20
34.0289687678583
 10
139.6318925668101
 20
34.03116948945831
 10
139.6592094020101
 20
34.0335211470583
 10
139.6840966868101
 20
34.0360122446583
 10
139.7066151828101
 20
34.0386427198583
 10
139.7267231156101
 20
34.0414045246583
 10
139.7443965076101
 20
34.04429312465831
 10
139.7596160372101
 20
34.0473085118583
 10
139.7723009460101
 20
34.0504421886583
 10
139.7823972212101
 20
34.0536944142583
 10
139.7898125588101
 20
34.05706032625831
 10
139.7944410980101
 20
34.06053211665831
 10
139.7961745732101
 20
34.0641072798583
 10
139.7952685972101
 20
34.0672379294583
  0
LINE
  5
A8
330
2
100
AcDbEntity
  8
0
100
AcDbLine
 10
139.3700203124101
 20
34.64814301265829
 30
0.0
 11
139.9888008820101
 21
34.64814301265829
 31
0.0
  0
LWPOLYLINE
  5
A9
330
2
100
AcDbEntity
  8
0
100
AcDbPolyline
 90
        4
 70
     0
 43
0.0
 10
135.7318104196101
 20
36.84921111825831
 10
135.5788497556101
 20
36.88009546705831
 10
135.4221384212101
 20
36.9079925838583
 10
135.2678280196101
 20
36.9317995598583
  0
LWPOLYLINE
  5
AA
330
2
100
AcDbEntity
  8
0
100
AcDbPolyline
 90
       35
 70
     0
 43
0.0
 10
147.0792244676101
 20
38.3303912286583
 10
147.2686751556101
 20
38.4061156574583
 10
147.4569834676101
 20
38.48490920625831
 10
147.6439999524101
 20
38.5666910638583
 10
147.8296769348101
 20
38.6514287854583
 10
148.0143738932101
 20
38.7392833918583
 10
148.1985520868101
 20
38.8304642702583
 10
148.33661550281
 20
38.9011638766583
 10
148.4747975524101
 20
38.97397134705831
 10
148.6132492164101
 20
39.0490057358583
 10
148.75212147401
 20
39.1263860974583
 10
148.89151573001
 20
39.2062065806583
 10
149.0313350900101
 20
39.2884616958583
 10
149.1247886356101
 20
39.3446836126583
 10
149.2187834132101
 20
39.4022507342583
 10
149.3137368164101
 20
39.4614397086583
 10
149.4099154900101
 20
39.5224315566583
 10
149.5069830900101
 20
39.58502474545831
 10
149.6044525236101
 20
39.64892211665831
 10
149.6774661092101
 20
39.6974762014583
 10
149.7498711956101
 20
39.74619508945831
 10
149.8212646196101
 20
39.7947840974583
 10
149.89187271401
 20
39.8433763966583
 10
149.9852584548101
 20
39.90844975665829
 10
150.07763997481
 20
39.9737058814583
 10
150.1687270404101
 20
40.03889477745831
 10
150.2582294228101
 20
40.1037664590583
 10
150.3458568916101
 20
40.16807093425831
 10
150.4313192164101
 20
40.2315582158583
 10
150.51441936361
 20
40.2940580718583
 10
150.5953330724101
 20
40.3557193102583
 10
150.6743292836101
 20
40.4167704990583
 10
150.7516001620101
 20
40.4773759470583
 10
150.8270307940101
 20
40.53744294545831
 10
150.9004294964101
 20
40.5968145278583
  0
LWPOLYLINE
  5
AB
330
2
100
AcDbEntity
  8
0
100
AcDbPolyline
 90
       92
 70
     0
 43
0.0
 10
154.12172470761
 20
46.14122622545832
 10
154.0856694020101
 20
45.98387649105832
 10
154.0475743044101
 20
45.82595452785831
 10
154.0074107620101
 20
45.66766081425832
 10
153.9651538324101
 20
45.50694645425831
 10
153.9207806068101
 20
45.3484989566583
 10
153.8742939156101
 20
45.1903337214583
 10
153.8257260404101
 20
45.03278090065831
 10
153.7751331204101
 20
44.87620391825831
 10
153.7225432740101
 20
44.7208409614583
 10
153.6678518276101
 20
44.5665250510583
 10
153.6108733108101
 20
44.4128861214583
 10
153.5515439684101
 20
44.2599218334583
 10
153.4901587732101
 20
44.10850529905831
 10
153.4271950244101
 20
43.9597910990583
 10
153.3628878228101
 20
43.81420851985831
 10
153.2972609172101
 20
43.67166398065831
 10
153.2303325748101
 20
43.53206174705831
 10
153.1621255108101
 20
43.3953247086583
 10
153.0926828148101
 20
43.26142145905831
 10
153.0219595412101
 20
43.1301611118583
 10
152.9501540532101
 20
43.0018042190583
 10
152.8783284740101
 20
42.87802977425831
 10
152.8076200164101
 20
42.7604018750583
 10
152.7382257684101
 20
42.6487864702583
 10
152.6698176964101
 20
42.5422574990583
 10
152.6021307188101
 20
42.4400905598583
 10
152.5349789924101
 20
42.3417563518583
 10
152.4682075540101
 20
42.24682524465831
 10
152.40168729961
 20
42.15494715505831
 10
152.3353116580101
 20
42.0658368366583
 10
152.2689724868101
 20
41.9792351822583
 10
152.2026048612101
 20
41.8949621086583
 10
152.1360463764101
 20
41.81273656305831
 10
152.0693686820101
 20
41.73258198705831
 10
152.0025446900101
 20
41.65440614545831
 10
151.93310212201
 20
41.57537481905831
 10
151.8564726180101
 20
41.4906501022583
 10
151.7709440212101
 20
41.3989644254583
 10
151.6791839188101
 20
41.3037388942583
 10
151.5836001844101
 20
41.2077456894583
 10
151.4840860212101
 20
41.1110072830583
 10
151.3799664500101
 20
41.0130083470583
 10
151.2705635780101
 20
40.91328165745831
 10
151.1552106468101
 20
40.8114095726583
 10
151.0323136948101
 20
40.7062273406583
 10
150.9019101380101
 20
40.59802430865831
 10
150.7732346836101
 20
40.4943263838583
 10
150.6568760228101
 20
40.4028941038583
 10
150.5523618084101
 20
40.3224592574583
 10
150.4557453380101
 20
40.24937695985831
 10
150.36496591081
 20
40.1817103726583
 10
150.2752949508101
 20
40.1157260830583
 10
150.1811596708101
 20
40.0473207022583
 10
150.0806418260101
 20
39.97526928305831
 10
149.9734474132101
 20
39.8995758510583
 10
149.8585220404101
 20
39.81975680625831
 10
149.7345199316101
 20
39.7352065822583
 10
149.5997839812101
 20
39.6452197134583
 10
149.4513599636101
 20
39.54839839985829
 10
149.2874450324101
 20
39.4443303982583
 10
149.1154377204101
 20
39.3384050158583
 10
148.9445397924101
 20
39.2365255678583
 10
148.7744189172101
 20
39.13841602225831
 10
148.6036192180101
 20
39.0431654942583
 10
148.4326679380101
 20
38.95104055825831
 10
148.2617479812101
 20
38.86209629265831
 10
148.0910443732101
 20
38.7763829182583
 10
147.9206642420101
 20
38.6939058814583
 10
147.7505013988101
 20
38.6145694990583
 10
147.5802267700101
 20
38.53818168625831
 10
147.4095478308101
 20
38.46457699185831
 10
147.2383888260101
 20
38.39370035185829
 10
147.0667294980101
 20
38.3255251998583
 10
146.8945042660101
 20
38.26001065105831
 10
146.7216176692101
 20
38.19710998225831
 10
146.5479515012101
 20
38.1367746094583
 10
146.3734508948101
 20
38.07898332465831
 10
146.1981892020101
 20
38.0237607710583
 10
146.0221585940101
 20
37.97110855985831
 10
145.8450959860101
 20
37.92095399985831
 10
145.6666810132101
 20
37.87322110545831
 10
145.4866217284101
 20
37.82785559985831
 10
145.3046188500101
 20
37.7848142126583
 10
145.1203757860101
 20
37.7440671470583
 10
144.9335768884101
 20
37.7055939502583
 10
144.7432327284101
 20
37.6692590430583
 10
144.5478683396101
 20
37.6348769726583
 10
144.3467400740101
 20
37.60243320145831
 10
144.1398140420101
 20
37.5720566254583
 10
143.9271114660101
 20
37.5438819934583
 10
143.7086588388101
 20
37.51804267985831
  0
LWPOLYLINE
  5
AC
330
2
100
AcDbEntity
  8
0
100
AcDbPolyline
 90
       51
 70
     0
 43
0.0
 10
136.3351838868101
 20
37.9410521742583
 10
136.7055158356101
 20
37.8709912702583
 10
137.0761337348101
 20
37.8047185854583
 10
137.4472697892101
 20
37.7430133038583
 10
137.8190734820101
 20
37.6865033214583
 10
138.1913634004101
 20
37.6352113950583
 10
138.5638754164101
 20
37.5890089998583
 10
138.8431287284101
 20
37.5576404110583
 10
139.12154161481
 20
37.5291312926583
 10
139.3982972916101
 20
37.50355055185831
 10
139.6725789796101
 20
37.4809670910583
 10
139.8896979124101
 20
37.4650940462583
 10
140.1044349524101
 20
37.45115489265831
 10
140.3165142996101
 20
37.4391211630583
 10
140.5256601556101
 20
37.4289643870583
 10
140.7315967220101
 20
37.4206560990583
 10
140.9340623956101
 20
37.41416254065831
 10
141.1328523492101
 20
37.4094288046583
 10
141.3277759572101
 20
37.40639469745831
 10
141.5186425892101
 20
37.40500002225831
 10
141.7052616164101
 20
37.4051845854583
 10
141.8874950420101
 20
37.40688728945831
 10
142.06541538601
 20
37.41004343025831
 10
142.2391478020101
 20
37.4145874062583
 10
142.4088174388101
 20
37.4204536126583
 10
142.57454945161
 20
37.4275764430583
 10
142.7364705028101
 20
37.43589437745831
 10
142.8947133124101
 20
37.44536223185831
 10
143.0494121108101
 20
37.45593890385831
 10
143.2007011284101
 20
37.4675832894583
 10
143.3487145972101
 20
37.4802542862583
 10
143.5293488692101
 20
37.4974802446583
 10
143.7054521092101
 20
37.5162027278583
 10
143.8774015988101
 20
37.5363783982583
 10
144.0455746132101
 20
37.55796391985831
 10
144.2103608100101
 20
37.5809313086583
 10
144.3721993428101
 20
37.60531398065831
 10
144.5315417444101
 20
37.6311607070583
 10
144.6888395460101
 20
37.6585202510583
 10
144.8960759188101
 20
37.6974372046583
 10
145.1009866692101
 20
37.7392458718583
 10
145.3040783012101
 20
37.78406181265831
 10
145.5057930788101
 20
37.8319889310583
 10
145.7063163172101
 20
37.8830845134583
 10
145.9057690948101
 20
37.9373941934583
 10
146.1042344068101
 20
37.9949492302583
 10
146.3016428964101
 20
38.05572338385831
 10
146.4978871204101
 20
38.1196760366583
 10
146.6928842580101
 20
38.18677370065831
 10
146.8866499508101
 20
38.25701138385831
 10
147.0792244628101
 20
38.3303912206583
  0
LWPOLYLINE
  5
AD
330
2
100
AcDbEntity
  8
0
100
AcDbPolyline
 90
       22
 70
     0
 43
0.0
 10
141.9856025108101
 20
37.4116463022583
 10
141.7084521684101
 20
37.40874680945831
 10
141.4241872404101
 20
37.4094099774583
 10
141.1334608324101
 20
37.4137610222583
 10
140.8362854628101
 20
37.42191886705831
 10
140.5330563828101
 20
37.4339912526583
 10
140.2247094868101
 20
37.45004503985831
 10
139.91194770601
 20
37.47012855185831
 10
139.5955255140101
 20
37.49426323825831
 10
139.2764119028101
 20
37.5224285822583
 10
138.9559740036101
 20
37.55453796625831
 10
138.63555417001
 20
37.5904631390583
 10
138.3158347556101
 20
37.6301153102583
 10
137.9974465476101
 20
37.67339833105831
 10
137.6814880388101
 20
37.7201319214583
 10
137.3692214996101
 20
37.7700712766583
 10
137.0582966100101
 20
37.82357812625831
 10
136.7355231476101
 20
37.8830965630583
 10
136.3805180804101
 20
37.9523356894583
 10
135.98492666921
 20
38.03231268945831
 10
135.5431772788101
 20
38.1225786350583
 10
135.0602458324101
 20
38.2192647406583
  0
LINE
  5
AE
330
2
100
AcDbEntity
  8
0
100
AcDbLine
 10
135.4916677508101
 20
38.11181690705831
 30
0.0
 11
135.6187998756101
 21
38.0853665790583
 31
0.0
  0
LINE
  5
AF
330
2
100
AcDbEntity
  8
0
100
AcDbLine
 10
135.6187998756101
 20
38.0853665790583
 30
0.0
 11
135.7471240212101
 21
38.0588603870583
 31
0.0
  0
LINE
  5
B0
330
2
100
AcDbEntity
  8
0
100
AcDbLine
 10
135.7471240212101
 20
38.0588603870583
 30
0.0
 11
135.8765581012101
 21
38.03236046705831
 31
0.0
  0
LWPOLYLINE
  5
B1
330
2
100
AcDbEntity
  8
0
100
AcDbPolyline
 90
        8
 70
     0
 43
0.0
 10
135.8765581012101
 20
38.03236046705831
 10
135.9416393044101
 20
38.0191387758583
 10
136.0069142452101
 20
38.0059548766583
 10
136.0723449380101
 20
37.9928232750583
 10
136.1378983684101
 20
37.9797575726583
 10
136.2035614276101
 20
37.96676775985829
 10
136.2693259796101
 20
37.95386293105831
 10
136.3351838868101
 20
37.9410521742583
  0
LINE
  5
B2
330
2
100
AcDbEntity
  8
0
100
AcDbLine
 10
135.3036837092101
 20
38.1512037518583
 30
0.0
 11
135.4916677508101
 21
38.11181690705831
 31
0.0
  0
LINE
  5
B3
330
2
100
AcDbEntity
  8
0
100
AcDbLine
 10
135.0592894580101
 20
38.2027689166583
 30
0.0
 11
135.3036837092101
 21
38.1512037518583
 31
0.0
  0
LWPOLYLINE
  5
B4
330
2
100
AcDbEntity
  8
0
100
AcDbPolyline
 90
        8
 70
     0
 43
0.0
 10
143.7086588388101
 20
37.51804267985831
 10
143.4844773716101
 20
37.49466975665831
 10
143.2540655652101
 20
37.4738473998583
 10
143.01634672201
 20
37.4556312622583
 10
142.7705782628101
 20
37.44012532145831
 10
142.51674596681
 20
37.42750548305831
 10
142.2550594052101
 20
37.41795500145831
 10
141.9856025108101
 20
37.4116463022583
  0
LWPOLYLINE
  5
B5
330
2
100
AcDbEntity
  8
0
100
AcDbPolyline
 90
       31
 70
     0
 43
0.0
 10
150.9004294084101
 20
40.59681449105831
 10
150.9591135204101
 20
40.6449882238583
 10
151.0163642836101
 20
40.6926201134583
 10
151.0721536596101
 20
40.7396663614583
 10
151.1264536052101
 20
40.78608316465831
 10
151.1792608692101
 20
40.8318484510583
 10
151.2306713412101
 20
40.8770270718583
 10
151.2808056996101
 20
40.9217056030583
 10
151.3297846196101
 20
40.96597062385831
 10
151.3934816900101
 20
41.0244853566583
 10
151.4555088964101
 20
41.08255391025831
 10
151.5160359476101
 20
41.14031132145831
 10
151.5752375508101
 20
41.19790258545831
 10
151.6333083988101
 20
41.2555125534583
 10
151.6904481828101
 20
41.31333604305829
 10
151.7747636900101
 20
41.40082920945831
 10
151.8575960564101
 20
41.4894871886583
 10
151.9390644836101
 20
41.57950371505831
 10
152.0191151924101
 20
41.6708632590583
 10
152.09767076361
 20
41.7635027854583
 10
152.1747322180101
 20
41.85737851185829
 10
152.2503113572101
 20
41.9524426462583
 10
152.3243846532101
 20
42.0486120782583
 10
152.3969437732101
 20
42.1458281902583
 10
152.4680764996101
 20
42.2441656174583
 10
152.5378904116101
 20
42.3437329950583
 10
152.6064761924101
 20
42.44464169425831
 10
152.6739249972101
 20
42.5470184286583
 10
152.7403467924101
 20
42.65104853905831
 10
152.8058272020101
 20
42.7568896846583
 10
152.8703356852101
 20
42.8645301534583
  0
LWPOLYLINE
  5
B6
330
2
100
AcDbEntity
  8
0
100
AcDbPolyline
 90
       59
 70
     0
 43
0.0
 10
153.6171317316101
 20
40.7911757022583
 10
153.5588399444101
 20
40.73185154545831
 10
153.5013858260101
 20
40.6741362590583
 10
153.4448786644101
 20
40.61808807505831
 10
153.3893870836101
 20
40.56372676625831
 10
153.3348170212101
 20
40.5109182654583
 10
153.2810337540101
 20
40.45949004305831
 10
153.2279111028101
 20
40.4092811646583
 10
153.1753570852101
 20
40.3601770670583
 10
153.1232882756101
 20
40.3120747790583
 10
153.0458902356101
 20
40.2415618558583
 10
152.9689821300101
 20
40.1726479598583
 10
152.8921427748101
 20
40.10491264945829
 10
152.8149225076101
 20
40.0379471534583
 10
152.7368578132101
 20
39.9713484046583
 10
152.6574582484101
 20
39.9047244798583
 10
152.5761856820101
 20
39.83766367665831
 10
152.4923381812101
 20
39.76966402865831
 10
152.4346436660101
 20
39.7235555806583
 10
152.3752616116101
 20
39.6766728638583
 10
152.3139790660101
 20
39.62889200145831
 10
152.2505854212101
 20
39.5800953118583
 10
152.1848794564101
 20
39.5301899054583
 10
152.1166622932101
 20
39.47908909425831
 10
152.0457377572101
 20
39.4267128782583
 10
151.9719204820101
 20
39.3730080174583
 10
151.8950278068101
 20
39.31792795985831
 10
151.8148833652101
 20
39.2614350942583
 10
151.7313359844101
 20
39.20352754385829
 10
151.6442407844101
 20
39.1442123694583
 10
151.5534485028101
 20
39.0834984062583
 10
151.4587923428101
 20
39.0214015902583
 10
151.3601011236101
 20
38.9579396350583
 10
151.2571963572101
 20
38.8931315726583
 10
151.1498703300101
 20
38.8270017006583
 10
151.0379080212101
 20
38.75957563825831
 10
150.9507649636101
 20
38.7081747422583
 10
150.8608058372101
 20
38.6560931390583
 10
150.7679434340101
 20
38.6033648222583
 10
150.6720905412101
 20
38.5500237806583
 10
150.5731959844101
 20
38.49612382545831
 10
150.47135272361
 20
38.44179803345831
 10
150.3666897540101
 20
38.38719930065831
 10
150.2593360692101
 20
38.33248052625831
 10
150.11224536681
 20
38.25959283985829
 10
149.9609671156101
 20
38.1870848590583
 10
149.8058679348101
 20
38.11527788945831
 10
149.6472668964101
 20
38.0444644990583
 10
149.4852929060101
 20
37.9748223374583
 10
149.3200273220101
 20
37.90650031825831
 10
149.1515508996101
 20
37.8396455998583
 10
148.9799419572101
 20
37.7743982990583
 10
148.8052782132101
 20
37.7108967726583
 10
148.6276484756101
 20
37.6492796478583
 10
148.4471859444101
 20
37.5896866318583
 10
148.2640349188101
 20
37.5322577022583
 10
148.0783152212101
 20
37.4771234734583
 10
147.8900487956101
 20
37.42437713585831
 10
147.6992331140101
 20
37.37410251825831
  0
LWPOLYLINE
  5
B7
330
2
100
AcDbEntity
  8
0
100
AcDbPolyline
 90
       33
 70
     0
 43
0.0
 10
152.8703356804101
 20
42.8645301326583
 10
152.9184642020101
 20
42.94713928785831
 10
152.9647933092101
 20
43.0286132270583
 10
153.0093670052101
 20
43.1088912190583
 10
153.0522292884101
 20
43.1879125342583
 10
153.0934241588101
 20
43.2656164414583
 10
153.1330024948101
 20
43.3419614558583
 10
153.1710426804101
 20
43.41698307025831
 10
153.2076299748101
 20
43.4907360238583
 10
153.2428496404101
 20
43.56327505585831
 10
153.2767869348101
 20
43.6346549070583
 10
153.3175262372101
 20
43.7223303278583
 10
153.3565083284101
 20
43.8083708702583
 10
153.3938464852101
 20
43.89286734225831
 10
153.4296539780101
 20
43.9759105598583
 10
153.4640406532101
 20
44.05759415665831
 10
153.4971026340101
 20
44.1380230702583
 10
153.5289326164101
 20
44.2173050590583
 10
153.5596232964101
 20
44.2955478846583
 10
153.5989241172101
 20
44.39844422705831
 10
153.6365357156101
 20
44.49995696305831
 10
153.6726295012101
 20
44.60035831665829
 10
153.7073710212101
 20
44.69992398385831
 10
153.74090234601
 20
44.79894355665829
 10
153.7733596852101
 20
44.8977101006583
 10
153.8202700724101
 20
45.0458797086583
 10
153.8651710708101
 20
45.1942473118583
 10
153.9081593556101
 20
45.34291480145831
 10
153.9493158148101
 20
45.4919599726583
 10
153.9887165444101
 20
45.6414665790583
 10
154.0264342132101
 20
45.79381433425831
 10
154.0625323300101
 20
45.94461807985831
 10
154.0970411588101
 20
46.09610629745832
  0
LWPOLYLINE
  5
B8
330
2
100
AcDbEntity
  8
0
100
AcDbPolyline
 90
       19
 70
     0
 43
0.0
 10
161.0197654996101
 20
42.0917583454583
 10
161.1194687652101
 20
42.27224525745831
 10
161.2167370388101
 20
42.4526303038583
 10
161.3116077092101
 20
42.6329765118583
 10
161.4041121044101
 20
42.81334324465831
 10
161.4942853316101
 20
42.9938068462583
 10
161.58219179721
 20
43.1745151998583
 10
161.6678999156101
 20
43.35564370705831
 10
161.7514383924101
 20
43.5373032062583
 10
161.8328057364101
 20
43.71955098065831
 10
161.9119899252101
 20
43.9024195598583
 10
161.9889592356101
 20
44.0858899294583
 10
162.0638595348101
 20
44.2703887278583
 10
162.1360851092101
 20
44.45445613425831
 10
162.2029251444101
 20
44.63076990385831
 10
162.2643263188101
 20
44.79835071825831
 10
162.3207129908101
 20
44.95749652945831
 10
162.3724981716101
 20
45.10856372145831
 10
162.4199723300101
 20
45.2515947518583
  0
LWPOLYLINE
  5
B9
330
2
100
AcDbEntity
  8
0
100
AcDbPolyline
 90
        5
 70
     0
 43
0.0
 10
162.9892180740101
 20
40.81707441745829
 10
163.3027469940101
 20
41.5650096990583
 10
163.5890349956101
 20
42.32717101425831
 10
163.8472048436101
 20
43.1018280318583
 10
163.9545527076101
 20
43.45588190865831
  0
LINE
  5
BA
330
2
100
AcDbEntity
  8
0
100
AcDbLine
 10
164.16805801961
 20
44.23517646065829
 30
0.0
 11
164.2770971876101
 21
44.68395763825831
 31
0.0
  0
LWPOLYLINE
  5
BB
330
2
100
AcDbEntity
  8
0
100
AcDbPolyline
 90
        3
 70
     0
 43
0.0
 10
163.9545527076101
 20
43.45588190865831
 10
164.0425817748101
 20
43.7636684798583
 10
164.16805801961
 20
44.23517646065831
  0
LINE
  5
BC
330
2
100
AcDbEntity
  8
0
100
AcDbLine
 10
164.2764176052101
 20
44.68137125585829
 30
0.0
 11
164.2770970036101
 21
44.68395684305829
 31
0.0
  0
LWPOLYLINE
  5
BD
330
2
100
AcDbEntity
  8
0
100
AcDbPolyline
 90
        4
 70
     0
 43
0.0
 10
144.8465160180101
 20
70.65034125425831
 10
139.6487105684101
 20
70.65070587825829
 10
134.3135040276101
 20
70.6504954174583
 10
128.8438008820101
 20
70.65039108145831
  0
LWPOLYLINE
  5
BE
330
2
100
AcDbEntity
  8
0
100
AcDbPolyline
 90
       22
 70
     0
 43
0.0
 10
135.8944376196101
 20
65.2425282686583
 10
135.8654084404101
 20
65.15338730385829
 10
135.8243625156101
 20
65.04638303025831
 10
135.7771740372101
 20
64.94134283665829
 10
135.72398505481
 20
64.83857002865829
 10
135.6649524900101
 20
64.73836195345831
 10
135.6002477828101
 20
64.6410094366583
 10
135.5300572772101
 20
64.5467971374583
 10
135.4545823876101
 20
64.4560030254583
 10
135.3740410820101
 20
64.36889905745829
 10
135.2886662628101
 20
64.2857479998583
 10
135.1987046852101
 20
64.20680181105831
 10
135.1044187412101
 20
64.13230255025831
 10
135.0060862596101
 20
64.0624809374583
 10
134.9039974612101
 20
63.99755325425829
 10
134.7984537172101
 20
63.9377203598583
 10
134.6897664116101
 20
63.8831669710583
 10
134.5782562836101
 20
63.8340612542583
 10
134.4642524324101
 20
63.79055425745829
 10
134.3480914868101
 20
63.7527794574583
 10
134.2301167588101
 20
63.72085230545829
 10
134.1136528868101
 20
63.6954413246583
  0
LINE
  5
BF
330
2
100
AcDbEntity
  8
0
100
AcDbLine
 10
134.9655459012101
 20
61.0629232974583
 30
0.0
 11
135.0602469652101
 21
61.0815176654583
 31
0.0
  0
LINE
  5
C0
330
2
100
AcDbEntity
  8
0
100
AcDbLine
 10
135.2419010628101
 20
61.13657532145831
 30
0.0
 11
134.9794038116101
 21
61.08109673105829
 31
0.0
  0
LWPOLYLINE
  5
C1
330
2
100
AcDbEntity
  8
0
100
AcDbPolyline
 90
       42
 70
     0
 43
0.0
 10
135.7020112948101
 20
62.1438073502583
 10
135.5540874996101
 20
62.11208132465831
 10
135.4092817668101
 20
62.08172451185831
 10
135.2677052980101
 20
62.05271044625831
 10
135.1294692916101
 20
62.02501265425832
 10
134.9946186404101
 20
61.99859355985831
 10
134.86293301801
 20
61.97337115345831
 10
134.7341257924101
 20
61.94925231665831
 10
134.6079103284101
 20
61.92614393105831
 10
134.44319941641
 20
61.8967587070583
 10
134.2821480228101
 20
61.8688741054583
 10
134.1243176532101
 20
61.84235993265829
 10
133.9692543156101
 20
61.81708851825831
 10
133.8164420004101
 20
61.79294229905829
 10
133.6653491988101
 20
61.7698062302583
 10
133.4408415236101
 20
61.7367711006583
 10
133.2176337444101
 20
61.70552126065832
 10
132.9943354228101
 20
61.67583942545829
 10
132.7694867972101
 20
61.6475540062583
 10
132.5420267860101
 20
61.6205617102583
 10
132.3125583316101
 20
61.59498672145829
 10
132.1591853812101
 20
61.57882670545831
 10
132.0069863956101
 20
61.5635097598583
 10
131.8575751108101
 20
61.54916856465831
 10
131.7123250516101
 20
61.53590444465831
 10
131.5716488852101
 20
61.52369329425829
 10
131.4357190660101
 20
61.5124796510583
 10
131.3045368308101
 20
61.50219939825831
 10
131.1774185652101
 20
61.49275381265829
 10
131.0535094356101
 20
61.48403551985831
 10
130.8719316388101
 20
61.47211659825831
 10
130.6935982612101
 20
61.4614084894583
 10
130.5163636628101
 20
61.45174001265832
 10
130.3377107092101
 20
61.44299126865831
 10
130.15557918441
 20
61.43508855345832
 10
129.9701080276101
 20
61.4280916510583
 10
129.7820628564101
 20
61.42208824945831
 10
129.5925168484101
 20
61.41714417425831
 10
129.4026858468101
 20
61.41331005585832
 10
129.2140488228101
 20
61.41059761105831
 10
129.0278086740101
 20
61.40900046065832
 10
128.8438008820101
 20
61.4084787854583
  0
LWPOLYLINE
  5
C2
330
2
100
AcDbEntity
  8
0
100
AcDbPolyline
 90
       35
 70
     0
 43
0.0
 10
134.7772501684101
 20
59.70018193905829
 10
134.85700036681
 20
59.51497198065831
 10
134.9467817780101
 20
59.29911128145829
 10
135.0360703700101
 20
59.0761977998583
 10
135.12449920841
 20
58.84674361585831
 10
135.2118466596101
 20
58.61097163825832
 10
135.2979194548101
 20
58.36906224145829
 10
135.3825815620101
 20
58.12105801425829
 10
135.4656767732101
 20
57.8670716366583
 10
135.5470653300101
 20
57.60718064305831
 10
135.6266056868101
 20
57.34147945425831
 10
135.7041306564101
 20
57.0701672094583
 10
135.7795013316101
 20
56.7933694302583
 10
135.8525527732101
 20
56.5113314110583
 10
135.9231486900101
 20
56.22422000305832
 10
135.9911344388101
 20
55.93230579825831
 10
136.0563947396101
 20
55.6357219358583
 10
136.1189530772101
 20
55.33395704145831
 10
136.1787619396101
 20
55.02679159345831
 10
136.2356740772101
 20
54.7144962286583
 10
136.2895391124101
 20
54.3974145006583
 10
136.3402343780101
 20
54.07578457745831
 10
136.3876154500101
 20
53.75004301905829
 10
136.4315627188101
 20
53.41830075185831
 10
136.4719557988101
 20
53.08551164785831
 10
136.5087035556101
 20
52.74974627025833
 10
136.5417072324101
 20
52.41149109265831
 10
136.5708823780101
 20
52.07124480945831
 10
136.5961652020101
 20
51.72943140145832
 10
136.6175376468101
 20
51.38592744145831
 10
136.6349867412101
 20
51.04049056305831
 10
136.6484608100101
 20
50.69359246865833
 10
136.6579237220101
 20
50.34562787345831
 10
136.6633290916101
 20
49.99856889265831
 10
136.6647034276101
 20
49.6503910814583
  0
LWPOLYLINE
  5
C3
330
2
100
AcDbEntity
  8
0
100
AcDbPolyline
 90
       35
 70
     0
 43
0.0
 10
136.6777189108101
 20
49.6503910814583
 10
136.6757362036101
 20
49.99983667665834
 10
136.6697519572101
 20
50.34879394225831
 10
136.6597856452101
 20
50.69691618545832
 10
136.6458644820101
 20
51.04385936145831
 10
136.6280288932101
 20
51.3891866126583
 10
136.6063396164101
 20
51.73234569425833
 10
136.5808141268101
 20
52.07359110385832
 10
136.5514815812101
 20
52.41298615025832
 10
136.5183970964101
 20
52.75027251345832
 10
136.4816509524101
 20
53.08492841905831
 10
136.4413449588101
 20
53.4164773758583
 10
136.3975796052101
 20
53.7468124030583
 10
136.3504765876101
 20
54.07101003505829
 10
136.30013392521
 20
54.39112301585831
 10
136.2466830612101
 20
54.70678567985832
 10
136.1902653876101
 20
55.01764478225831
 10
136.1310202564101
 20
55.32341886225831
 10
136.0690653700101
 20
55.6239727486583
 10
136.0044837044101
 20
55.91934380625829
 10
135.9372929204101
 20
56.20987587025831
 10
135.8675555604101
 20
56.49567802065831
 10
135.7954255316101
 20
56.7764771630583
 10
135.7210702276101
 20
57.05199012145832
 10
135.6445916388101
 20
57.3222004478583
 10
135.5661664260101
 20
57.58683967185831
 10
135.4859444740101
 20
57.8457626414583
 10
135.4039939604101
 20
58.09909049905832
 10
135.3205005220101
 20
58.34658010225831
 10
135.2356289540101
 20
58.5880820142583
 10
135.1495511604101
 20
58.8234497438583
 10
135.0624465460101
 20
59.05254009585831
 10
134.9743472260101
 20
59.2755991118583
 10
134.8852571236101
 20
59.49291479505831
 10
134.7951889540101
 20
59.70473813105832
  0
LWPOLYLINE
  5
C4
330
2
100
AcDbEntity
  8
0
100
AcDbPolyline
 90
       25
 70
     0
 43
0.0
 10
128.8438008820101
 20
66.0987522158583
 10
130.6016618884101
 20
66.09682475825829
 10
132.4393564868101
 20
66.09191403345829
 10
134.0886266564101
 20
66.08644193105831
 10
135.5589790356101
 20
66.08201383185832
 10
136.8724882916101
 20
66.07935838385831
 10
138.0449610708101
 20
66.07866289745832
 10
139.0914112740101
 20
66.07983148625831
 10
140.0249004436101
 20
66.08267340145829
 10
140.8583795828101
 20
66.08699879505829
 10
141.6032131348101
 20
66.09266172145831
 10
142.2695879812101
 20
66.0994420542583
 10
142.8705761092101
 20
66.10592237425831
 10
143.4116343780101
 20
66.1104190270583
 10
143.8937127476101
 20
66.1118582974583
 10
144.3190930228101
 20
66.1098065662583
 10
144.6934385348101
 20
66.10447078865831
 10
145.03415775401
 20
66.09621488625831
 10
145.3604980228101
 20
66.08497687505831
 10
145.6754336164101
 20
66.0708799118583
 10
145.9801521060101
 20
66.05404767825831
 10
146.2752076084101
 20
66.03461600785831
 10
146.5613847748101
 20
66.01268950545829
 10
146.8393162244101
 20
65.98836345745832
 10
147.1093087092101
 20
65.96174921425831
  0
LWPOLYLINE
  5
C5
330
2
100
AcDbEntity
  8
0
100
AcDbPolyline
 90
       17
 70
     0
 43
0.0
 10
122.4197737460101
 20
62.3689826030583
 10
123.2185086996101
 20
62.26225720305831
 10
124.0209813620101
 20
62.16940797745832
 10
124.8239837172101
 20
62.09086618065831
 10
125.6274213236101
 20
62.02662078225831
 10
126.4311987828101
 20
61.97666251345831
 10
127.2352223812101
 20
61.9409836510583
 10
128.0394066356101
 20
61.91957802225829
 10
128.8436711780101
 20
61.91244171505829
 10
129.6479357700101
 20
61.91957342225831
 10
130.4521201364101
 20
61.94097445105831
 10
131.2561438484101
 20
61.9766487134583
 10
132.0599214068101
 20
62.02660237905831
 10
132.8633591284101
 20
62.09084316945831
 10
133.6663616660101
 20
62.16938035825831
 10
134.4688346084101
 20
62.26222498225832
 10
135.2678280180101
 20
62.3689826030583
  0
LINE
  5
C6
330
2
100
AcDbEntity
  8
0
100
AcDbLine
 10
122.0795108356101
 20
64.65263915185829
 30
0.0
 11
135.6081274916101
 21
64.65263915185829
 31
0.0
  0
LWPOLYLINE
  5
C7
330
2
100
AcDbEntity
  8
0
100
AcDbPolyline
 90
       26
 70
     0
 43
0.0
 10
111.9416130548101
 20
70.62897668465831
 10
111.0861343732101
 20
70.56930451985832
 10
110.2359427604101
 20
70.4715678206583
 10
109.3917616612101
 20
70.33594411665831
 10
108.5539947188101
 20
70.16242858705831
 10
107.7218757444101
 20
69.95074583025831
 10
106.8961418932101
 20
69.7008703630583
 10
106.0792684692101
 20
69.41323904945829
 10
105.2735995988101
 20
69.0884251054583
 10
104.4809193204101
 20
68.7269739422583
 10
103.7025534980101
 20
68.32923590705831
 10
102.9397831556101
 20
67.89559829905829
 10
102.1941073716101
 20
67.42666209745832
 10
101.4671311780101
 20
66.92310539345831
 10
100.7600749172101
 20
66.38542120945832
 10
100.0743012916101
 20
65.8143145774583
 10
99.41129362121012
 20
65.21059968945832
 10
98.77231976361011
 20
64.57495875505831
 10
98.15886465801012
 20
63.9084540958583
 10
97.57250573481011
 20
63.21230432625831
 10
97.01459053001011
 20
62.48756097585832
 10
96.48648485961011
 20
61.73554603185832
 10
95.9895589828101
 20
60.95766726225829
 10
95.52508779881012
 20
60.1552952430583
 10
95.09429381001011
 20
59.3300583550583
 10
94.69838369001012
 20
58.48370774545831
  0
LWPOLYLINE
  5
C8
330
2
100
AcDbEntity
  8
0
100
AcDbPolyline
 90
       59
 70
     0
 43
0.0
 10
109.9883686500101
 20
61.9266796446583
 10
109.7975547684101
 20
61.87640551985831
 10
109.6092895204101
 20
61.82365955345829
 10
109.4235703044101
 20
61.76852551665831
 10
109.2404190484101
 20
61.7110965630583
 10
109.0599557700101
 20
61.65150334865831
 10
108.8823250100101
 20
61.58988590865831
 10
108.7076601988101
 20
61.52638401265829
 10
108.5360503012101
 20
61.4611363454583
 10
108.3675731668101
 20
61.39428132785829
 10
108.2023072516101
 20
61.32595914065831
 10
108.0403334484101
 20
61.25631703185831
 10
107.8817332548101
 20
61.1855040126583
 10
107.7266356164101
 20
61.1136977742583
 10
107.5753592676101
 20
61.04119073585829
 10
107.4282703908101
 20
60.9683040014583
 10
107.3209177956101
 20
60.91358583985831
 10
107.2162556292101
 20
60.8589876014583
 10
107.1144128884101
 20
60.80466217105831
 10
107.0155185732101
 20
60.7507624318583
 10
106.9196656564101
 20
60.69742145745832
 10
106.8268030180101
 20
60.64469308625831
 10
106.7368435188101
 20
60.59261134385829
 10
106.6497000132101
 20
60.54121025585832
 10
106.5377370788101
 20
60.4737839038583
 10
106.4304103972101
 20
60.4076537022583
 10
106.3275049236101
 20
60.34284525425829
 10
106.2288129364101
 20
60.2793828558583
 10
106.1341559812101
 20
60.21728555825831
 10
106.0433629236101
 20
60.15657110545831
 10
105.9562670116101
 20
60.09725546385832
 10
105.8727190260101
 20
60.0393475070583
 10
105.7925741364101
 20
59.98285432945832
 10
105.7156811972101
 20
59.9277740862583
 10
105.6418638244101
 20
59.87406915025829
 10
105.5709393172101
 20
59.8216929550583
 10
105.5027222756101
 20
59.7705922350583
 10
105.4370164676101
 20
59.72068694865831
 10
105.3736229572101
 20
59.67189036145831
 10
105.3123404708101
 20
59.62410954865831
 10
105.2529584164101
 20
59.5772268350583
 10
105.1952638628101
 20
59.53111835985831
 10
105.1114162772101
 20
59.4631186462583
 10
105.0301435940101
 20
59.39605774705831
 10
104.9507438884101
 20
59.32943370385832
 10
104.8726790820101
 20
59.2628348590583
 10
104.7954587732101
 20
59.1958693246583
 10
104.7186194084101
 20
59.12813400305831
 10
104.6417112852101
 20
59.05922008785831
 10
104.5643132292101
 20
58.98870714545831
 10
104.5122444196101
 20
58.94060485585831
 10
104.4596904132101
 20
58.8915007646583
 10
104.4065677764101
 20
58.84129189905832
 10
104.3527845300101
 20
58.78986369425831
 10
104.2982144964101
 20
58.7370552174583
 10
104.2427229492101
 20
58.68269394065831
 10
104.1862158308101
 20
58.62664579665829
 10
104.1287617620101
 20
58.5689305598583
 10
104.0704700324101
 20
58.50960646065832
  0
LWPOLYLINE
  5
C9
330
2
100
AcDbEntity
  8
0
100
AcDbPolyline
 90
       93
 70
     0
 43
0.0
 10
114.2033374292101
 20
61.8061335294583
 10
113.9791419284101
 20
61.7827620094583
 10
113.7606800820101
 20
61.75692433905831
 10
113.5479682100101
 20
61.72875111025831
 10
113.3410332228101
 20
61.69837575505829
 10
113.1398984084101
 20
61.66593338065831
 10
112.9445240948101
 20
61.63155192465831
 10
112.7541617140101
 20
61.59521572785831
 10
112.5673506004101
 20
61.5567419998583
 10
112.3831018884101
 20
61.51599555505831
 10
112.2010938932101
 20
61.47295476945831
 10
112.0210298404101
 20
61.42758981425831
 10
111.8426103812101
 20
61.37985741905831
 10
111.6655433092101
 20
61.3297032414583
 10
111.4895091284101
 20
61.27705156465831
 10
111.3142420932101
 20
61.22182887505829
 10
111.1397359172101
 20
61.16403722225832
 10
110.9660661044101
 20
61.10370200305832
 10
110.7931755316101
 20
61.0408012654583
 10
110.6209463700101
 20
60.97528655345832
 10
110.4492830676101
 20
60.90711110865831
 10
110.2781202756101
 20
60.83623413905832
 10
110.1074373172101
 20
60.76262890065831
 10
109.9371612084101
 20
60.6862415870583
 10
109.7669970692101
 20
60.6069057502583
 10
109.5966128036101
 20
60.5244278334583
 10
109.4259051268101
 20
60.43871347825831
 10
109.2549815812101
 20
60.3497683566583
 10
109.0840268068101
 20
60.2576424990583
 10
108.9132237604101
 20
60.1623910142583
 10
108.7431002356101
 20
60.0642808030583
 10
108.5721963924101
 20
59.96239861585832
 10
108.4001259060101
 20
59.8564344286583
 10
108.2361023604101
 20
59.75229599025832
 10
108.0876635444101
 20
59.65546270865832
 10
107.9529488228101
 20
59.56548800145831
 10
107.8289559252101
 20
59.48094242225829
 10
107.7140365220101
 20
59.4011261214583
 10
107.6068421316101
 20
59.32543145905831
 10
107.5063288836101
 20
59.25338221905829
 10
107.4122039348101
 20
59.18498340145831
 10
107.3225158260101
 20
59.11898554385832
 10
107.2317323636101
 20
59.05131477105832
 10
107.1351298228101
 20
58.97824163985831
 10
107.0305646340101
 20
58.8977656110583
 10
106.9142127460101
 20
58.8063358510583
 10
106.7857659460101
 20
58.70282143185829
 10
106.6555301764101
 20
58.5947617486583
 10
106.5326182244101
 20
58.48957295505829
 10
106.4172356740101
 20
58.3876806190583
 10
106.3078205748101
 20
58.28794840785829
 10
106.2036898164101
 20
58.18994448145829
 10
106.1041687300101
 20
58.09320479345831
 10
106.0085779556101
 20
57.9972099070583
 10
105.9167668388101
 20
57.9019360174583
 10
105.8311872644101
 20
57.81019858065829
 10
105.7545616420101
 20
57.72548022225831
 10
105.6851224180101
 20
57.6464548302583
 10
105.6182992436101
 20
57.56828217585831
 10
105.5516238932101
 20
57.48813278385831
 10
105.4850578916101
 20
57.40590029585831
 10
105.4186848900101
 20
57.3216225598583
 10
105.3523381092101
 20
57.2350129310583
 10
105.2859580836101
 20
57.14589850225832
 10
105.2194358628101
 20
57.0540194046583
 10
105.1526639140101
 20
56.95908931505829
 10
105.0855108820101
 20
56.8607549998583
 10
105.0178209524101
 20
56.75858540145831
 10
104.9494098356101
 20
56.65205343185832
 10
104.8800137796101
 20
56.5404368414583
 10
104.8093024468101
 20
56.42280589745832
 10
104.7374750884101
 20
56.29903015505831
 10
104.6656724884101
 20
56.1706803710583
 10
104.5949497508101
 20
56.0394232046583
 10
104.5255039092101
 20
55.9055161022583
 10
104.4572950244101
 20
55.76877759185831
 10
104.3903645780101
 20
55.62917315505831
 10
104.3247359860101
 20
55.4866271198583
 10
104.2604273844101
 20
55.34104349265831
 10
104.1974610116101
 20
55.19232511505831
 10
104.1360712196101
 20
55.04089899185832
 10
104.0767384868101
 20
54.88792735345831
 10
104.0197580756101
 20
54.7342844366583
 10
103.9650659908101
 20
54.5799677550583
 10
103.9124766068101
 20
54.42460727185832
 10
103.8618818932101
 20
54.26802582065829
 10
103.8133109876101
 20
54.11046391505831
 10
103.76682294281
 20
53.9522944926583
 10
103.7224494644101
 20
53.79384640305829
 10
103.6801914740101
 20
53.6353763502583
 10
103.6400264068101
 20
53.47707658225832
 10
103.6019306244101
 20
53.31690342545832
 10
103.5658749300101
 20
53.15955156945832
  0
LWPOLYLINE
  5
CA
330
2
100
AcDbEntity
  8
0
100
AcDbPolyline
 90
       35
 70
     0
 43
0.0
 10
110.6102761076101
 20
60.97113203185831
 10
110.4206557716101
 20
60.89537359665832
 10
110.2321813796101
 20
60.8165415182583
 10
110.0450027380101
 20
60.73471690385829
 10
109.8591676100101
 20
60.6499323598583
 10
109.6743155796101
 20
60.56202650385831
 10
109.4899841860101
 20
60.4707894526583
 10
109.3518064916101
 20
60.40004424145831
 10
109.2135107220101
 20
60.32718821265831
 10
109.0749460804101
 20
60.2521024094583
 10
108.9359617684101
 20
60.1746678702583
 10
108.7964561876101
 20
60.0947903086583
 10
108.6565245540101
 20
60.01247413265829
 10
108.5629945396101
 20
59.95620858225831
 10
108.4689208772101
 20
59.89859468945832
 10
108.3738850900101
 20
59.8393550126583
 10
108.2776197844101
 20
59.7783079646583
 10
108.1804618852101
 20
59.71565534705831
 10
108.0828994052101
 20
59.65169480945831
 10
108.0098148420101
 20
59.60309124945831
 10
107.9373384900101
 20
59.5543216254583
 10
107.8658737476101
 20
59.50568082225832
 10
107.7951924580101
 20
59.45703440145831
 10
107.7017036516101
 20
59.3918834766583
 10
107.6092149908101
 20
59.32654516465831
 10
107.5180201236101
 20
59.2612718702583
 10
107.4284126964101
 20
59.19631600465831
 10
107.3406863572101
 20
59.1319299726583
 10
107.2551347524101
 20
59.0683661838583
 10
107.1719575172101
 20
59.0057967230583
 10
107.0909782228101
 20
58.9440723758583
 10
107.0119264292101
 20
58.8829636046583
 10
106.9346085956101
 20
58.82230524465831
 10
106.8591387748101
 20
58.76218960305831
 10
106.7857079220101
 20
58.7027733582583
  0
LWPOLYLINE
  5
CB
330
2
100
AcDbEntity
  8
0
100
AcDbPolyline
 90
       33
 70
     0
 43
0.0
 10
107.0384385092101
 20
62.7326081918583
 10
107.1421442212101
 20
62.7965835102583
 10
107.2480884900101
 20
62.86038549585831
 10
107.3563481140101
 20
62.9239843038583
 10
107.4669998884101
 20
62.98735008465832
 10
107.5800824308101
 20
63.05043334705832
 10
107.6954816164101
 20
63.1131060238583
 10
107.8130451412101
 20
63.17522040145831
 10
107.9326207012101
 20
63.23662876945832
 10
108.0949414564101
 20
63.31717611825832
 10
108.2603278884101
 20
63.39599399825832
 10
108.4285394852101
 20
63.47287067025831
 10
108.5993234228101
 20
63.54759881745829
 10
108.7723776020101
 20
63.6199888190583
 10
108.9473876164101
 20
63.68985547985829
 10
109.1240569124101
 20
63.7570296974583
 10
109.3021603876101
 20
63.82140674225832
 10
109.4814908020101
 20
63.8828979710583
 10
109.6618378004101
 20
63.94142031025831
 10
109.8429785988101
 20
63.99691292625831
 10
110.0246872980101
 20
64.0493205470583
 10
110.2067645540101
 20
64.09859915505831
 10
110.3891172308101
 20
64.14474975025831
 10
110.5716787492101
 20
64.1877845838583
 10
110.7543833396101
 20
64.2277163006583
 10
110.9371684932101
 20
64.26455910865832
 10
111.1199725188101
 20
64.29832761265831
 10
111.3027301492101
 20
64.32903698865832
 10
111.4853618308101
 20
64.35670470705829
 10
111.6677844324101
 20
64.3813488142583
 10
111.8499226996101
 20
64.40298902545831
 10
112.0317328516101
 20
64.42165171505831
 10
112.2131789860101
 20
64.43736493265831
  0
LWPOLYLINE
  5
CC
330
2
100
AcDbEntity
  8
0
100
AcDbPolyline
 90
       75
 70
     0
 43
0.0
 10
110.5782930548101
 20
65.96174921425831
 10
110.3042646628101
 20
65.9314159662583
 10
110.0299945860101
 20
65.8980689966583
 10
109.7608558532101
 20
65.86249089265831
 10
109.4991422068101
 20
65.82503830705829
 10
109.2439141604101
 20
65.78568046385831
 10
108.9945149972101
 20
65.74439800305831
 10
108.7507620500101
 20
65.70123715185829
 10
108.5122112676101
 20
65.65619121585831
 10
108.2782005396101
 20
65.6092006286583
 10
108.0481294500101
 20
65.56020464625831
 10
107.8217352788101
 20
65.50919804305832
 10
107.5989081380101
 20
65.45620358865829
 10
107.3794987636101
 20
65.40123077425829
 10
107.1633069972101
 20
65.34427002225831
 10
106.9501741460101
 20
65.28531669585831
 10
106.7400134852101
 20
65.22438215665829
 10
106.5325413348101
 20
65.16141495985832
 10
106.3271708644101
 20
65.0962588046583
 10
106.1233986644101
 20
65.02876536625831
 10
105.9210378788101
 20
64.95887423985831
 10
105.7200433700101
 20
64.8865669918583
 10
105.5203620964101
 20
64.81182074705831
 10
105.3218262084101
 20
64.73456565585832
 10
105.1242664180101
 20
64.6547222270583
 10
104.9276492148101
 20
64.57225888465831
 10
104.7320209108101
 20
64.48717732305832
 10
104.5368958372101
 20
64.39923911185829
 10
104.3415105156101
 20
64.30805956145829
 10
104.1456626756101
 20
64.21349197745832
 10
103.9493418276101
 20
64.11546849585829
 10
103.7524937780101
 20
64.01389724785829
 10
103.5550727044101
 20
63.90868636945831
 10
103.3570647476101
 20
63.79975767825832
 10
103.1584537620101
 20
63.6870288222583
 10
102.9592571044101
 20
63.5704347598583
 10
102.7595770484101
 20
63.4499579598583
 10
102.5596565284101
 20
63.32566812945831
 10
102.3597909108101
 20
63.19768384145831
 10
102.1600886836101
 20
63.06601972785831
 10
101.9605444660101
 20
62.93061893265832
 10
101.7611021892101
 20
62.7913869422583
 10
101.5617517092101
 20
62.6482533374583
 10
101.3629249652101
 20
62.5014768894583
 10
101.1655764484101
 20
62.35173620305829
 10
100.9709842308101
 20
62.19999526065831
 10
100.7794561956101
 20
62.04652282705831
 10
100.5909409476101
 20
61.89131202545832
 10
100.4055170420101
 20
61.73446288785831
 10
100.2231622580101
 20
61.57599393585829
 10
100.0438886532101
 20
61.41595221265831
 10
99.86767417481011
 20
61.25435532145832
 10
99.69450648681013
 20
61.0912288446583
 10
99.52437613321013
 20
60.92660062225832
 10
99.35727013961011
 20
60.7604945758583
 10
99.19328279401012
 20
60.5930436510583
 10
99.03251358441011
 20
60.4243923502583
 10
98.87498487561012
 20
60.25461055665832
 10
98.72067125801011
 20
60.08371848625831
 10
98.56952798281012
 20
59.91171307665831
 10
98.42150499081013
 20
59.73858225585832
 10
98.27659483241014
 20
59.56436084305829
 10
98.13479170601013
 20
59.3890861790583
 10
97.99608638921013
 20
59.21279143665831
 10
97.86043757001012
 20
59.03546767025829
 10
97.72775839721013
 20
58.8570417550583
 10
97.59801890921011
 20
58.67750995825829
 10
97.47119622441012
 20
58.4968758974583
 10
97.34732461961012
 20
58.3152262766583
 10
97.22648485641011
 20
58.13272085905831
 10
97.10872178281011
 20
57.9494715902583
 10
96.99402861801011
 20
57.76551741585831
 10
96.88236631721011
 20
57.58084506385831
 10
96.77365884361012
 20
57.39537388465831
 10
96.66783626441011
 20
57.2090238174583
  0
LWPOLYLINE
  5
CD
330
2
100
AcDbEntity
  8
0
100
AcDbPolyline
 90
       31
 70
     0
 43
0.0
 10
106.7857080116101
 20
58.7027733950583
 10
106.7272101636101
 20
58.6547376606583
 10
106.6701294308101
 20
58.60723391505832
 10
106.6144935716101
 20
58.56030529265831
 10
106.5603303492101
 20
58.5139949294583
 10
106.5076430564101
 20
58.4683245054583
 10
106.4563371300101
 20
58.4232298926583
 10
106.4062935364101
 20
58.3786255022583
 10
106.3573932452101
 20
58.33442575025831
 10
106.2937847300101
 20
58.27598582385832
 10
106.2318298164101
 20
58.21797962225829
 10
106.1713611812101
 20
58.16027366705831
 10
106.1122065732101
 20
58.10272465905831
 10
106.0541740276101
 20
58.0451499998583
 10
105.9970666564101
 20
57.98735727665832
 10
105.9127941956101
 20
57.8999066494583
 10
105.8300034372101
 20
57.81129250545831
 10
105.7485791684101
 20
57.72132557585831
 10
105.6685730420101
 20
57.63001923025831
 10
105.5900595300101
 20
57.53743339665831
 10
105.5130375204101
 20
57.44361157425831
 10
105.4374957684101
 20
57.34860195505831
 10
105.3634580676101
 20
57.25248788945831
 10
105.2909327700101
 20
57.15532794065831
 10
105.2198313780101
 20
57.0570463470583
 10
105.1500454820101
 20
56.95753313585831
 10
105.0814838596101
 20
56.85667584145829
 10
105.0140548436101
 20
56.75434661105831
 10
104.9476478164101
 20
56.65035857585832
 10
104.8821766852101
 20
56.54455277425831
 10
104.8176724020101
 20
56.4369408958583
  0
LWPOLYLINE
  5
CE
330
2
100
AcDbEntity
  8
0
100
AcDbPolyline
 90
        5
 70
     0
 43
0.0
 10
94.69838369001012
 20
58.48370774545831
 10
94.38485477001012
 20
57.7357724638583
 10
94.09856676841011
 20
56.97361114865831
 10
93.84039692041012
 20
56.19895413265831
 10
93.73304905641012
 20
55.8449002542583
  0
LWPOLYLINE
  5
CF
330
2
100
AcDbEntity
  8
0
100
AcDbPolyline
 90
       18
 70
     0
 43
0.0
 10
96.66783626441011
 20
57.2090238174583
 10
96.56667773321011
 20
57.02587020945831
 10
96.46804464681011
 20
56.8428553502583
 10
96.37187960201012
 20
56.65988058545829
 10
96.27814897641011
 20
56.4768819054583
 10
96.18681576521012
 20
56.2937783918583
 10
96.09780904681011
 20
56.1104070078583
 10
96.01106282121012
 20
55.9265941902583
 10
95.92655037161012
 20
55.74222995185832
 10
95.84426114601013
 20
55.55722628785829
 10
95.76421747881012
 20
55.37157057265829
 10
95.68648359241013
 20
55.18535690385832
 10
95.61100219081012
 20
54.99838250225829
 10
95.53760503881012
 20
54.81012300945829
 10
95.46654409481012
 20
54.62110889745829
 10
95.39784723401011
 20
54.4313174318583
 10
95.33150788201011
 20
54.24061232465831
 10
95.2676294772101
 20
54.04918740145831
  0
LWPOLYLINE
  5
D0
330
2
100
AcDbEntity
  8
0
100
AcDbPolyline
 90
        7
 70
     0
 43
0.0
 10
93.41050476041012
 20
54.61682531985829
 10
93.26187307561012
 20
53.92478175665832
 10
93.13181014121012
 20
53.20228179505832
 10
93.02433606601011
 20
52.46642136145831
 10
92.94073025161011
 20
51.71584071985833
 10
92.88220300681011
 20
50.95112148625833
 10
92.87159983721011
 20
50.75713759505831
  0
LWPOLYLINE
  5
D1
330
2
100
AcDbEntity
  8
0
100
AcDbPolyline
 90
       24
 70
     0
 43
0.0
 10
95.2676294772101
 20
54.04918740145831
 10
95.20912499241012
 20
53.86590607665832
 10
95.15222613641013
 20
53.67901066225829
 10
95.09736598441012
 20
53.48961929585832
 10
95.04502032681012
 20
53.29691875505833
 10
94.99568347241012
 20
53.10725607025833
 10
94.94909994761011
 20
52.91753876465833
 10
94.90521447561011
 20
52.7275906542583
 10
94.8640492260101
 20
52.53755313585833
 10
94.8255760132101
 20
52.34734723505832
 10
94.78977533001012
 20
52.15691324305831
 10
94.75664206441011
 20
51.96625385745832
 10
94.72617051401011
 20
51.77536543025832
 10
94.69834932841012
 20
51.58419879985832
 10
94.67317256681011
 20
51.39272418865832
 10
94.65063711561013
 20
51.20091920945833
 10
94.6307418452101
 20
51.00876564465832
 10
94.61348685801011
 20
50.81624645585833
 10
94.59886934921012
 20
50.62328894225831
 10
94.58688694441011
 20
50.4297552446583
 10
94.57755750121012
 20
50.23581738225832
 10
94.57088943241013
 20
50.04165013105833
 10
94.56686963401011
 20
49.84658455185831
 10
94.56552099241012
 20
49.6503910814583
  0
LWPOLYLINE
  5
D2
330
2
100
AcDbEntity
  8
0
100
AcDbPolyline
 90
        3
 70
     0
 43
0.0
 10
92.84380706921011
 20
49.6503910814583
 10
92.85964980521013
 20
48.81472351505832
 10
92.87159983721011
 20
48.5436445662583
  0
LWPOLYLINE
  5
D3
330
2
100
AcDbEntity
  8
0
100
AcDbPolyline
 90
        3
 70
     0
 43
0.0
 10
92.87159983721011
 20
50.75713759505831
 10
92.85964980521013
 20
50.48605864625833
 10
92.84380706921011
 20
49.6503910814583
  0
LWPOLYLINE
  5
D4
330
2
100
AcDbEntity
  8
0
100
AcDbPolyline
 90
        4
 70
     0
 43
0.0
 10
93.73304905641012
 20
55.8449002542583
 10
93.64501999081012
 20
55.5371136830583
 10
93.51954374441012
 20
55.06560570225829
 10
93.41050457641012
 20
54.61682452465831
  0
LWPOLYLINE
  5
D5
330
2
100
AcDbEntity
  8
0
100
AcDbPolyline
 90
       25
 70
     0
 43
0.0
 10
103.5905606724101
 20
53.20467514065831
 10
103.5750405364101
 20
53.13804498865832
 10
103.5580942788101
 20
53.07124337905833
 10
103.5396720196101
 20
53.00423188785831
 10
103.5198394132101
 20
52.93734258865831
 10
103.4987015812101
 20
52.87099406225832
 10
103.4764060020101
 20
52.80558040785831
 10
103.4530810868101
 20
52.74138191985833
 10
103.4287366180101
 20
52.67824817425832
 10
103.4119029396101
 20
52.63656775985831
 10
103.39443458601
 20
52.59483750065832
 10
103.3761588516101
 20
52.55264904625832
 10
103.3618150084101
 20
52.52046286385831
 10
103.3468271812101
 20
52.48762595025832
 10
103.3311026884101
 20
52.45397500305833
 10
103.3145488436101
 20
52.41934672465831
 10
103.2970840692101
 20
52.38360035825832
 10
103.2786711956101
 20
52.34668534065832
 10
103.2592841620101
 20
52.30857365265831
 10
103.2388969028101
 20
52.26923727665831
 10
103.2175236676101
 20
52.22870109105833
 10
103.1953399588101
 20
52.18720157105832
 10
103.1725615972101
 20
52.14502809265832
 10
103.1494043972101
 20
52.10247003025833
 10
103.0872935956101
 20
51.98871909745832
  0
LWPOLYLINE
  5
D6
330
2
100
AcDbEntity
  8
0
100
AcDbPolyline
 90
       53
 70
     0
 43
0.0
 10
100.3264229524101
 20
49.6503910814583
 10
100.3282845732101
 20
49.75407951825832
 10
100.3336998004101
 20
49.85365212465831
 10
100.3423379188101
 20
49.94763492625833
 10
100.3540142820101
 20
50.03641527025831
 10
100.3690184212101
 20
50.12280772785832
 10
100.3876283620101
 20
50.20808091825833
 10
100.4096211476101
 20
50.29057838065833
 10
100.4350437028101
 20
50.36991208145832
 10
100.4644684436101
 20
50.44706037265831
 10
100.4982971252101
 20
50.52199971665832
 10
100.5364552900101
 20
50.59347891665831
 10
100.5756293252101
 20
50.65541110865831
 10
100.6116918388101
 20
50.70324108945832
 10
100.6456390564101
 20
50.73931284625832
 10
100.6812491348101
 20
50.76759410065832
 10
100.7215839508101
 20
50.78995437585831
 10
100.7672963460101
 20
50.80700432465832
 10
100.8177100180101
 20
50.82122657905833
 10
100.8728152340101
 20
50.83376572625832
 10
100.9327877316101
 20
50.84590224465833
 10
100.9980921572101
 20
50.85851151825832
 10
101.0693072276101
 20
50.8721481118583
 10
101.1471035508101
 20
50.88779592465832
 10
101.2322193796101
 20
50.90682915345832
 10
101.3255370452101
 20
50.93073859025833
 10
101.4282064884101
 20
50.96128467825832
 10
101.5418240692101
 20
51.00023146385831
 10
101.6678514260101
 20
51.04973027345832
 10
101.8064598372101
 20
51.11222292465831
 10
101.9476476804101
 20
51.18492560465833
 10
102.0808004660101
 20
51.26270538545833
 10
102.2045872628101
 20
51.34365625265832
 10
102.3236822516101
 20
51.43039262865833
 10
102.4470058260101
 20
51.53111102545833
 10
102.5795300852101
 20
51.65384273425832
 10
102.7076725860101
 20
51.78919930545831
 10
102.8203580484101
 20
51.92349631185831
 10
102.9148545284101
 20
52.04823457425831
 10
102.9960320692101
 20
52.16468222545831
 10
103.0676549524101
 20
52.27425666225832
 10
103.1316246564101
 20
52.37706838545832
 10
103.1892465668101
 20
52.47311471345833
 10
103.2411930132101
 20
52.5619890910583
 10
103.2878022084101
 20
52.64323690545831
 10
103.3293533684101
 20
52.71678958865831
 10
103.3667128980101
 20
52.78380168305833
 10
103.4012075332101
 20
52.84639601745832
 10
103.4341889316101
 20
52.90691013585831
 10
103.4669352900101
 20
52.96783370705833
 10
103.4998423764101
 20
53.03015724785831
 10
103.5328405252101
 20
53.09401809425833
 10
103.5658748772101
 20
53.15955146225832
  0
LWPOLYLINE
  5
D7
330
2
100
AcDbEntity
  8
0
100
AcDbPolyline
 90
       22
 70
     0
 43
0.0
 10
102.5839678164101
 20
49.6503910814583
 10
102.5843820276101
 20
49.58282834065832
 10
102.5856022532101
 20
49.51561856945833
 10
102.5875971732101
 20
49.44876858545831
 10
102.5903366132101
 20
49.38228064945832
 10
102.5937949588101
 20
49.31613878225832
 10
102.5979477396101
 20
49.25032244785831
 10
102.6027717252101
 20
49.18481000145831
 10
102.6082486612101
 20
49.11957540145832
 10
102.6143615348101
 20
49.05459149585832
 10
102.6210942500101
 20
48.98983183825831
 10
102.6284343908101
 20
48.92527276465833
 10
102.6363704548101
 20
48.86089131345833
 10
102.6448913972101
 20
48.79666679185831
 10
102.6539879988101
 20
48.73258757105833
 10
102.6636514900101
 20
48.66864429585831
 10
102.6738734564101
 20
48.60482763345832
 10
102.6846468916101
 20
48.54112835665834
 10
102.6959651412101
 20
48.47753726545832
 10
102.7078218676101
 20
48.41404788945832
 10
102.7202119940101
 20
48.35066467185831
 10
102.7331307652101
 20
48.28739478865833
  0
LWPOLYLINE
  5
D8
330
2
100
AcDbEntity
  8
0
100
AcDbPolyline
 90
       23
 70
     0
 43
0.0
 10
102.7331307652101
 20
48.28739478865833
 10
102.7486591700101
 20
48.21472856465831
 10
102.7647341188101
 20
48.14356815505831
 10
102.7815635972101
 20
48.07374585905833
 10
102.7947922036101
 20
48.02220019505833
 10
102.8085673236101
 20
47.97150494705832
 10
102.8180437476101
 20
47.93830528305832
 10
102.8276880740101
 20
47.90580507665831
 10
102.8374230404101
 20
47.87424046705831
 10
102.8471966388101
 20
47.84376382065832
 10
102.8570578852101
 20
47.81419244625832
 10
102.8670810468101
 20
47.78525988305832
 10
102.8825725652101
 20
47.74256356145833
 10
102.8987904772101
 20
47.7003315230583
 10
102.9158891028101
 20
47.65827439985833
 10
102.9338601092101
 20
47.61643935025833
 10
102.9526698900101
 20
47.57488118065831
 10
102.9723463988101
 20
47.53334874865831
 10
102.9999433044101
 20
47.47758268625832
 10
103.0288912708101
 20
47.42132380945832
 10
103.0589234548101
 20
47.36461599505832
 10
103.0897486964101
 20
47.30753838225831
 10
103.1522003604101
 20
47.19318975825831
  0
LWPOLYLINE
  5
D9
330
2
100
AcDbEntity
  8
0
100
AcDbPolyline
 90
       22
 70
     0
 43
0.0
 10
103.0872935956101
 20
51.98871909745832
 10
103.0568059220101
 20
51.93221095345831
 10
103.0271968292101
 20
51.8762244750583
 10
102.9986945860101
 20
51.82073549585831
 10
102.9714929236101
 20
51.76566531825833
 10
102.9520440500101
 20
51.72454683825833
 10
102.9334114164101
 20
51.68332639185831
 10
102.9155786852101
 20
51.64176867345833
 10
102.8985613924101
 20
51.59987026225832
 10
102.8823534004101
 20
51.55762832145831
 10
102.8668300100101
 20
51.51481046225831
 10
102.8567812628101
 20
51.48577510865831
 10
102.8468988324101
 20
51.45610678225833
 10
102.8371133684101
 20
51.42555726225831
 10
102.8273792356101
 20
51.39395723985831
 10
102.8177457060101
 20
51.36145304945833
 10
102.8082857652101
 20
51.32826993745831
 10
102.7945396116101
 20
51.27762325105831
 10
102.7813462756101
 20
51.22616542065833
 10
102.7645772004101
 20
51.15654341425832
 10
102.7485759044101
 20
51.08567624625831
 10
102.7331309204101
 20
51.01338811345832
  0
LWPOLYLINE
  5
DA
330
2
100
AcDbEntity
  8
0
100
AcDbPolyline
 90
       22
 70
     0
 43
0.0
 10
102.7331309204101
 20
51.01338811345832
 10
102.7203464980101
 20
50.95078929425833
 10
102.7080729124101
 20
50.88804518705831
 10
102.6963175476101
 20
50.82517547985833
 10
102.6850867956101
 20
50.76218862385832
 10
102.6743830884101
 20
50.69904812785833
 10
102.6642078676101
 20
50.63570627505831
 10
102.6545641492101
 20
50.57211909745831
 10
102.6454612564101
 20
50.50825766545833
 10
102.6369100916101
 20
50.44409680305832
 10
102.6289228644101
 20
50.37961678065832
 10
102.6215170308101
 20
50.31481963985831
 10
102.6147113540101
 20
50.24971287345832
 10
102.6085249252101
 20
50.18430208145833
 10
102.6029781316101
 20
50.11858531985831
 10
102.5980916884101
 20
50.05255876145833
 10
102.5938870292101
 20
49.98622240465832
 10
102.5903884852101
 20
49.91959155665833
 10
102.5876211140101
 20
49.85268535665833
 10
102.5856103844101
 20
49.78551868305832
 10
102.5843834340101
 20
49.71808939185831
 10
102.5839678164101
 20
49.6503910814583
  0
LWPOLYLINE
  5
DB
330
2
100
AcDbEntity
  8
0
100
AcDbPolyline
 90
       33
 70
     0
 43
0.0
 10
104.8176724068101
 20
56.4369409182583
 10
104.7695592996101
 20
56.35437556465831
 10
104.7232428420101
 20
56.27294193425831
 10
104.6786791508101
 20
56.19270061585831
 10
104.6358243364101
 20
56.1137121934583
 10
104.5946345124101
 20
56.03603725745831
 10
104.5550589284101
 20
55.95971719665832
 10
104.5170193748101
 20
55.88471661745831
 10
104.4804307796101
 20
55.81098092785831
 10
104.4452080708101
 20
55.7384555390583
 10
104.4112661748101
 20
55.66708585745832
 10
104.3705191940101
 20
55.5794184766583
 10
104.3315274980101
 20
55.49338099025831
 10
104.2941780308101
 20
55.4088827982583
 10
104.2583577348101
 20
55.3258333006583
 10
104.2239569764101
 20
55.24413908785831
 10
104.1908798260101
 20
55.16369552305829
 10
104.1590337780101
 20
55.0843951550583
 10
104.1283263268101
 20
55.00613053905832
 10
104.0890023508101
 20
54.90320034705831
 10
104.0513669588101
 20
54.8016488270583
 10
104.0152490164101
 20
54.7012043278583
 10
103.9804832724101
 20
54.60159181425831
 10
103.9469280068101
 20
54.50252269745831
 10
103.9144473812101
 20
54.40370499665831
 10
103.8675039156101
 20
54.25545759505832
 10
103.8225722932101
 20
54.1070121598583
 10
103.7795558980101
 20
53.95826756465831
 10
103.7383735284101
 20
53.80914526065831
 10
103.6989487140101
 20
53.6595604910583
 10
103.6612085108101
 20
53.50938106545831
 10
103.6250892292101
 20
53.35624750545832
 10
103.5905606724101
 20
53.20467514065831
  0
LWPOLYLINE
  5
DC
330
2
100
AcDbEntity
  8
0
100
AcDbPolyline
 90
       49
 70
     0
 43
0.0
 10
104.0704700324101
 20
58.50960646065832
 10
104.0897290772101
 20
58.5960808718583
 10
104.1104082388101
 20
58.68337748945831
 10
104.1325525236101
 20
58.77148241105832
 10
104.1562025924101
 20
58.86036831985831
 10
104.1813817092101
 20
58.9499542350583
 10
104.2081087892101
 20
59.04014575825832
 10
104.2364054836101
 20
59.13085986545832
 10
104.2663043588101
 20
59.2220590254583
 10
104.2978407204101
 20
59.31371707825829
 10
104.3310443188101
 20
59.40579518065831
 10
104.3659227092101
 20
59.49820373105831
 10
104.4024779028101
 20
59.59084043985831
 10
104.4407179844101
 20
59.6836199102583
 10
104.4806753524101
 20
59.7765243070583
 10
104.5223884852101
 20
59.86955268945831
 10
104.5658950628101
 20
59.96270001745831
 10
104.6112295876101
 20
60.05594486705831
 10
104.6584257668101
 20
60.14926172145831
 10
104.7075212900101
 20
60.2426302014583
 10
104.7585697892101
 20
60.3360505054583
 10
104.8116288788101
 20
60.42952796625832
 10
104.8667536324101
 20
60.52306069905831
 10
104.9239889764101
 20
60.6166179134583
 10
104.9833772932101
 20
60.7101615966583
 10
105.0449609332101
 20
60.8036524926583
 10
105.1087820964101
 20
60.89704637585831
 10
105.1748829492101
 20
60.9902977854583
 10
105.2432987972101
 20
61.0833519326583
 10
105.3140375044101
 20
61.1761167502583
 10
105.3871000740101
 20
61.26849084785831
 10
105.4624755636101
 20
61.3603636990583
 10
105.5401052324101
 20
61.45158821105829
 10
105.6199183924101
 20
61.54200815185831
 10
105.7018515908101
 20
61.63147990225832
 10
105.7858702916101
 20
61.71991028945831
 10
105.8719471892101
 20
61.8072187550583
 10
105.9600428756101
 20
61.8933171918583
 10
106.0500695236101
 20
61.9780873038583
 10
106.1419272020101
 20
62.06140324785829
 10
106.2355248132101
 20
62.14315105585831
 10
106.3308065892101
 20
62.22326427505831
 10
106.4277255988101
 20
62.3016883278583
 10
106.5262205684101
 20
62.3783614206583
 10
106.6261728836101
 20
62.45319289265831
 10
106.7274495892101
 20
62.5260848670583
 10
106.8299378068101
 20
62.59695661905832
 10
106.9336049508101
 20
62.66579604465829
 10
107.0384385092101
 20
62.7326081918583
  0
LWPOLYLINE
  5
DD
330
2
100
AcDbEntity
  8
0
100
AcDbPolyline
 90
       36
 70
     0
 43
0.0
 10
121.0228983364101
 20
49.6503910814583
 10
121.0234306260101
 20
49.89338463825831
 10
121.0264056532101
 20
50.16783740945832
 10
121.0328708068101
 20
50.48071279185831
 10
121.0435908068101
 20
50.82021955505831
 10
121.0583531636101
 20
51.1632394990583
 10
121.0769502196101
 20
51.50389780145832
 10
121.0993708420101
 20
51.84271988625832
 10
121.1256098308101
 20
52.18001628945831
 10
121.1556272724101
 20
52.51561513745833
 10
121.1893580132101
 20
52.84911906225833
 10
121.2267171812101
 20
53.18005730545832
 10
121.2676074212101
 20
53.5102245166583
 10
121.3119358228101
 20
53.8348035134583
 10
121.3595862500101
 20
54.15562649425831
 10
121.4104428516101
 20
54.47236075665831
 10
121.4643608516101
 20
54.7845683854583
 10
121.5212216228101
 20
55.09203144465832
 10
121.5808764148101
 20
55.39441239985831
 10
121.6432069940101
 20
55.6915720302583
 10
121.7081772740101
 20
55.98375770385832
 10
121.7757987220101
 20
56.27140612465831
 10
121.8459277780101
 20
56.55425681585831
 10
121.9184487428101
 20
56.83218936785832
 10
121.9932056692101
 20
57.1049500398583
 10
122.0700498868101
 20
57.37234528145831
 10
122.1488338276101
 20
57.6342108974583
 10
122.2294089268101
 20
57.8904010878583
 10
122.3116551028101
 20
58.1408741934583
 10
122.3954059876101
 20
58.38545939985832
 10
122.4805276532101
 20
58.62409984145831
 10
122.5668732964101
 20
58.85671266385831
 10
122.6542619556101
 20
59.08314245265831
 10
122.7428580932101
 20
59.30410085745831
 10
122.8309295332101
 20
59.51574823825831
 10
122.9103514340101
 20
59.7001815678583
  0
LWPOLYLINE
  5
DE
330
2
100
AcDbEntity
  8
0
100
AcDbPolyline
 90
       35
 70
     0
 43
0.0
 10
122.8924128100101
 20
59.70473813105832
 10
122.8023446404101
 20
59.49291479505831
 10
122.7132545380101
 20
59.2755991118583
 10
122.6251552180101
 20
59.05254009585831
 10
122.5380506036101
 20
58.8234497438583
 10
122.4519728100101
 20
58.5880820142583
 10
122.3671012420101
 20
58.34658010225831
 10
122.2836078036101
 20
58.09909049905832
 10
122.2016572900101
 20
57.8457626414583
 10
122.1214353380101
 20
57.58683967185831
 10
122.0430101252101
 20
57.3222004478583
 10
121.9665315364101
 20
57.05199012145832
 10
121.8921762324101
 20
56.7764771630583
 10
121.8200462036101
 20
56.49567802065831
 10
121.7503088436101
 20
56.20987587025831
 10
121.6831180596101
 20
55.91934380625829
 10
121.6185363940101
 20
55.6239727486583
 10
121.5565815076101
 20
55.32341886225831
 10
121.4973363764101
 20
55.01764478225831
 10
121.4409187028101
 20
54.70678567985832
 10
121.3874678388101
 20
54.39112301585831
 10
121.3371251780101
 20
54.07101003505829
 10
121.2900221588101
 20
53.7468124030583
 10
121.2462568052101
 20
53.4164773758583
 10
121.2059508116101
 20
53.08492841905831
 10
121.1692046676101
 20
52.75027251345832
 10
121.1361201828101
 20
52.41298615025832
 10
121.1067876388101
 20
52.07359110385832
 10
121.0812621476101
 20
51.73234569425833
 10
121.0595728708101
 20
51.3891866126583
 10
121.0417372820101
 20
51.04385936145831
 10
121.0278161188101
 20
50.69691618545832
 10
121.0178498068101
 20
50.34879394225831
 10
121.0118655604101
 20
49.99983667665834
 10
121.0098828532101
 20
49.6503910814583
  0
LWPOLYLINE
  5
DF
330
2
100
AcDbEntity
  8
0
100
AcDbPolyline
 90
        4
 70
     0
 43
0.0
 10
121.9557913444101
 20
62.45157104625829
 10
122.1087520084101
 20
62.4206866958583
 10
122.2654633428101
 20
62.3927895806583
 10
122.4197737460101
 20
62.3689826030583
  0
LWPOLYLINE
  5
E0
330
2
100
AcDbEntity
  8
0
100
AcDbPolyline
 90
       22
 70
     0
 43
0.0
 10
123.5739488772101
 20
63.6954413246583
 10
123.4572417348101
 20
63.72091165745832
 10
123.3392706212101
 20
63.75285081745829
 10
123.2231139956101
 20
63.7906373806583
 10
123.1091151588101
 20
63.83415585745831
 10
122.9976107284101
 20
63.88327272945829
 10
122.8889297908101
 20
63.93783691185831
 10
122.7833930660101
 20
63.99768019665831
 10
122.6813119140101
 20
64.06261783505832
 10
122.5829876468101
 20
64.1324489550583
 10
122.4887104292101
 20
64.2069572766583
 10
122.3987580356101
 20
64.28591208785829
 10
122.3133928356101
 20
64.3690713166583
 10
122.2328615972101
 20
64.4561829566583
 10
122.1573972276101
 20
64.54698419025831
 10
122.0872176868101
 20
64.64120301425831
 10
122.0225243476101
 20
64.7385614398583
 10
121.9635035076101
 20
64.8387748078583
 10
121.9103265652101
 20
64.94155229905832
 10
121.8631504036101
 20
65.0465965710583
 10
121.8221170340101
 20
65.15360432785832
 10
121.7931641444101
 20
65.2425282686583
  0
LINE
  5
E1
330
2
100
AcDbEntity
  8
0
100
AcDbLine
 10
122.6283123220101
 20
61.09801324305832
 30
0.0
 11
122.3839180676101
 21
61.14957840785831
 31
0.0
  0
LWPOLYLINE
  5
E2
330
2
100
AcDbEntity
  8
0
100
AcDbPolyline
 90
       18
 70
     0
 43
0.0
 10
122.6273560852101
 20
61.08151738385831
 10
122.1444520932101
 20
61.1781979918583
 10
121.7018773764101
 20
61.26863257425831
 10
121.3065160900101
 20
61.34855987985829
 10
120.9522393476101
 20
61.41765539345832
 10
120.6299863140101
 20
61.47708303665831
 10
120.3191224340101
 20
61.53058810705829
 10
120.0066974564101
 20
61.58056083025829
 10
119.6906685844101
 20
61.62731142545831
 10
119.3722435796101
 20
61.67060537425832
 10
119.0525235252101
 20
61.71026330705831
 10
118.7320959796101
 20
61.74619497265831
 10
118.4116537268101
 20
61.77831035825829
 10
118.0924967268101
 20
61.80648482225831
 10
117.7760338468101
 20
61.83062742225832
 10
117.4632578212101
 20
61.85071635665829
 10
117.1548971220101
 20
61.8667752350583
 10
116.8516469524101
 20
61.87885265265831
  0
LWPOLYLINE
  5
E3
330
2
100
AcDbEntity
  8
0
100
AcDbPolyline
 90
       24
 70
     0
 43
0.0
 10
128.8438008820101
 20
66.0987522126583
 10
127.0075971428101
 20
66.0966633630583
 10
125.0957387924101
 20
66.09142692945829
 10
123.3969788836101
 20
66.08577995025831
 10
121.8890546852101
 20
66.08141330385831
 10
120.5484255988101
 20
66.0790405038583
 10
119.3578626708101
 20
66.0787953998583
 10
118.3005039684101
 20
66.08052940145831
 10
117.3619811284101
 20
66.08401915665831
 10
116.5277100644101
 20
66.08906174705831
 10
115.7857658164101
 20
66.09551697585832
 10
115.1233823492101
 20
66.10269353105829
 10
114.5270499604101
 20
66.1085960750583
 10
113.9963918964101
 20
66.1116522942583
 10
113.5279924436101
 20
66.1110207758583
 10
113.1193463348101
 20
66.1066693918583
 10
112.7557235124101
 20
66.0990562814583
 10
112.4111320532101
 20
66.08819169105832
 10
112.0797544500101
 20
66.07418248305831
 10
111.7597326084101
 20
66.05716531185831
 10
111.4503671060101
 20
66.03729459825832
 10
111.1507708628101
 20
66.01469309745832
 10
110.8602025476101
 20
65.98946951505832
 10
110.5782930548101
 20
65.96174921425831
  0
LWPOLYLINE
  5
E4
330
2
100
AcDbEntity
  8
0
100
AcDbPolyline
 90
       43
 70
     0
 43
0.0
 10
128.8438008820101
 20
61.4084787854583
 10
128.6596591316101
 20
61.40900123825829
 10
128.4733098340101
 20
61.41060039345831
 10
128.2845898020101
 20
61.41331565585829
 10
128.0946927044101
 20
61.41715325585829
 10
127.9050878916101
 20
61.42210138065832
 10
127.7169905620101
 20
61.42810918385831
 10
127.5314685940101
 20
61.43511097425829
 10
127.3492547364101
 20
61.4430206910583
 10
127.1704499572101
 20
61.45178078385831
 10
126.9929632100101
 20
61.46146808945829
 10
126.8740961732101
 20
61.4684997278583
 10
126.7540307812101
 20
61.47604795025831
 10
126.6321557972101
 20
61.48416816465831
 10
126.5078175844101
 20
61.49292480145831
 10
126.3801929156101
 20
61.5024183886583
 10
126.2484161684101
 20
61.51275847665832
 10
126.1118009172101
 20
61.52404522545831
 10
125.9703775444101
 20
61.5363412302583
 10
125.8243556308101
 20
61.54969969585829
 10
125.6741783204101
 20
61.5641428078583
 10
125.5212229972101
 20
61.57956866065831
 10
125.3671006052101
 20
61.59584432785831
 10
125.1365156116101
 20
61.62160522705829
 10
124.9079437284101
 20
61.64879911505829
 10
124.6820292756101
 20
61.67729592625829
 10
124.4579362692101
 20
61.70716537105829
 10
124.2344274484101
 20
61.73854377585832
 10
124.0101407316101
 20
61.7716341518583
 10
123.8594712932101
 20
61.79476268465831
 10
123.7072755236101
 20
61.8188670222583
 10
123.5529920628101
 20
61.8440644542583
 10
123.3960765860101
 20
61.87047470545832
 10
123.2360529412101
 20
61.8982272174583
 10
123.0724620132101
 20
61.92745386225832
 10
122.9471337364101
 20
61.9504272142583
 10
122.8192397252101
 20
61.9743994174583
 10
122.6884790932101
 20
61.9994659486583
 10
122.5545509556101
 20
62.02572227985831
 10
122.4172238772101
 20
62.05325220465829
 10
122.2765442244101
 20
62.08209277585831
 10
122.1326278164101
 20
62.11226936785831
 10
121.9855904692101
 20
62.1438073502583
  0
LWPOLYLINE
  5
E5
330
2
100
AcDbEntity
  8
0
100
AcDbPolyline
 90
       11
 70
     0
 43
0.0
 10
116.8516469524101
 20
61.87885265265831
 10
116.5544588068101
 20
61.8870148686583
 10
116.2637327172101
 20
61.8913698958583
 10
115.9794543012101
 20
61.89203705265831
 10
115.7022884148101
 20
61.8891412110583
 10
115.4328200628101
 20
61.88283592465831
 10
115.1711189940101
 20
61.8732884590583
 10
114.9172735828101
 20
61.86067136785831
 10
114.6714919588101
 20
61.84516786225831
 10
114.4337632708101
 20
61.8269541230583
 10
114.2033374292101
 20
61.8061335294583
  0
LWPOLYLINE
  5
E6
330
2
100
AcDbEntity
  8
0
100
AcDbPolyline
 90
       73
 70
     0
 43
0.0
 10
121.3524178772101
 20
61.3597299886583
 10
121.1466565220101
 20
61.3991723102583
 10
120.9400387860101
 20
61.43777713265831
 10
120.7332606164101
 20
61.4751163646583
 10
120.5269996036101
 20
61.51081750225831
 10
120.4238541620101
 20
61.52806796145831
 10
120.3197139476101
 20
61.5450755982583
 10
120.2135171940101
 20
61.56200369745829
 10
120.1042964628101
 20
61.57897620145831
 10
120.0293288116101
 20
61.59037160145832
 10
119.9522715604101
 20
61.6018675214583
 10
119.8727985940101
 20
61.6134940334583
 10
119.7906158932101
 20
61.62527475185831
 10
119.7055578404101
 20
61.63720746705831
 10
119.6174909204101
 20
61.6492835086583
 10
119.5263014180101
 20
61.6614906158583
 10
119.4319548324101
 20
61.67380214225829
 10
119.3344364660101
 20
61.68618784945829
 10
119.2337295988101
 20
61.6986170510583
 10
119.1298094228101
 20
61.71105728625829
 10
119.0226491076101
 20
61.72347565105829
 10
118.9122103300101
 20
61.73583940305829
 10
118.7984087812101
 20
61.7481164478583
 10
118.6811486644101
 20
61.76027485105831
 10
118.5603199956101
 20
61.77228188465829
 10
118.4357560660101
 20
61.7841016286583
 10
118.3072759844101
 20
61.79569737425831
 10
118.1747095268101
 20
61.80702857905831
 10
118.0379291556101
 20
61.81803938065832
 10
117.8968179972101
 20
61.82867008625831
 10
117.7512223668101
 20
61.8388593390583
 10
117.6008413044101
 20
61.84853909585831
 10
117.4453370356101
 20
61.85763965105829
 10
117.3251218132101
 20
61.86404011665832
 10
117.2015619364101
 20
61.87002867825831
 10
117.0743845588101
 20
61.87555844945831
 10
116.9433168260101
 20
61.88058253745831
 10
116.8080991556101
 20
61.88504686865829
 10
116.6685250260101
 20
61.88886863185832
 10
116.5244011812101
 20
61.89195783185832
 10
116.3755343652101
 20
61.89422447185831
 10
116.2217967748101
 20
61.8955723070583
 10
116.0633224196101
 20
61.8958800750583
 10
115.9003107572101
 20
61.8950202654583
 10
115.7329612516101
 20
61.89286536465832
 10
115.5615948420101
 20
61.8892958078583
 10
115.3870183972101
 20
61.88422381105832
 10
115.2099438788101
 20
61.8775530398583
 10
115.0302177044101
 20
61.86912115505831
 10
114.8478364420101
 20
61.8587939646583
 10
114.6642628276101
 20
61.84661585905832
 10
114.4813261332101
 20
61.8326758798583
 10
114.3008556340101
 20
61.81706306225831
 10
114.1242073764101
 20
61.79984938705832
 10
113.9508444836101
 20
61.78103860785831
 10
113.7801114500101
 20
61.76065487025829
 10
113.6127711588101
 20
61.73887212305832
 10
113.4496059924101
 20
61.71584830385831
 10
113.2900579572101
 20
61.69152752145831
 10
113.1332339668101
 20
61.66580042545831
 10
112.9782409316101
 20
61.63855766545831
 10
112.7732353316101
 20
61.59972179665832
 10
112.5698635204101
 20
61.55794486705829
 10
112.3680919668101
 20
61.51317473105831
 10
112.1678670484101
 20
61.4653627806583
 10
111.9690547732101
 20
61.41447454705832
 10
111.7715010628101
 20
61.3604790990583
 10
111.5750817764101
 20
61.30335315825831
 10
111.3797925444101
 20
61.24310404945831
 10
111.1856589428101
 20
61.17974675025831
 10
110.9927001908101
 20
61.11329463025831
 10
110.8009100964101
 20
61.04375462065831
 10
110.6102761124101
 20
60.97113203985831
  0
LWPOLYLINE
  5
E7
330
2
100
AcDbEntity
  8
0
100
AcDbPolyline
 90
        8
 70
     0
 43
0.0
 10
121.8110436676101
 20
61.26842169425831
 10
121.7459624628101
 20
61.28164338705829
 10
121.6806875204101
 20
61.29482728625831
 10
121.6152568276101
 20
61.30795888785832
 10
121.5497033972101
 20
61.3210245902583
 10
121.4840403364101
 20
61.33401440305831
 10
121.4182757844101
 20
61.3469192334583
 10
121.3524178772101
 20
61.3597299886583
  0
LINE
  5
E8
330
2
100
AcDbEntity
  8
0
100
AcDbLine
 10
122.1959340228101
 20
61.18896525425831
 30
0.0
 11
122.0688018964101
 21
61.21541558225832
 31
0.0
  0
LINE
  5
E9
330
2
100
AcDbEntity
  8
0
100
AcDbLine
 10
122.3839180676101
 20
61.14957840785831
 30
0.0
 11
122.1959340228101
 21
61.18896525425831
 31
0.0
  0
LINE
  5
EA
330
2
100
AcDbEntity
  8
0
100
AcDbLine
 10
122.0688018964101
 20
61.21541558225832
 30
0.0
 11
121.9404777492101
 21
61.24192177425832
 31
0.0
  0
LINE
  5
EB
330
2
100
AcDbEntity
  8
0
100
AcDbLine
 10
121.9404777492101
 20
61.24192177425832
 30
0.0
 11
121.8110436676101
 21
61.26842169425831
 31
0.0
  0
LWPOLYLINE
  5
EC
330
2
100
AcDbEntity
  8
0
100
AcDbPolyline
 90
       31
 70
     0
 43
0.0
 10
112.2131789860101
 20
64.43736493265831
 10
112.6886677684101
 20
64.4731129838583
 10
113.1658470612101
 20
64.50571588785831
 10
113.6430290868101
 20
64.53504548625829
 10
114.1184948916101
 20
64.56101782705829
 10
114.2768408564101
 20
64.56895004785829
 10
114.4359030564101
 20
64.57655348785832
 10
114.5964956820101
 20
64.58386037905831
 10
114.7184275828101
 20
64.58916341745831
 10
114.8419816260101
 20
64.59431990065832
 10
114.9674611092101
 20
64.59933195345832
 10
115.0951693252101
 20
64.6042016974583
 10
115.2254130500101
 20
64.60892963985831
 10
115.3585129764101
 20
64.6135098318583
 10
115.4947932740101
 20
64.61793470865831
 10
115.6345781140101
 20
64.62219670545829
 10
115.7491436628101
 20
64.62548285745831
 10
115.8663049412101
 20
64.6286495214583
 10
115.9862073044101
 20
64.63168629425831
 10
116.1089961028101
 20
64.63458277105832
 10
116.2348166932101
 20
64.6373285502583
 10
116.3638276612101
 20
64.63991187345832
 10
116.4962405316101
 20
64.6423155646583
 10
116.6322800644101
 20
64.64452109905829
 10
116.7721710180101
 20
64.64650994545832
 10
116.9161381524101
 20
64.64826357905829
 10
117.0643567700101
 20
64.64976174225831
 10
117.2168043380101
 20
64.65097727185829
 10
117.3734088708101
 20
64.65188127825832
 10
117.5340983812101
 20
64.65244486705831
 10
117.6988008820101
 20
64.65263915185829
  0
LWPOLYLINE
  5
ED
330
2
100
AcDbEntity
  8
0
100
AcDbPolyline
 90
       71
 70
     0
 43
0.0
 10
121.9855904692101
 20
62.1438073502583
 10
121.7834925748101
 20
62.18681339505829
 10
121.5803666292101
 20
62.2283572654583
 10
121.3761589700101
 20
62.26843287345829
 10
121.1712986548101
 20
62.3069459630583
 10
120.9663285876101
 20
62.34378775185831
 10
120.7617643636101
 20
62.37887949745831
 10
120.5580050004101
 20
62.4121715198583
 10
120.3550104964101
 20
62.44370030545829
 10
120.1522234708101
 20
62.47357100785831
 10
119.9474560132101
 20
62.5020772910583
 10
119.8085617908101
 20
62.52048207985831
 10
119.6668611844101
 20
62.53847481745831
 10
119.5215815716101
 20
62.55609839985831
 10
119.3721348660101
 20
62.57337007185831
 10
119.2186711028101
 20
62.5902044782583
 10
119.0615248500101
 20
62.60649061425832
 10
118.9010981940101
 20
62.6221187694583
 10
118.7380633124101
 20
62.6369844094583
 10
118.5731599076101
 20
62.6509842974583
 10
118.4068859828101
 20
62.66403527345829
 10
118.2387727588101
 20
62.67613448465832
 10
118.0681097636101
 20
62.68729915185829
 10
117.9379889124101
 20
62.69506555985831
 10
117.8055969236101
 20
62.70229827185829
 10
117.6704965460101
 20
62.7089795870583
 10
117.5322505300101
 20
62.7150918014583
 10
117.3904153044101
 20
62.72060968625831
 10
117.2445220212101
 20
62.72547790225832
 10
117.0940955108101
 20
62.72963358545831
 10
116.9386606020101
 20
62.7330138718583
 10
116.8104153572101
 20
62.73511318065832
 10
116.6785855860101
 20
62.7366174894583
 10
116.5430962468101
 20
62.73746828625831
 10
116.4038722948101
 20
62.73760705425832
 10
116.2608386868101
 20
62.73697528465831
 10
116.1139621380101
 20
62.7355139230583
 10
115.9633763988101
 20
62.73316176465832
 10
115.8092569764101
 20
62.7298570638583
 10
115.6517793796101
 20
62.72553807345829
 10
115.4911191140101
 20
62.7201430510583
 10
115.2861804260101
 20
62.71180842225831
 10
115.0774551956101
 20
62.70167375185829
 10
114.8658555652101
 20
62.6897167726583
 10
114.6522936804101
 20
62.67591522385831
 10
114.4375983636101
 20
62.6602523662583
 10
114.2222651588101
 20
62.6427335566583
 10
114.0070278052101
 20
62.6234189422583
 10
113.7939060852101
 20
62.60256570385831
 10
113.5845718756101
 20
62.58039994385831
 10
113.3780193636101
 20
62.55682638705829
 10
113.1725733124101
 20
62.53166941425831
 10
112.9665584916101
 20
62.50475340785832
 10
112.7589139812101
 20
62.47597192145829
 10
112.5510361460101
 20
62.4454951918583
 10
112.3445701604101
 20
62.4135235166583
 10
112.1396991700101
 20
62.3801007582583
 10
111.9364114036101
 20
62.3452673678583
 10
111.7353774164101
 20
62.3092065982583
 10
111.5374383460101
 20
62.27213740465831
 10
111.3434353300101
 20
62.23427873745831
 10
111.1915919412101
 20
62.2035692590583
 10
111.0429955364101
 20
62.17259918865829
 10
110.8978356964101
 20
62.14147306705831
 10
110.7563020068101
 20
62.1102954334583
 10
110.6185840452101
 20
62.0791708318583
 10
110.4848274180101
 20
62.0481932222583
 10
110.3550018340101
 20
62.01741423985831
 10
110.2290330244101
 20
61.98687494385831
 10
110.1068467188101
 20
61.95661639345832
 10
109.9883686500101
 20
61.9266796446583
  0
LWPOLYLINE
  5
EE
330
2
100
AcDbEntity
  8
0
100
AcDbPolyline
 90
       21
 70
     0
 43
0.0
 10
117.8923352820101
 20
65.2335442446583
 10
117.9973379412101
 20
65.07600000945831
 10
118.1438779476101
 20
64.87233880465831
 10
118.2991455540101
 20
64.6740554318583
 10
118.4628778900101
 20
64.4815395998583
 10
118.6347935620101
 20
64.2951705966583
 10
118.8145941444101
 20
64.1153153710583
 10
119.0019649652101
 20
63.9423277006583
 10
119.1965757524101
 20
63.77654751185829
 10
119.3980815972101
 20
63.61829994385832
 10
119.6061234404101
 20
63.4678948558583
 10
119.8203288148101
 20
63.32562607985829
 10
120.0403133924101
 20
63.1917702542583
 10
120.2656811300101
 20
63.06658665265832
 10
120.4960247460101
 20
62.9503166798583
 10
120.7309279188101
 20
62.84318256465832
 10
120.9699657524101
 20
62.7453871438583
 10
121.2127041380101
 20
62.65711393585831
 10
121.4586989908101
 20
62.57852690385831
 10
121.7075068980101
 20
62.50976690385832
 10
121.9557913460101
 20
62.45157105105829
  0
LWPOLYLINE
  5
EF
330
2
100
AcDbEntity
  8
0
100
AcDbPolyline
 90
        4
 70
     0
 43
0.0
 10
118.3637383396101
 20
65.28216437425832
 10
119.2499356084101
 20
65.29452106865829
 10
120.1374675412101
 20
65.3057835822583
 10
121.0262018436101
 20
65.31595091185829
  0
LINE
  5
F0
330
2
100
AcDbEntity
  8
0
100
AcDbLine
 10
117.6988008820101
 20
64.65263915185829
 30
0.0
 11
118.3172501908101
 21
64.65263915185829
 31
0.0
  0
LWPOLYLINE
  5
F1
330
2
100
AcDbEntity
  8
0
100
AcDbPolyline
 90
       21
 70
     0
 43
0.0
 10
118.3637383396101
 20
65.28216437425832
 10
118.3162041108101
 20
65.28132521425831
 10
118.2713005284101
 20
65.2802447630583
 10
118.2290294132101
 20
65.27894223985831
 10
118.1893151140101
 20
65.27743279665831
 10
118.1522002948101
 20
65.2757345022583
 10
118.1175610660101
 20
65.27385660145831
 10
118.0854190036101
 20
65.2718133950583
 10
118.0557091972101
 20
65.26961267345831
 10
118.0283923620101
 20
65.26726101585831
 10
118.0035050772101
 20
65.2647699182583
 10
117.9809865812101
 20
65.26213944465832
 10
117.9608786484101
 20
65.25937763825831
 10
117.9432052564101
 20
65.25648903825831
 10
117.9279857268101
 20
65.2534736510583
 10
117.9153008180101
 20
65.25033997425831
 10
117.9052045428101
 20
65.24708774865832
 10
117.8977892052101
 20
65.24372183825829
 10
117.8931606660101
 20
65.2402500462583
 10
117.8914271908101
 20
65.2366748830583
 10
117.8923331668101
 20
65.2335442350583
  0
LWPOLYLINE
  5
F2
330
2
100
AcDbEntity
  8
0
100
AcDbPolyline
 90
       23
 70
     0
 43
0.0
 10
121.7768381940101
 20
65.25599613585831
 10
121.7685162260101
 20
65.26090419345831
 10
121.7560903908101
 20
65.2658508078583
 10
121.7396315268101
 20
65.27076516305831
 10
121.7193000708101
 20
65.27558696305831
 10
121.6952366468101
 20
65.28027899825829
 10
121.6677703444101
 20
65.28478052625832
 10
121.6373366900101
 20
65.28903574385831
 10
121.6042242644101
 20
65.2930234190583
 10
121.5687685732101
 20
65.29672078065832
 10
121.5313975348101
 20
65.3001027022583
 10
121.4924512212101
 20
65.30315933265831
 10
121.4521025380101
 20
65.30589511985832
 10
121.4107488436101
 20
65.3083000350583
 10
121.3687927396101
 20
65.3103701534583
 10
121.3263630868101
 20
65.31211766545832
 10
121.2835402308101
 20
65.3135536270583
 10
121.2405610356101
 20
65.3146824014583
 10
121.1976340788101
 20
65.3155106254583
 10
121.1547356148101
 20
65.3160482798583
 10
121.1118647300101
 20
65.31630058705829
 10
121.0690126004101
 20
65.31626890865831
 10
121.0262018436101
 20
65.31595091185829
  0
LWPOLYLINE
  5
F3
330
2
100
AcDbEntity
  8
0
100
AcDbPolyline
 90
        3
 70
     0
 43
0.0
 10
121.7768381940101
 20
65.25599613585831
 10
121.7831929108101
 20
65.25119185265831
 10
121.7898160612101
 20
65.24641479825831
  0
LWPOLYLINE
  5
F4
330
2
100
AcDbEntity
  8
0
100
AcDbPolyline
 90
        3
 70
     0
 43
0.0
 10
121.7931634164101
 20
65.2425282670583
 10
121.7928367060101
 20
65.24331740145831
 10
121.7898160612101
 20
65.24641479825831
  0
LWPOLYLINE
  5
F5
330
2
100
AcDbEntity
  8
0
100
AcDbPolyline
 90
        8
 70
     0
 43
0.0
 10
128.8438008820101
 20
60.42783105585832
 10
128.7322246868101
 20
60.4282020734583
 10
128.6200634516101
 20
60.42924109905832
 10
128.5079759620101
 20
60.43085141905831
 10
128.39665453641
 20
60.4329483710583
 10
128.3411399348101
 20
60.4341626910583
 10
128.2851321764101
 20
60.43549533745832
 10
128.2280076772101
 20
60.4369598142583
  0
LWPOLYLINE
  5
F6
330
2
100
AcDbEntity
  8
0
100
AcDbPolyline
 90
       21
 70
     0
 43
0.0
 10
124.5168766612101
 20
60.6288229982583
 10
124.7479428804101
 20
60.6028375614583
 10
124.9899470196101
 20
60.5778125886583
 10
125.2440378068101
 20
60.55364028785831
 10
125.5046737620101
 20
60.53082130065831
 10
125.7523788260101
 20
60.51079586225831
 10
125.9732961668101
 20
60.49418194385831
 10
126.1728175716101
 20
60.48011435345831
 10
126.3653440212101
 20
60.4673358574583
 10
126.5584712148101
 20
60.4552692942583
 10
126.7524072356101
 20
60.44388564625831
 10
126.9565373860101
 20
60.43268159505831
 10
127.1841328948101
 20
60.42112546065832
 10
127.4243712772101
 20
60.4100149966583
 10
127.6580154100101
 20
60.40032213585831
 10
127.8829393268101
 20
60.39208902705832
 10
128.1012267668101
 20
60.38522175025829
 10
128.3093119828101
 20
60.37983888465831
 10
128.5040706484101
 20
60.3760062878583
 10
128.6832583268101
 20
60.37373320305829
 10
128.8438008820101
 20
60.37299190865829
  0
LWPOLYLINE
  5
F7
330
2
100
AcDbEntity
  8
0
100
AcDbPolyline
 90
       31
 70
     0
 43
0.0
 10
125.8438008820101
 20
60.5699085070583
 10
125.7630320516101
 20
60.5767851198583
 10
125.6821829348101
 20
60.58397005105831
 10
125.6012749876101
 20
60.5914658062583
 10
125.5203377252101
 20
60.59927395185829
 10
125.4394329124101
 20
60.60739231985832
 10
125.3586303716101
 20
60.61581780465832
 10
125.2779884884101
 20
60.62454852785831
 10
125.1975198772101
 20
60.63358752785831
 10
125.1172257156101
 20
60.64293906545831
 10
125.0371184436101
 20
60.65260599345831
 10
124.9572555764101
 20
60.66258550865831
 10
124.8777058916101
 20
60.6728733982583
 10
124.7985309284101
 20
60.68346649585831
 10
124.7197632564101
 20
60.6943658302583
 10
124.6414282068101
 20
60.70557347665832
 10
124.5635509412101
 20
60.71709013105831
 10
124.4861559492101
 20
60.7289109662583
 10
124.4092675572101
 20
60.74102977265829
 10
124.3329148276101
 20
60.75343818385829
 10
124.2571458036101
 20
60.76611919025831
 10
124.1820132708101
 20
60.77905362705831
 10
124.1075605620101
 20
60.79222384945831
 10
124.0337932116101
 20
60.80561829265829
 10
123.9607073060101
 20
60.8192269198583
 10
123.8883085652101
 20
60.83303751665829
 10
123.8166412740101
 20
60.84702917905829
 10
123.7457593492101
 20
60.8611788366583
 10
123.6757113940101
 20
60.87546408145832
 10
123.6065247332101
 20
60.88986516945832
 10
123.5382213764101
 20
60.90436303025831
  0
LWPOLYLINE
  5
F8
330
2
100
AcDbEntity
  8
0
100
AcDbPolyline
 90
       36
 70
     0
 43
0.0
 10
123.6641474404101
 20
60.87226304785829
 10
123.7393269780101
 20
60.85619647345831
 10
123.7759550036101
 20
60.8482768622583
 10
123.8119123092101
 20
60.84043549745832
 10
123.8471740532101
 20
60.8326748078583
 10
123.8817203396101
 20
60.8249961342583
 10
123.9155354740101
 20
60.8173998974583
 10
123.9486007220101
 20
60.80988720465831
 10
123.9808963348101
 20
60.80245943025829
 10
124.0124037428101
 20
60.7951177310583
 10
124.0431044516101
 20
60.7878633022583
 10
124.0729806084101
 20
60.78069726865831
 10
124.1020145956101
 20
60.77362078385831
 10
124.1301890452101
 20
60.7666350478583
 10
124.1574877572101
 20
60.75974108145832
 10
124.1838955556101
 20
60.75293977265829
 10
124.2093970868101
 20
60.7462321886583
 10
124.2339772708101
 20
60.7396194766583
 10
124.2576219924101
 20
60.73310268945832
 10
124.2803178436101
 20
60.72668286065831
 10
124.3020519636101
 20
60.72036105745832
 10
124.3228121188101
 20
60.71413835985831
 10
124.3425867236101
 20
60.7080158702583
 10
124.3613648196101
 20
60.7019947166583
 10
124.3791360756101
 20
60.69607606385829
 10
124.3958907956101
 20
60.69026111185832
 10
124.4116199140101
 20
60.6845511102583
 10
124.4263149668101
 20
60.67894736625831
 10
124.4399682324101
 20
60.6734511950583
 10
124.4525716916101
 20
60.66806437585831
 10
124.4641049572101
 20
60.66279500785831
 10
124.4745485108101
 20
60.65765333905829
 10
124.4839125060101
 20
60.6526368462583
 10
124.4922133652101
 20
60.64773822865831
 10
124.4994604212101
 20
60.64295146865831
 10
124.5056549332101
 20
60.63827299665831
  0
LINE
  5
F9
330
2
100
AcDbEntity
  8
0
100
AcDbLine
 10
123.4300869108101
 20
60.92750264465832
 30
0.0
 11
122.9431881044101
 21
61.03122386705831
 31
0.0
  0
LINE
  5
FA
330
2
100
AcDbEntity
  8
0
100
AcDbLine
 10
123.0419258868101
 20
60.99953750865831
 30
0.0
 11
123.1735165876101
 21
60.97316958865829
 31
0.0
  0
LINE
  5
FB
330
2
100
AcDbEntity
  8
0
100
AcDbLine
 10
122.9431881044101
 20
61.03122386705831
 30
0.0
 11
122.6283123220101
 21
61.09801324305832
 31
0.0
  0
LINE
  5
FC
330
2
100
AcDbEntity
  8
0
100
AcDbLine
 10
122.9070364324101
 20
61.02637942385832
 30
0.0
 11
123.0419258868101
 21
60.99953750865831
 31
0.0
  0
LINE
  5
FD
330
2
100
AcDbEntity
  8
0
100
AcDbLine
 10
122.7688532516101
 20
61.0537060494583
 30
0.0
 11
122.9070364324101
 21
61.02637942385832
 31
0.0
  0
LINE
  5
FE
330
2
100
AcDbEntity
  8
0
100
AcDbLine
 10
122.6273547988101
 20
61.0815176654583
 30
0.0
 11
122.7688532516101
 21
61.0537060494583
 31
0.0
  0
LINE
  5
FF
330
2
100
AcDbEntity
  8
0
100
AcDbLine
 10
123.5382213764101
 20
60.90436303025831
 30
0.0
 11
123.4300869108101
 21
60.92750264465832
 31
0.0
  0
LINE
  5
100
330
2
100
AcDbEntity
  8
0
100
AcDbLine
 10
123.5074923988101
 20
60.90509129105831
 30
0.0
 11
123.5867707940101
 21
60.88857419505831
 31
0.0
  0
LINE
  5
101
330
2
100
AcDbEntity
  8
0
100
AcDbLine
 10
123.4264371108101
 20
60.92181012625829
 30
0.0
 11
123.5074923988101
 21
60.90509129105831
 31
0.0
  0
LINE
  5
102
330
2
100
AcDbEntity
  8
0
100
AcDbLine
 10
123.3437062852101
 20
60.93872900625831
 30
0.0
 11
123.4264371108101
 21
60.92181012625829
 31
0.0
  0
LINE
  5
103
330
2
100
AcDbEntity
  8
0
100
AcDbLine
 10
123.2593796420101
 20
60.9558482062583
 30
0.0
 11
123.3437062852101
 21
60.93872900625831
 31
0.0
  0
LINE
  5
104
330
2
100
AcDbEntity
  8
0
100
AcDbLine
 10
123.1735165876101
 20
60.97316958865829
 30
0.0
 11
123.2593796420101
 21
60.9558482062583
 31
0.0
  0
LINE
  5
105
330
2
100
AcDbEntity
  8
0
100
AcDbLine
 10
123.5867707940101
 20
60.88857419505831
 30
0.0
 11
123.6641474404101
 21
60.87226304785829
 31
0.0
  0
LWPOLYLINE
  5
106
330
2
100
AcDbEntity
  8
0
100
AcDbPolyline
 90
       17
 70
     0
 43
0.0
 10
124.5056549332101
 20
60.63827299665831
 10
124.3819645588101
 20
60.64772064785831
 10
124.2578312644101
 20
60.6471877790583
 10
124.1340486308101
 20
60.63667779505832
 10
124.0114079828101
 20
60.61625788145829
 10
123.8906933476101
 20
60.58605858065831
 10
123.7726764388101
 20
60.5462729550583
 10
123.6581117268101
 20
60.49715534705831
 10
123.5477316068101
 20
60.43901975985829
 10
123.4422417268101
 20
60.37223784945831
 10
123.3423164708101
 20
60.2972365406583
 10
123.2485946484101
 20
60.21449531185831
 10
123.1616754116101
 20
60.12454311505831
 10
123.0821144260101
 20
60.02795500465831
 10
123.0104203156101
 20
59.92534845905831
 10
122.9470514100101
 20
59.81737943025831
 10
122.8924128276101
 20
59.7047381726583
  0
LWPOLYLINE
  5
107
330
2
100
AcDbEntity
  8
0
100
AcDbPolyline
 90
       57
 70
     0
 43
0.0
 10
122.9103515284101
 20
59.70018153105832
 10
122.9261128724101
 20
59.73515073745829
 10
122.9427129460101
 20
59.7697103566583
 10
122.9600452900101
 20
59.80365791665829
 10
122.9780388868101
 20
59.8368968926583
 10
122.9966747540101
 20
59.8694381550583
 10
123.0159258804101
 20
59.90127635985832
 10
123.0357690164101
 20
59.93241206225829
 10
123.0561816692101
 20
59.96284605425831
 10
123.0771428820101
 20
59.9925804686583
 10
123.0986329972101
 20
60.02161821425829
 10
123.1206337508101
 20
60.0499629854583
 10
123.1431283252101
 20
60.0776191678583
 10
123.1661012420101
 20
60.10459158385831
 10
123.1895383668101
 20
60.13088539345829
 10
123.2134278948101
 20
60.1565070430583
 10
123.2377547732101
 20
60.18145835345831
 10
123.2624961780101
 20
60.20573311185831
 10
123.2876345476101
 20
60.2293307886583
 10
123.3131583732101
 20
60.25225613585831
 10
123.3390553876101
 20
60.27451237425831
 10
123.3653150308101
 20
60.29610345745831
 10
123.3919276084101
 20
60.31703323345832
 10
123.4188846212101
 20
60.3373056462583
 10
123.4461786964101
 20
60.3569245998583
 10
123.4738036292101
 20
60.3758939182583
 10
123.5017543860101
 20
60.39421725425831
 10
123.5300271220101
 20
60.41189802865829
 10
123.5586191796101
 20
60.4289393406583
 10
123.5875291012101
 20
60.44534389425831
 10
123.6167565524101
 20
60.46111387665831
 10
123.6463025620101
 20
60.47625099505831
 10
123.6761687588101
 20
60.4907560078583
 10
123.7063594596101
 20
60.50462964625831
 10
123.7368766644101
 20
60.5178702126583
 10
123.7677280292101
 20
60.53047709425832
 10
123.7989581252101
 20
60.54246170225829
 10
123.8306101780101
 20
60.5538297358583
 10
123.8626958948101
 20
60.56457171505829
 10
123.8952252644101
 20
60.57467573745831
 10
123.9282102740101
 20
60.58412870065831
 10
123.9616620068101
 20
60.59291528785831
 10
123.9955917044101
 20
60.60101828945829
 10
124.0300101380101
 20
60.6084183886583
 10
124.0649276420101
 20
60.6150941566583
 10
124.1003537908101
 20
60.62102196785829
 10
124.1362975252101
 20
60.62617599665831
 10
124.1727659364101
 20
60.63052805425832
 10
124.2097673908101
 20
60.63404792465831
 10
124.2473059796101
 20
60.63670272625831
 10
124.2854089956101
 20
60.63845819345832
 10
124.3239500116101
 20
60.63927403185832
 10
124.3626247220101
 20
60.63912347665831
 10
124.4012801796101
 20
60.6380021086583
 10
124.4398899412101
 20
60.63591061265831
 10
124.4784300196101
 20
60.63285028785831
 10
124.5168766596101
 20
60.6288229982583
  0
LINE
  5
108
330
2
100
AcDbEntity
  8
0
100
AcDbLine
 10
128.04423453641
 20
60.44234771985831
 30
0.0
 11
127.9535604420101
 21
60.44536168305831
 31
0.0
  0
LINE
  5
109
330
2
100
AcDbEntity
  8
0
100
AcDbLine
 10
128.1287947316101
 20
60.43974442065831
 30
0.0
 11
128.04423453641
 21
60.44234771985831
 31
0.0
  0
LINE
  5
10A
330
2
100
AcDbEntity
  8
0
100
AcDbLine
 10
128.2280076772101
 20
60.4369598142583
 30
0.0
 11
128.1287947316101
 21
60.43974442065831
 31
0.0
  0
LWPOLYLINE
  5
10B
330
2
100
AcDbEntity
  8
0
100
AcDbPolyline
 90
       32
 70
     0
 43
0.0
 10
127.9535604420101
 20
60.44536168305831
 10
127.8560524212101
 20
60.4488488750583
 10
127.8046301156101
 20
60.4507869550583
 10
127.7514244564101
 20
60.45286238865831
 10
127.6964318868101
 20
60.4550810862583
 10
127.6396363044101
 20
60.4574497822583
 10
127.5810184692101
 20
60.45997542225831
 10
127.5205587556101
 20
60.46266511185831
 10
127.4582359924101
 20
60.46552657745832
 10
127.3940286244101
 20
60.46856770705829
 10
127.3279070228101
 20
60.4717970382583
 10
127.2598092836101
 20
60.47522570705831
 10
127.1896654324101
 20
60.47886550385832
 10
127.1174057188101
 20
60.48272863025829
 10
127.0429612932101
 20
60.48682894545831
 10
126.9662635316101
 20
60.4911807198583
 10
126.9072195076101
 20
60.4946184174583
 10
126.8468364228101
 20
60.4982131662583
 10
126.7850813204101
 20
60.5019725454583
 10
126.7219212404101
 20
60.50590413105831
 10
126.6573244612101
 20
60.5100156942583
 10
126.5912641972101
 20
60.5143157758583
 10
126.5237148948101
 20
60.51881311185829
 10
126.4546510020101
 20
60.52351643825829
 10
126.3840443348101
 20
60.5284351038583
 10
126.3118561604101
 20
60.53358091025831
 10
126.2380451124101
 20
60.5389662734583
 10
126.1625698244101
 20
60.54460360625831
 10
126.0853983364101
 20
60.55050513265832
 10
126.0065363060101
 20
60.55668229425831
 10
125.9259988004101
 20
60.56314633585831
 10
125.8438008820101
 20
60.5699085070583
  0
LWPOLYLINE
  5
10C
330
2
100
AcDbEntity
  8
0
100
AcDbPolyline
 90
       31
 70
     0
 43
0.0
 10
134.1493803876101
 20
60.90436303025831
 10
134.0810770292101
 20
60.88986516945832
 10
134.0118903684101
 20
60.87546407985832
 10
133.9418424116101
 20
60.8611788366583
 10
133.8709604868101
 20
60.84702917905829
 10
133.7992931940101
 20
60.83303751505829
 10
133.7268944548101
 20
60.8192269198583
 10
133.6538085476101
 20
60.80561829265829
 10
133.5800411972101
 20
60.79222384785831
 10
133.50558848681
 20
60.77905362705831
 10
133.4304559508101
 20
60.76611918865831
 10
133.3546869252101
 20
60.75343818225829
 10
133.2783341956101
 20
60.74102977105829
 10
133.2014458036101
 20
60.7289109646583
 10
133.1240508132101
 20
60.71709012945831
 10
133.0461735476101
 20
60.70557347505832
 10
132.9678384964101
 20
60.6943658286583
 10
132.8890708228101
 20
60.68346649425831
 10
132.8098958564101
 20
60.6728733966583
 10
132.7303461716101
 20
60.66258550705831
 10
132.65048330441
 20
60.65260599185831
 10
132.5703760356101
 20
60.64293906385831
 10
132.4900818740101
 20
60.63358752625831
 10
132.40961326441
 20
60.62454852625831
 10
132.3289713812101
 20
60.61581780305832
 10
132.24816884201
 20
60.60739231825832
 10
132.1672640308101
 20
60.59927395185829
 10
132.0863267700101
 20
60.5914658046583
 10
132.00541882281
 20
60.58397005105831
 10
131.9245697092101
 20
60.5767851182583
 10
131.8438008820101
 20
60.5699085070583
  0
LWPOLYLINE
  5
10D
330
2
100
AcDbEntity
  8
0
100
AcDbPolyline
 90
       21
 70
     0
 43
0.0
 10
128.8438008820101
 20
60.37299190865829
 10
129.0041334532101
 20
60.37371938545831
 10
129.1831560244101
 20
60.37597575985831
 10
129.3777242292101
 20
60.37978904945831
 10
129.58568700201
 20
60.3851528574583
 10
129.80393000681
 20
60.3920033214583
 10
130.0288163972101
 20
60.4002205998583
 10
130.2625619476101
 20
60.4099043582583
 10
130.5022410052101
 20
60.42097574705829
 10
130.7286339492101
 20
60.43245587985831
 10
130.9322298596101
 20
60.4436148270583
 10
131.1259419620101
 20
60.45496964945832
 10
131.3186100356101
 20
60.4669911582583
 10
131.5108490980101
 20
60.47973310385831
 10
131.7106269268101
 20
60.49380065105831
 10
131.9318486932101
 20
60.5104186398583
 10
132.1789364612101
 20
60.53037166865832
 10
132.43927800521
 20
60.55313671185832
 10
132.6947781828101
 20
60.57741772625831
 10
132.9379130036101
 20
60.60254393425831
 10
133.1705917076101
 20
60.62870711345832
  0
LINE
  5
10E
330
2
100
AcDbEntity
  8
0
100
AcDbLine
 10
129.6893445940101
 20
60.4438478302583
 30
0.0
 11
129.6018682356101
 21
60.44104433425829
 31
0.0
  0
LINE
  5
10F
330
2
100
AcDbEntity
  8
0
100
AcDbLine
 10
129.7833348820101
 20
60.44709341425832
 30
0.0
 11
129.6893445940101
 21
60.4438478302583
 31
0.0
  0
LINE
  5
110
330
2
100
AcDbEntity
  8
0
100
AcDbLine
 10
129.8843750180101
 20
60.4508407950583
 30
0.0
 11
129.7833348820101
 21
60.44709341425832
 31
0.0
  0
LWPOLYLINE
  5
111
330
2
100
AcDbEntity
  8
0
100
AcDbPolyline
 90
       10
 70
     0
 43
0.0
 10
129.6018682356101
 20
60.44104433425829
 10
129.5198248596101
 20
60.43861492305831
 10
129.4609613396101
 20
60.43699613745829
 10
129.4037536020101
 20
60.43552710065831
 10
129.3476418804101
 20
60.43418967185832
 10
129.2920063684101
 20
60.43297052945831
 10
129.1804147796101
 20
60.43086460625829
 10
129.0680601796101
 20
60.42924733425832
 10
128.9556364372101
 20
60.42820374865832
 10
128.8438008820101
 20
60.42783105585832
  0
LWPOLYLINE
  5
112
330
2
100
AcDbEntity
  8
0
100
AcDbPolyline
 90
       30
 70
     0
 43
0.0
 10
131.8438008820101
 20
60.5699085070583
 10
131.7617600276101
 20
60.56315909905831
 10
131.6813688980101
 20
60.55670635345831
 10
131.6026423364101
 20
60.55053910225831
 10
131.5255951828101
 20
60.5446461726583
 10
131.45023302281
 20
60.53901620625831
 10
131.3765243844101
 20
60.5336370846583
 10
131.3044285428101
 20
60.52849650385829
 10
131.23390476681
 20
60.5235821550583
 10
131.1649149316101
 20
60.51888234225831
 10
131.0974313220101
 20
60.51438778865829
 10
131.0314288260101
 20
60.51008982705829
 10
130.9668823316101
 20
60.50597978865829
 10
130.9037655092101
 20
60.5020491998583
 10
130.8420471588101
 20
60.49829034865831
 10
130.7816948596101
 20
60.4946957134583
 10
130.7226761924101
 20
60.49125777585832
 10
130.6460046740101
 20
60.48690521905832
 10
130.5715787636101
 20
60.48280367825831
 10
130.4993308068101
 20
60.47893896785831
 10
130.4291930052101
 20
60.4752973118583
 10
130.3610970132101
 20
60.47186659505832
 10
130.2949743508101
 20
60.4686351198583
 10
130.2307645268101
 20
60.46559182545832
 10
130.1684390244101
 20
60.4627282254583
 10
130.1079773220101
 20
60.4600364750583
 10
130.0493591092101
 20
60.45750887505829
 10
129.9925649220101
 20
60.45513832785829
 10
129.9375755124101
 20
60.45291787985831
 10
129.8843750180101
 20
60.4508407950583
  0
LINE
  5
113
330
2
100
AcDbEntity
  8
0
100
AcDbLine
 10
134.8262593268101
 20
61.03543408465831
 30
0.0
 11
134.9655459012101
 21
61.0629232974583
 31
0.0
  0
LINE
  5
114
330
2
100
AcDbEntity
  8
0
100
AcDbLine
 10
134.6902739060101
 20
61.00843154065831
 30
0.0
 11
134.8262593268101
 21
61.03543408465831
 31
0.0
  0
LINE
  5
115
330
2
100
AcDbEntity
  8
0
100
AcDbLine
 10
134.5575794340101
 20
60.9819070046583
 30
0.0
 11
134.6902739060101
 21
61.00843154065831
 31
0.0
  0
LINE
  5
116
330
2
100
AcDbEntity
  8
0
100
AcDbLine
 10
134.47096456361
 20
60.9644834590583
 30
0.0
 11
134.5575794340101
 21
60.9819070046583
 31
0.0
  0
LINE
  5
117
330
2
100
AcDbEntity
  8
0
100
AcDbLine
 10
134.3858634948101
 20
60.9472634830583
 30
0.0
 11
134.47096456361
 21
60.9644834590583
 31
0.0
  0
LINE
  5
118
330
2
100
AcDbEntity
  8
0
100
AcDbLine
 10
134.3023261012101
 20
60.9302445854583
 30
0.0
 11
134.3858634948101
 21
60.9472634830583
 31
0.0
  0
LINE
  5
119
330
2
100
AcDbEntity
  8
0
100
AcDbLine
 10
134.2204217540101
 20
60.9134256478583
 30
0.0
 11
134.3023261012101
 21
60.9302445854583
 31
0.0
  0
LINE
  5
11A
330
2
100
AcDbEntity
  8
0
100
AcDbLine
 10
134.1402408724101
 20
60.89680733745831
 30
0.0
 11
134.2204217540101
 21
60.9134256478583
 31
0.0
  0
LINE
  5
11B
330
2
100
AcDbEntity
  8
0
100
AcDbLine
 10
134.0618961508101
 20
60.8803924974583
 30
0.0
 11
134.1402408724101
 21
60.89680733745831
 31
0.0
  0
LINE
  5
11C
330
2
100
AcDbEntity
  8
0
100
AcDbLine
 10
133.9855561940101
 20
60.8641935198583
 30
0.0
 11
134.0618961508101
 21
60.8803924974583
 31
0.0
  0
LINE
  5
11D
330
2
100
AcDbEntity
  8
0
100
AcDbLine
 10
134.9794038116101
 20
61.08109673105829
 30
0.0
 11
134.5915252196101
 21
60.9987116398583
 31
0.0
  0
LINE
  5
11E
330
2
100
AcDbEntity
  8
0
100
AcDbLine
 10
134.5915252196101
 20
60.9987116398583
 30
0.0
 11
134.3673386036101
 21
60.95095135185829
 31
0.0
  0
LINE
  5
11F
330
2
100
AcDbEntity
  8
0
100
AcDbLine
 10
134.3673386036101
 20
60.95095135185829
 30
0.0
 11
134.1493803876101
 21
60.90436303025831
 31
0.0
  0
LINE
  5
120
330
2
100
AcDbEntity
  8
0
100
AcDbLine
 10
133.9116467604101
 20
60.8482768622583
 30
0.0
 11
133.9855561940101
 21
60.8641935198583
 31
0.0
  0
LWPOLYLINE
  5
121
330
2
100
AcDbEntity
  8
0
100
AcDbPolyline
 90
       17
 70
     0
 43
0.0
 10
134.7951889364101
 20
59.7047381726583
 10
134.7405503540101
 20
59.81737943025831
 10
134.6771814484101
 20
59.92534845905831
 10
134.60548733801
 20
60.02795500465831
 10
134.5259263524101
 20
60.12454311505831
 10
134.4390071156101
 20
60.21449531185831
 10
134.3452852932101
 20
60.2972365406583
 10
134.2453600372101
 20
60.37223784945831
 10
134.1398701572101
 20
60.43901975985829
 10
134.0294900372101
 20
60.49715534705831
 10
133.91492532521
 20
60.5462729550583
 10
133.7969084164101
 20
60.58605858065831
 10
133.6761937828101
 20
60.61625788145829
 10
133.5535531332101
 20
60.63667779505832
 10
133.4297704996101
 20
60.6471877790583
 10
133.3056372052101
 20
60.64772064785831
 10
133.1819468308101
 20
60.63827299665831
  0
LWPOLYLINE
  5
122
330
2
100
AcDbEntity
  8
0
100
AcDbPolyline
 90
       58
 70
     0
 43
0.0
 10
133.1705917092101
 20
60.62870711345832
 10
133.2083786788101
 20
60.6326740158583
 10
133.2462566660101
 20
60.6357069214583
 10
133.2842025124101
 20
60.6378040110583
 10
133.3221955060101
 20
60.63896409585831
 10
133.3602042164101
 20
60.63918640625832
 10
133.3980747476101
 20
60.63847538705829
 10
133.4355298708101
 20
60.63685574545832
 10
133.4724456180101
 20
60.63436525265831
 10
133.5088417796101
 20
60.6310369566583
 10
133.5447241460101
 20
60.6269021102583
 10
133.5801004228101
 20
60.6219896222583
 10
133.6149771556101
 20
60.61632650385831
 10
133.6493626244101
 20
60.60993756625831
 10
133.6832657844101
 20
60.6028455614583
 10
133.7166963124101
 20
60.5950711902583
 10
133.7496643140101
 20
60.58663317745831
 10
133.78218029321
 20
60.57754830225829
 10
133.8142548580101
 20
60.56783149905831
 10
133.8458989604101
 20
60.55749579985832
 10
133.8771232884101
 20
60.5465525582583
 10
133.9079362500101
 20
60.5350122654583
 10
133.9383664180101
 20
60.52287561585831
 10
133.96846391081
 20
60.5101304094583
 10
133.9982481172101
 20
60.49677285585829
 10
134.02771815561
 20
60.48280621105831
 10
134.0568795284101
 20
60.46822963985829
 10
134.0857339732101
 20
60.45304280465831
 10
134.1142830356101
 20
60.4372442782583
 10
134.1425268836101
 20
60.4208322078583
 10
134.1704646884101
 20
60.40380418865831
 10
134.1980944788101
 20
60.38615742545829
 10
134.2254131892101
 20
60.36788877745832
 10
134.2524166420101
 20
60.34899485105831
 10
134.2790995604101
 20
60.32947205585831
 10
134.3054555748101
 20
60.30931668145831
 10
134.3314772388101
 20
60.2885249646583
 10
134.3571560468101
 20
60.26709313745832
 10
134.3824824436101
 20
60.24501749905832
 10
134.4074459460101
 20
60.2222943774583
 10
134.4320347620101
 20
60.19892055505829
 10
134.4562374452101
 20
60.17489172145829
 10
134.48003457001
 20
60.1502110814583
 10
134.5034054036101
 20
60.1248836798583
 10
134.5263381012101
 20
60.09890492625832
 10
134.5488207492101
 20
60.0722690894583
 10
134.5708395764101
 20
60.04497134385829
 10
134.5923796244101
 20
60.0170071166583
 10
134.6134246436101
 20
59.98837231665831
 10
134.6339569684101
 20
59.9590636174583
 10
134.6539579972101
 20
59.92907790385832
 10
134.67340669001
 20
59.8984147022583
 10
134.6922843028101
 20
59.86706877745831
 10
134.7105603332101
 20
59.8350539902583
 10
134.7282316292101
 20
59.80233430065831
 10
134.7452269652101
 20
59.76900115825831
 10
134.7615599796101
 20
59.7349855646583
 10
134.7772500724101
 20
59.70018190705829
  0
LWPOLYLINE
  5
123
330
2
100
AcDbEntity
  8
0
100
AcDbPolyline
 90
       34
 70
     0
 43
0.0
 10
133.1819468308101
 20
60.63827299665831
 10
133.1881413428101
 20
60.64295146865831
 10
133.1953883988101
 20
60.64773822865831
 10
133.2036892580101
 20
60.6526368462583
 10
133.2130532532101
 20
60.65765333905829
 10
133.2234968068101
 20
60.66279500785831
 10
133.2350300724101
 20
60.66806437585831
 10
133.2476335316101
 20
60.6734511950583
 10
133.2612867972101
 20
60.67894736625831
 10
133.2759818516101
 20
60.6845511102583
 10
133.2917109684101
 20
60.69026111185832
 10
133.3084656884101
 20
60.69607606385829
 10
133.3262369444101
 20
60.7019947166583
 10
133.3450150404101
 20
60.7080158702583
 10
133.3647896452101
 20
60.71413835985831
 10
133.3855498020101
 20
60.72036105745832
 10
133.4072839204101
 20
60.72668286065831
 10
133.4299797732101
 20
60.73310268945832
 10
133.4536244948101
 20
60.7396194766583
 10
133.47820467721
 20
60.7462321886583
 10
133.5037062084101
 20
60.75293977265829
 10
133.5301140084101
 20
60.75974108145832
 10
133.5574127204101
 20
60.7666350478583
 10
133.5855871684101
 20
60.77362078385831
 10
133.6146211556101
 20
60.78069726865831
 10
133.6444973124101
 20
60.7878633022583
 10
133.6751980212101
 20
60.7951177310583
 10
133.7067054292101
 20
60.80245943025829
 10
133.7390010420101
 20
60.80988720465831
 10
133.7720662900101
 20
60.8173998974583
 10
133.8058814244101
 20
60.8249961342583
 10
133.8404277108101
 20
60.8326748078583
 10
133.8756894548101
 20
60.84043549745832
 10
133.9116467604101
 20
60.8482768622583
  0
LWPOLYLINE
  5
124
330
2
100
AcDbEntity
  8
0
100
AcDbPolyline
 90
       18
 70
     0
 43
0.0
 10
134.1136528884101
 20
63.6954413118583
 10
133.49997603081
 20
63.58422499345832
 10
132.8820275732101
 20
63.48640606225831
 10
132.2628341284101
 20
63.40254161425829
 10
131.6425885956101
 20
63.33264103185832
 10
131.0214868420101
 20
63.27671239825829
 10
130.3997234756101
 20
63.23476185585829
 10
129.7774904660101
 20
63.20679364945831
 10
129.1549758532101
 20
63.1928103550583
 10
128.5323673940101
 20
63.19281325905831
 10
127.9098528292101
 20
63.2068023614583
 10
127.2876198932101
 20
63.2347763806583
 10
126.6658566116101
 20
63.2767327406583
 10
126.0447549844101
 20
63.33266720305829
 10
125.4245096804101
 20
63.4025736174583
 10
124.8053166356101
 20
63.48644388625832
 10
124.1873687940101
 20
63.58426861585832
 10
123.5739488756101
 20
63.6954413102583
  0
LWPOLYLINE
  5
125
330
2
100
AcDbEntity
  8
0
100
AcDbPolyline
 90
        4
 70
     0
 43
0.0
 10
128.8438008820101
 20
70.65039108145831
 10
123.3716283268101
 20
70.65049550705831
 10
118.0359298228101
 20
70.6507059630583
 10
112.8410857476101
 20
70.65034125425831
  0
LWPOLYLINE
  5
126
330
2
100
AcDbEntity
  8
0
100
AcDbPolyline
 90
        4
 70
     0
 43
0.0
 10
112.8410857476101
 20
70.65034125425831
 10
112.5410825380101
 20
70.64791015505829
 10
112.2412472004101
 20
70.6407879982583
 10
111.9416130548101
 20
70.62897668465831
  0
LWPOLYLINE
  5
127
330
2
100
AcDbEntity
  8
0
100
AcDbPolyline
 90
       26
 70
     0
 43
0.0
 10
162.9892180740101
 20
58.48370774545831
 10
162.5933079540101
 20
59.3300583550583
 10
162.1625139652101
 20
60.1552952430583
 10
161.6980427812101
 20
60.95766726225829
 10
161.2011169044101
 20
61.73554603185832
 10
160.6730112340101
 20
62.48756097585832
 10
160.1150960308101
 20
63.21230432625831
 10
159.5287371060101
 20
63.9084540958583
 10
158.9152820004101
 20
64.57495875505831
 10
158.2763081444101
 20
65.21059968945832
 10
157.6133004724101
 20
65.8143145774583
 10
156.9275268468101
 20
66.38542120945832
 10
156.2204705860101
 20
66.92310539345831
 10
155.4934943924101
 20
67.42666209745832
 10
154.7478186084101
 20
67.89559829905829
 10
153.98504826601
 20
68.32923590705831
 10
153.2066824452101
 20
68.7269739422583
 10
152.4140021652101
 20
69.0884251054583
 10
151.6083332948101
 20
69.41323904945829
 10
150.7914598708101
 20
69.7008703630583
 10
149.9657260196101
 20
69.95074583025831
 10
149.1336070452101
 20
70.16242858705831
 10
148.2958401028101
 20
70.33594411665831
 10
147.4516590036101
 20
70.4715678206583
 10
146.6014673908101
 20
70.56930451985832
 10
145.7459887092101
 20
70.62897668465831
  0
LWPOLYLINE
  5
128
330
2
100
AcDbEntity
  8
0
100
AcDbPolyline
 90
       75
 70
     0
 43
0.0
 10
161.0197654996101
 20
57.2090238174583
 10
160.9139429204101
 20
57.39537388465831
 10
160.8052354468101
 20
57.58084506385831
 10
160.6935731460101
 20
57.76551741585831
 10
160.5788799812101
 20
57.9494715902583
 10
160.4611169092101
 20
58.13272085905831
 10
160.3402771444101
 20
58.3152262766583
 10
160.2164055396101
 20
58.4968758974583
 10
160.0895828548101
 20
58.67750995825829
 10
159.9598433668101
 20
58.8570417550583
 10
159.8271641940101
 20
59.03546767025829
 10
159.6915153748101
 20
59.21279143665831
 10
159.5528100596101
 20
59.3890861790583
 10
159.4110069316101
 20
59.56436084305829
 10
159.2660967732101
 20
59.73858225585832
 10
159.1180737812101
 20
59.91171307665831
 10
158.96693050601
 20
60.08371848625831
 10
158.8126168884101
 20
60.25461055665832
 10
158.6550881812101
 20
60.4243923502583
 10
158.4943189700101
 20
60.5930436510583
 10
158.3303316244101
 20
60.7604945758583
 10
158.1632256308101
 20
60.92660062225832
 10
157.9930952772101
 20
61.0912288446583
 10
157.8199275892101
 20
61.25435532145832
 10
157.64371311081
 20
61.41595221265831
 10
157.4644395060101
 20
61.57599393585829
 10
157.2820847220101
 20
61.73446288785831
 10
157.0966608164101
 20
61.89131202545832
 10
156.9081455684101
 20
62.04652282705831
 10
156.7166175332101
 20
62.19999526065831
 10
156.5220253156101
 20
62.35173620305829
 10
156.3246767988101
 20
62.5014768894583
 10
156.1258500548101
 20
62.6482533374583
 10
155.9264995748101
 20
62.7913869422583
 10
155.7270572980101
 20
62.93061893265832
 10
155.5275130804101
 20
63.06601972785831
 10
155.3278108532101
 20
63.19768384145831
 10
155.1279452356101
 20
63.32566812945831
 10
154.9280247156101
 20
63.4499579598583
 10
154.7283446596101
 20
63.5704347598583
 10
154.5291480020101
 20
63.6870288222583
 10
154.3305370164101
 20
63.79975767825832
 10
154.1325290596101
 20
63.90868636945831
 10
153.9351079860101
 20
64.01389724785829
 10
153.7382599364101
 20
64.11546849585829
 10
153.5419390884101
 20
64.21349197745832
 10
153.3460912484101
 20
64.30805956145829
 10
153.1507059268101
 20
64.39923911185829
 10
152.9555808532101
 20
64.48717732305832
 10
152.7599525492101
 20
64.57225888465831
 10
152.5633353476101
 20
64.6547222270583
 10
152.3657755556101
 20
64.73456565585832
 10
152.1672396676101
 20
64.81182074705831
 10
151.9675583940101
 20
64.8865669918583
 10
151.7665638852101
 20
64.95887423985831
 10
151.56420309961
 20
65.02876536625831
 10
151.3604308996101
 20
65.0962588046583
 10
151.15506042921
 20
65.16141495985832
 10
150.9475882788101
 20
65.22438215665829
 10
150.7374276180101
 20
65.28531669585831
 10
150.5242947668101
 20
65.34427002225831
 10
150.3081030004101
 20
65.40123077425829
 10
150.0886936260101
 20
65.45620358865829
 10
149.8658664852101
 20
65.50919804305832
 10
149.6394723140101
 20
65.56020464625831
 10
149.4094012244101
 20
65.6092006286583
 10
149.1753904964101
 20
65.65619121585831
 10
148.9368397140101
 20
65.70123715185829
 10
148.6930867668101
 20
65.74439800305831
 10
148.4436876036101
 20
65.78568046385831
 10
148.1884595572101
 20
65.82503830705829
 10
147.92674591081
 20
65.86249089265831
 10
147.6576071780101
 20
65.8980689966583
 10
147.3833371012101
 20
65.9314159662583
 10
147.1093087092101
 20
65.96174921425831
  0
LWPOLYLINE
  5
129
330
2
100
AcDbEntity
  8
0
100
AcDbPolyline
 90
       31
 70
     0
 43
0.0
 10
152.8699293620101
 20
56.4369408958583
 10
152.8051361156101
 20
56.5450284974583
 10
152.7391182612101
 20
56.65168763025829
 10
152.6718747540101
 20
56.75692085745831
 10
152.60341518121
 20
56.86071157425832
 10
152.5337533780101
 20
56.96303632625831
 10
152.4629095572101
 20
57.0638634702583
 10
152.3909001140101
 20
57.1631666014583
 10
152.3177197732101
 20
57.26094847185831
 10
152.2433352052101
 20
57.3572444814583
 10
152.1676225236101
 20
57.4521914510583
 10
152.0904421028101
 20
57.54593197745831
 10
152.0116819172101
 20
57.63853031665831
 10
151.9313058132101
 20
57.72997448785829
 10
151.8495535284101
 20
57.82002590545829
 10
151.76666243881
 20
57.9084771502583
 10
151.6825845700101
 20
57.9954720862583
 10
151.6257839684101
 20
58.05279907665831
 10
151.5681848212101
 20
58.10980053905831
 10
151.5095690692101
 20
58.16669522705831
 10
151.4497247684101
 20
58.22369022545831
 10
151.3884644660101
 20
58.28094596145831
 10
151.3256068244101
 20
58.33861119985832
 10
151.2772972916101
 20
58.3822237342583
 10
151.2278569844101
 20
58.42624533425831
 10
151.1771556292101
 20
58.47077104305831
 10
151.1250629524101
 20
58.51589590065831
 10
151.0714755636101
 20
58.56169128945831
 10
151.01639757321
 20
58.60813394865832
 10
150.9598599716101
 20
58.65517695665829
 10
150.9018937524101
 20
58.7027733950583
  0
LWPOLYLINE
  5
12A
330
2
100
AcDbEntity
  8
0
100
AcDbPolyline
 90
       93
 70
     0
 43
0.0
 10
143.4842643348101
 20
61.8061335294583
 10
143.7084598356101
 20
61.7827620094583
 10
143.9269216836101
 20
61.75692433905831
 10
144.1396335540101
 20
61.72875111025831
 10
144.3465685412101
 20
61.69837575505829
 10
144.5477033572101
 20
61.66593338065831
 10
144.7430776692101
 20
61.63155192465831
 10
144.9334400500101
 20
61.59521572785831
 10
145.1202511652101
 20
61.5567419998583
 10
145.3044998756101
 20
61.51599555505831
 10
145.4865078708101
 20
61.47295476945831
 10
145.6665719236101
 20
61.42758981425831
 10
145.8449913844101
 20
61.37985741905831
 10
146.0220584548101
 20
61.3297032414583
 10
146.1980926356101
 20
61.27705156465831
 10
146.3733596708101
 20
61.22182887505829
 10
146.5478658468101
 20
61.16403722225832
 10
146.7215356596101
 20
61.10370200305832
 10
146.8944262324101
 20
61.0408012654583
 10
147.0666553956101
 20
60.97528655345832
 10
147.2383186964101
 20
60.90711110865831
 10
147.4094814884101
 20
60.83623413905832
 10
147.5801644484101
 20
60.76262890065831
 10
147.7504405556101
 20
60.6862415870583
 10
147.9206046964101
 20
60.6069057502583
 10
148.0909889604101
 20
60.5244278334583
 10
148.2616966372101
 20
60.43871347825831
 10
148.4326201828101
 20
60.3497683566583
 10
148.6035749572101
 20
60.2576424990583
 10
148.7743780036101
 20
60.1623910142583
 10
148.9445015284101
 20
60.0642808030583
 10
149.1154053716101
 20
59.96239861585832
 10
149.2874758580101
 20
59.8564344286583
 10
149.4514994036101
 20
59.75229599025832
 10
149.5999382212101
 20
59.65546270865832
 10
149.7346529412101
 20
59.56548800145831
 10
149.8586458388101
 20
59.48094242225829
 10
149.9735652420101
 20
59.4011261214583
 10
150.0807596324101
 20
59.32543145905831
 10
150.1812728804101
 20
59.25338221905829
 10
150.2753978292101
 20
59.18498340145831
 10
150.3650859380101
 20
59.11898554385832
 10
150.4558694004101
 20
59.05131477105832
 10
150.5524719412101
 20
58.97824163985831
 10
150.6570371300101
 20
58.8977656110583
 10
150.7733890180101
 20
58.8063358510583
 10
150.9018358196101
 20
58.70282143185829
 10
151.0320715876101
 20
58.5947617486583
 10
151.1549835396101
 20
58.48957295505829
 10
151.27036609001
 20
58.3876806190583
 10
151.3797811908101
 20
58.28794840785829
 10
151.4839119476101
 20
58.18994448145829
 10
151.5834330340101
 20
58.09320479345831
 10
151.6790238084101
 20
57.9972099070583
 10
151.7708349252101
 20
57.9019360174583
 10
151.8564144996101
 20
57.81019858065829
 10
151.9330401220101
 20
57.72548022225831
 10
152.0024793460101
 20
57.6464548302583
 10
152.0693025220101
 20
57.56828217585831
 10
152.1359778708101
 20
57.48813278385831
 10
152.20254387241
 20
57.40590029585831
 10
152.2689168740101
 20
57.3216225598583
 10
152.3352636548101
 20
57.2350129310583
 10
152.4016436804101
 20
57.14589850225832
 10
152.4681659012101
 20
57.0540194046583
 10
152.5349378500101
 20
56.95908931505829
 10
152.6020908820101
 20
56.8607549998583
 10
152.6697808116101
 20
56.75858540145831
 10
152.7381919284101
 20
56.65205343185832
 10
152.8075879844101
 20
56.5404368414583
 10
152.8782993172101
 20
56.42280589745832
 10
152.9501266756101
 20
56.29903015505831
 10
153.0219292756101
 20
56.1706803710583
 10
153.0926520132101
 20
56.0394232046583
 10
153.16209785481
 20
55.9055161022583
 10
153.2303067396101
 20
55.76877759185831
 10
153.2972371860101
 20
55.62917315505831
 10
153.3628657780101
 20
55.4866271198583
 10
153.4271743796101
 20
55.34104349265831
 10
153.4901407524101
 20
55.19232511505831
 10
153.5515305444101
 20
55.04089899185832
 10
153.6108632772101
 20
54.88792735345831
 10
153.6678436884101
 20
54.7342844366583
 10
153.7225357732101
 20
54.5799677550583
 10
153.7751251572101
 20
54.42460727185832
 10
153.8257198708101
 20
54.26802582065829
 10
153.8742907780101
 20
54.11046391505831
 10
153.9207788212101
 20
53.9522944926583
 10
153.9651522996101
 20
53.79384640305829
 10
154.0074102900101
 20
53.6353763502583
 10
154.0475753572101
 20
53.47707658225832
 10
154.08567113961
 20
53.31690342545832
 10
154.1217268340101
 20
53.15955156945832
  0
LWPOLYLINE
  5
12B
330
2
100
AcDbEntity
  8
0
100
AcDbPolyline
 90
       23
 70
     0
 43
0.0
 10
154.9544709988101
 20
51.01338737265831
 10
154.9389425988101
 20
51.08605358225833
 10
154.9228676516101
 20
51.15721397585833
 10
154.9060381780101
 20
51.22703625745831
 10
154.8928095748101
 20
51.27858191185831
 10
154.87903445801
 20
51.32927715185832
 10
154.8695580356101
 20
51.36247680945832
 10
154.85991371241
 20
51.39497700945833
 10
154.85017874921
 20
51.42654161425832
 10
154.8404051540101
 20
51.45701825425831
 10
154.8305439092101
 20
51.48658962385832
 10
154.8205207508101
 20
51.5155221822583
 10
154.8050292372101
 20
51.55821849745831
 10
154.7888113300101
 20
51.60045052625832
 10
154.7717127108101
 20
51.64250764145831
 10
154.7537417108101
 20
51.68434268305833
 10
154.7349319380101
 20
51.72590084465833
 10
154.7152554356101
 20
51.76743326705832
 10
154.6876585396101
 20
51.82319931665833
 10
154.6587105828101
 20
51.87945818065833
 10
154.6286784084101
 20
51.93616598225833
 10
154.59785317481
 20
51.99324358225831
 10
154.5354015236101
 20
52.10759218385831
  0
LWPOLYLINE
  5
12C
330
2
100
AcDbEntity
  8
0
100
AcDbPolyline
 90
       53
 70
     0
 43
0.0
 10
157.3611788116101
 20
49.6503910814583
 10
157.3593171908101
 20
49.75407951825832
 10
157.3539019652101
 20
49.85365212465831
 10
157.3452638452101
 20
49.94763492625833
 10
157.33358748201
 20
50.03641527025831
 10
157.3185833428101
 20
50.12280772785832
 10
157.29997340201
 20
50.20808091825833
 10
157.2779806164101
 20
50.29057838065833
 10
157.2525580612101
 20
50.36991208145832
 10
157.2231333204101
 20
50.44706037265831
 10
157.1893046388101
 20
50.52199971665832
 10
157.1511464740101
 20
50.59347891665831
 10
157.1119724388101
 20
50.65541110865831
 10
157.0759099268101
 20
50.70324108945832
 10
157.0419627076101
 20
50.73931284625832
 10
157.0063526292101
 20
50.76759410065832
 10
156.9660178132101
 20
50.78995437585831
 10
156.9203054180101
 20
50.80700432465832
 10
156.8698917460101
 20
50.82122657905833
 10
156.8147865300101
 20
50.83376572625832
 10
156.75481403401
 20
50.84590224465833
 10
156.6895096068101
 20
50.85851151825832
 10
156.6182945364101
 20
50.8721481118583
 10
156.5404982132101
 20
50.88779592465832
 10
156.4553823844101
 20
50.90682915345832
 10
156.3620647188101
 20
50.93073859025833
 10
156.2593952756101
 20
50.96128467825832
 10
156.1457776948101
 20
51.00023146385831
 10
156.0197503396101
 20
51.04973027345832
 10
155.8811419268101
 20
51.11222292465831
 10
155.7399540836101
 20
51.18492560465833
 10
155.6068012980101
 20
51.26270538545833
 10
155.4830145012101
 20
51.34365625265832
 10
155.3639195124101
 20
51.43039262865833
 10
155.2405959380101
 20
51.53111102545833
 10
155.1080716788101
 20
51.65384273425832
 10
154.9799291780101
 20
51.78919930545831
 10
154.8672437156101
 20
51.92349631185831
 10
154.77274723561
 20
52.04823457425831
 10
154.6915696948101
 20
52.16468222545831
 10
154.6199468116101
 20
52.27425666225832
 10
154.5559771076101
 20
52.37706838545832
 10
154.4983551972101
 20
52.47311471345833
 10
154.4464087508101
 20
52.5619890910583
 10
154.3997995572101
 20
52.64323690545831
 10
154.3582483956101
 20
52.71678958865831
 10
154.3208888660101
 20
52.78380168305833
 10
154.2863942308101
 20
52.84639601745832
 10
154.2534128324101
 20
52.90691013585831
 10
154.2206664740101
 20
52.96783370705833
 10
154.1877593876101
 20
53.03015724785831
 10
154.1547612388101
 20
53.09401809425833
 10
154.1217268868101
 20
53.15955146225832
  0
LWPOLYLINE
  5
12D
330
2
100
AcDbEntity
  8
0
100
AcDbPolyline
 90
       22
 70
     0
 43
0.0
 10
154.9544708436101
 20
48.28739404785832
 10
154.9672552660101
 20
48.34999286705832
 10
154.9795288516101
 20
48.41273697425831
 10
154.9912842164101
 20
48.47560668145831
 10
155.0025149684101
 20
48.53859353745832
 10
155.0132186756101
 20
48.60173403185831
 10
155.0233938980101
 20
48.66507588625831
 10
155.0330376164101
 20
48.72866306385834
 10
155.04214050761
 20
48.79252449585831
 10
155.0506916724101
 20
48.85668535825832
 10
155.0586788996101
 20
48.92116538065832
 10
155.0660847332101
 20
48.98596252145833
 10
155.0728904100101
 20
49.05106928785833
 10
155.0790768388101
 20
49.11648008145832
 10
155.0846236324101
 20
49.18219684145831
 10
155.0895100756101
 20
49.24822339985832
 10
155.0937147348101
 20
49.31455975825833
 10
155.0972132788101
 20
49.38119060465831
 10
155.0999806500101
 20
49.44809680625832
 10
155.1019913796101
 20
49.51526347985833
 10
155.1032183300101
 20
49.58269277105833
 10
155.1036339476101
 20
49.6503910814583
  0
LWPOLYLINE
  5
12E
330
2
100
AcDbEntity
  8
0
100
AcDbPolyline
 90
       22
 70
     0
 43
0.0
 10
154.6003079908101
 20
47.31206273585832
 10
154.6307956788101
 20
47.36857090225831
 10
154.6604047876101
 20
47.42455740305831
 10
154.6889070452101
 20
47.48004640465831
 10
154.7161087236101
 20
47.53511660145832
 10
154.7355576100101
 20
47.57623509585832
 10
154.7541902548101
 20
47.61745555825831
 10
154.7720229956101
 20
47.65901328945832
 10
154.7890402980101
 20
47.70091171345831
 10
154.8052482996101
 20
47.74315366705832
 10
154.8207716980101
 20
47.78597153905832
 10
154.8308204500101
 20
47.81500690065832
 10
154.8407028836101
 20
47.84467523505833
 10
154.8504883540101
 20
47.87522476305833
 10
154.8602224900101
 20
47.90682479505832
 10
154.8698560244101
 20
47.93932899505833
 10
154.8793159700101
 20
47.97251211665832
 10
154.8930621284101
 20
48.02315881905832
 10
154.9062554692101
 20
48.0746166654583
 10
154.9230245524101
 20
48.14423869585832
 10
154.9390258532101
 20
48.21510588785833
 10
154.9544708436101
 20
48.28739404785832
  0
LWPOLYLINE
  5
12F
330
2
100
AcDbEntity
  8
0
100
AcDbPolyline
 90
       22
 70
     0
 43
0.0
 10
155.1036339476101
 20
49.6503910814583
 10
155.1032197364101
 20
49.71795382225832
 10
155.1019995108101
 20
49.78516359345832
 10
155.1000045908101
 20
49.85201357745831
 10
155.0972651508101
 20
49.91850151345833
 10
155.0938068052101
 20
49.98464337905833
 10
155.0896540244101
 20
50.05045971505831
 10
155.0848300388101
 20
50.11597215985833
 10
155.0793531028101
 20
50.18120675985833
 10
155.0732402292101
 20
50.24619066545833
 10
155.0665075140101
 20
50.31095032465831
 10
155.0591673732101
 20
50.37550939665831
 10
155.0512313108101
 20
50.43989084785832
 10
155.0427103668101
 20
50.50411537105834
 10
155.0336137652101
 20
50.56819459025831
 10
155.0239502740101
 20
50.63213786705833
 10
155.0137283076101
 20
50.69595452945833
 10
155.0029548724101
 20
50.75965380465831
 10
154.9916366228101
 20
50.82324489585833
 10
154.9797798964101
 20
50.88673427185833
 10
154.9673897700101
 20
50.95011748945831
 10
154.9544709988101
 20
51.01338737265831
  0
LWPOLYLINE
  5
130
330
2
100
AcDbEntity
  8
0
100
AcDbPolyline
 90
       33
 70
     0
 43
0.0
 10
154.09704118761
 20
53.20467471025833
 10
154.0625131780101
 20
53.35624451985831
 10
154.0263941572101
 20
53.50937738065829
 10
153.9886551380101
 20
53.6595525198583
 10
153.9492320500101
 20
53.8091311230583
 10
153.90805134281
 20
53.95824811825829
 10
153.86503663721
 20
54.10698793745831
 10
153.8201069284101
 20
54.25542828785831
 10
153.7731655572101
 20
54.4036704894583
 10
153.7406863780101
 20
54.50248487345831
 10
153.7071325492101
 20
54.60155092145831
 10
153.6723681972101
 20
54.70116071505831
 10
153.6362515588101
 20
54.80160293425831
 10
153.5986173492101
 20
54.90315267825829
 10
153.5592944004101
 20
55.0060816478583
 10
153.5285875988101
 20
55.0843457470583
 10
153.4967420756101
 20
55.16364596625831
 10
153.4636653012101
 20
55.2440897838583
 10
153.4292647492101
 20
55.32578467505832
 10
153.3934444676101
 20
55.4088353054583
 10
153.3560948004101
 20
55.4933351038583
 10
153.3171026628101
 20
55.57937469105832
 10
153.2763549732101
 20
55.66704468305829
 10
153.2424122980101
 20
55.7384168350583
 10
153.2071886036101
 20
55.8109450430583
 10
153.1705987972101
 20
55.88468391345831
 10
153.1325577844101
 20
55.95968804305829
 10
153.0929804724101
 20
56.03601203825832
 10
153.0517886356101
 20
56.1136912958583
 10
153.0089315060101
 20
56.1926844142583
 10
152.9643651828101
 20
56.2729307934583
 10
152.9180457668101
 20
56.35436982865832
 10
152.8699293572101
 20
56.4369409182583
  0
LWPOLYLINE
  5
131
330
2
100
AcDbEntity
  8
0
100
AcDbPolyline
 90
       24
 70
     0
 43
0.0
 10
154.5354015236101
 20
52.10759218385831
 10
154.5122440756101
 20
52.1501815294583
 10
154.4895291892101
 20
52.19228843025831
 10
154.4674627028101
 20
52.23363365905831
 10
154.4462504580101
 20
52.27393798865833
 10
154.4260578180101
 20
52.31297631185831
 10
154.4068882340101
 20
52.35074001745832
 10
154.3887046724101
 20
52.38727460945833
 10
154.3714701044101
 20
52.42262559505832
 10
154.3551380084101
 20
52.45685869745833
 10
154.3396238980101
 20
52.49012048785832
 10
154.3248337972101
 20
52.52257775345831
 10
154.3106737236101
 20
52.5543972782583
 10
154.2926185652101
 20
52.59612517425833
 10
154.2753375796101
 20
52.63744494065832
 10
154.2586519572101
 20
52.67878569905832
 10
154.2344498004101
 20
52.74157204305831
 10
154.2111880612101
 20
52.80560227825834
 10
154.1889000084101
 20
52.87099484945833
 10
154.1677393348101
 20
52.9374174430583
 10
154.1478784996101
 20
53.00441365585832
 10
154.1294445828101
 20
53.07148148305831
 10
154.1125184164101
 20
53.13821956145833
 10
154.09704118761
 20
53.20467471025833
  0
LWPOLYLINE
  5
132
330
2
100
AcDbEntity
  8
0
100
AcDbPolyline
 90
       72
 70
     0
 43
0.0
 10
147.6992331140101
 20
61.9266796446583
 10
147.5960219796101
 20
61.95278788465831
 10
147.4896388148101
 20
61.97923142225829
 10
147.38030237321
 20
62.00591963505832
 10
147.2681263700101
 20
62.0327852734583
 10
147.1528043540101
 20
62.05985455505831
 10
147.0339248356101
 20
62.08717706545832
 10
146.9112105252101
 20
62.11477063985831
 10
146.7849209156101
 20
62.1425261070583
 10
146.6554496964101
 20
62.1703025454583
 10
146.5565811668101
 20
62.19104907185831
 10
146.4568264420101
 20
62.21157992945831
 10
146.2557192660101
 20
62.25173816785832
 10
146.0503023284101
 20
62.29106297265829
 10
145.8412986804101
 20
62.32933524145829
 10
145.63055102921
 20
62.36614109585829
 10
145.4201646052101
 20
62.40112870545832
 10
145.2116980500101
 20
62.4340616110583
 10
145.0042610964101
 20
62.4651027806583
 10
144.7968721428101
 20
62.49443857905831
 10
144.5906331604101
 20
62.52194954065831
 10
144.3866566452101
 20
62.54751163025829
 10
144.1840136260101
 20
62.5712883550583
 10
143.9810521828101
 20
62.59350953265832
 10
143.7752700836101
 20
62.61438266065829
 10
143.5649097972101
 20
62.6340191790583
 10
143.3520429332101
 20
62.6521686142583
 10
143.1393200356101
 20
62.66854605105831
 10
142.9278782644101
 20
62.68309074065832
 10
142.7184071348101
 20
62.69580423185832
 10
142.5113189684101
 20
62.7067130798583
 10
142.3071248884101
 20
62.7158523054583
 10
142.1070084100101
 20
62.72326576785829
 10
141.9120250676101
 20
62.72901221585832
 10
141.7220460644101
 20
62.73320111665831
 10
141.5980435764101
 20
62.73518807025832
 10
141.4764293460101
 20
62.73656928945832
 10
141.3575563172101
 20
62.73737699505829
 10
141.2416695940101
 20
62.73764378865831
 10
141.1285829268101
 20
62.7374037886583
 10
141.0180022308101
 20
62.73669149745831
 10
140.8563858932101
 20
62.73481048305831
 10
140.6999496916101
 20
62.7320459022583
 10
140.5487715268101
 20
62.72849148145832
 10
140.4024273396101
 20
62.72420997425832
 10
140.2603675764101
 20
62.7192563966583
 10
140.1220426884101
 20
62.71368576145829
 10
139.9425102500101
 20
62.70537524305831
 10
139.7675826772101
 20
62.69608657745831
 10
139.5962020388101
 20
62.68584080305831
 10
139.4273826628101
 20
62.6746513582583
 10
139.2604279060101
 20
62.6625012558583
 10
139.0947133796101
 20
62.64936590865829
 10
138.9298708532101
 20
62.63524401905832
 10
138.7665567332101
 20
62.6202274574583
 10
138.6056835764101
 20
62.6044313854583
 10
138.4480719316101
 20
62.58797109745831
 10
138.2941743044101
 20
62.57096240945831
 10
138.1443511860101
 20
62.5535212782583
 10
137.9987771988101
 20
62.5357376958583
 10
137.8568835060101
 20
62.51759783825829
 10
137.7179154004101
 20
62.49906192305832
 10
137.5133329652101
 20
62.47040217585831
 10
137.3112988628101
 20
62.4404700430583
 10
137.10983088521
 20
62.40901446705831
 10
136.9083625796101
 20
62.3759471614583
 10
136.7067504596101
 20
62.3412332350583
 10
136.5051271252101
 20
62.30488860785832
 10
136.3036904580101
 20
62.26694326385831
 10
136.1026233844101
 20
62.22743265905831
 10
135.9020671588101
 20
62.18638666385832
 10
135.7020112948101
 20
62.1438073502583
  0
LWPOLYLINE
  5
133
330
2
100
AcDbEntity
  8
0
100
AcDbPolyline
 90
       33
 70
     0
 43
0.0
 10
145.4744227780101
 20
64.43736493265831
 10
145.6558689124101
 20
64.42165171505831
 10
145.8376790644101
 20
64.40298902545831
 10
146.0198173316101
 20
64.3813488142583
 10
146.2022399332101
 20
64.35670470705829
 10
146.3848716148101
 20
64.32903698865832
 10
146.5676292468101
 20
64.29832761265831
 10
146.75043327081
 20
64.26455910865832
 10
146.9332184260101
 20
64.2277163006583
 10
147.1159230148101
 20
64.1877845838583
 10
147.2984845332101
 20
64.14474975025831
 10
147.4808372100101
 20
64.09859915505831
 10
147.6629144660101
 20
64.0493205470583
 10
147.8446231652101
 20
63.99691292625831
 10
148.0257639636101
 20
63.94142031025831
 10
148.2061109620101
 20
63.8828979710583
 10
148.3854413748101
 20
63.82140674225832
 10
148.5635448516101
 20
63.7570296990583
 10
148.7402141476101
 20
63.68985547985829
 10
148.9152241620101
 20
63.6199888190583
 10
149.0882783428101
 20
63.54759881745829
 10
149.2590622788101
 20
63.47287067025831
 10
149.4272738772101
 20
63.39599399825832
 10
149.5926603092101
 20
63.31717611825832
 10
149.7549810644101
 20
63.23662876945832
 10
149.8745566244101
 20
63.17522040145831
 10
149.9921201508101
 20
63.1131060222583
 10
150.1075193364101
 20
63.05043334705832
 10
150.2206018772101
 20
62.98735008465832
 10
150.3312536516101
 20
62.9239843038583
 10
150.4395132756101
 20
62.86038549585831
 10
150.5454575444101
 20
62.7965835086583
 10
150.6491632548101
 20
62.7326081918583
  0
LWPOLYLINE
  5
134
330
2
100
AcDbEntity
  8
0
100
AcDbPolyline
 90
       35
 70
     0
 43
0.0
 10
150.9018938420101
 20
58.7027733582583
 10
150.8284347844101
 20
58.76221223985831
 10
150.7529389876101
 20
58.8223480638583
 10
150.6755977908101
 20
58.88302398865829
 10
150.5965255556101
 20
58.9441475998583
 10
150.5155287268101
 20
59.00588419985831
 10
150.4323367684101
 20
59.06846351665831
 10
150.3467731652101
 20
59.13203493745831
 10
150.2590374964101
 20
59.1964264782583
 10
150.1694233604101
 20
59.26138581265831
 10
150.0782243556101
 20
59.32666061105831
 10
149.9857340852101
 20
59.3919985502583
 10
149.8922461460101
 20
59.4571473006583
 10
149.82156716681
 20
59.50579091985829
 10
149.7501064692101
 20
59.55442775345829
 10
149.6776360676101
 20
59.60319216785831
 10
149.6045587428101
 20
59.6517897422583
 10
149.5070066516101
 20
59.7157420014583
 10
149.4098588804101
 20
59.7783867086583
 10
149.3136023236101
 20
59.8394268958583
 10
149.2185731700101
 20
59.89866121265831
 10
149.12450476361
 20
59.95627076145831
 10
149.0309797396101
 20
60.01253225585831
 10
148.8910572692101
 20
60.0948415438583
 10
148.7515649876101
 20
60.17471023025831
 10
148.6125996500101
 20
60.2521332606583
 10
148.4740584164101
 20
60.32720572785831
 10
148.3357885524101
 20
60.40004776145829
 10
148.1976373220101
 20
60.4707794878583
 10
148.0133384868101
 20
60.56200127025829
 10
147.8285104804101
 20
60.64989697265829
 10
147.6426847604101
 20
60.73467860465831
 10
147.4554961092101
 20
60.81650902705831
 10
147.2669926052101
 20
60.8953544750583
 10
147.07732565641
 20
60.97113203185831
  0
LWPOLYLINE
  5
135
330
2
100
AcDbEntity
  8
0
100
AcDbPolyline
 90
       15
 70
     0
 43
0.0
 10
139.5951050372101
 20
61.80648482225831
 10
139.9115679172101
 20
61.83062742225832
 10
140.2243439428101
 20
61.85071635665829
 10
140.5327046420101
 20
61.8667752350583
 10
140.8359548116101
 20
61.87885265265831
 10
141.1331429572101
 20
61.8870148686583
 10
141.4238690468101
 20
61.8913698958583
 10
141.7081474628101
 20
61.89203705265831
 10
141.9853133508101
 20
61.8891412110583
 10
142.2547817012101
 20
61.88283592465831
 10
142.5164827700101
 20
61.8732884590583
 10
142.7703281812101
 20
61.86067136785831
 10
143.0161098052101
 20
61.84516786225831
 10
143.2538384932101
 20
61.8269541230583
 10
143.4842643348101
 20
61.8061335294583
  0
LWPOLYLINE
  5
136
330
2
100
AcDbEntity
  8
0
100
AcDbPolyline
 90
       73
 70
     0
 43
0.0
 10
147.0773256516101
 20
60.97113203985831
 10
146.8865468580101
 20
61.04380853425832
 10
146.69461469641
 20
61.1133961806583
 10
146.5015157252101
 20
61.17988997585832
 10
146.3072435060101
 20
61.2432832238583
 10
146.1118196052101
 20
61.30356247825829
 10
145.9152725860101
 20
61.36071260625832
 10
145.7175998484101
 20
61.4147261774583
 10
145.5186741044101
 20
61.46562658385829
 10
145.3183368996101
 20
61.5134449214583
 10
145.1164585332101
 20
61.55821514065832
 10
144.9130243220101
 20
61.5999826062583
 10
144.7080483444101
 20
61.63879554225829
 10
144.5531482980101
 20
61.66601202705831
 10
144.3964063876101
 20
61.69171418065829
 10
144.2368400788101
 20
61.7160224654583
 10
144.07346683401
 20
61.73905734705832
 10
143.9056736612101
 20
61.76088009105831
 10
143.7343257444101
 20
61.78131514225831
 10
143.5602938964101
 20
61.80016845585831
 10
143.3829932868101
 20
61.8174088078583
 10
143.2019367108101
 20
61.83302981105831
 10
143.0184831124101
 20
61.8469615950583
 10
142.8344529732101
 20
61.85911841425832
 10
142.6516667748101
 20
61.86941452785831
 10
142.4715819044101
 20
61.87780844145831
 10
142.2942033684101
 20
61.88443568465832
 10
142.1193853524101
 20
61.8894596526583
 10
141.9478311476101
 20
61.89297820945831
 10
141.7803404500101
 20
61.89508083665831
 10
141.6172495012101
 20
61.8958890030583
 10
141.4587786804101
 20
61.89553217585831
 10
141.3051483636101
 20
61.89413982225829
 10
141.15650360841
 20
61.89183476945832
 10
141.0126881828101
 20
61.88871328145831
 10
140.8734705316101
 20
61.88486498385831
 10
140.7386191044101
 20
61.8803795054583
 10
140.6078953284101
 20
61.8753391678583
 10
140.4810325748101
 20
61.86979709905831
 10
140.3577571972101
 20
61.8637991198583
 10
140.2377955460101
 20
61.8573910574583
 10
140.0825824340101
 20
61.84828180625832
 10
139.9324494964101
 20
61.8385948334583
 10
139.7870723140101
 20
61.8283999918583
 10
139.6461612132101
 20
61.8177653886583
 10
139.5095654628101
 20
61.80675215985832
 10
139.3771690772101
 20
61.7954196926583
 10
139.2488455508101
 20
61.78382358705829
 10
139.1244263236101
 20
61.77200427345829
 10
139.0037323204101
 20
61.75999839505831
 10
138.88659821321
 20
61.74784176465831
 10
138.7729136692101
 20
61.73556688465831
 10
138.6625821028101
 20
61.7232054318583
 10
138.5555187156101
 20
61.71078927985831
 10
138.4516858356101
 20
61.6983511086583
 10
138.3510575828101
 20
61.6859237950583
 10
138.2536099252101
 20
61.6735397566583
 10
138.1593262532101
 20
61.6612295742583
 10
138.0681918148101
 20
61.64902336785832
 10
137.9801729588101
 20
61.63694780465831
 10
137.8951604468101
 20
61.62501573905831
 10
137.8130261412101
 20
61.61323657105831
 10
137.7336087556101
 20
61.60161310865831
 10
137.6566143828101
 20
61.59012177425831
 10
137.5817159652101
 20
61.57873239185829
 10
137.4726091588101
 20
61.56177138385832
 10
137.3665366148101
 20
61.54485750385831
 10
137.2625287412101
 20
61.52786648465832
 10
137.1595205828101
 20
61.51063450545831
 10
136.9535364132101
 20
61.47497392305831
 10
136.7470264740101
 20
61.43767844465831
 10
136.5406748452101
 20
61.3991210654583
 10
136.3351838868101
 20
61.3597299886583
  0
LWPOLYLINE
  5
137
330
2
100
AcDbEntity
  8
0
100
AcDbPolyline
 90
       14
 70
     0
 43
0.0
 10
135.0602456788101
 20
61.08151738385831
 10
135.5431496708101
 20
61.1781979918583
 10
135.9857243876101
 20
61.26863257425831
 10
136.3810856756101
 20
61.34855987985829
 10
136.7353624180101
 20
61.41765539345832
 10
137.0576154500101
 20
61.47708303665831
 10
137.3684793300101
 20
61.53058810705829
 10
137.6809043092101
 20
61.58056083025829
 10
137.9969331796101
 20
61.62731142545831
 10
138.3153581844101
 20
61.67060537425832
 10
138.6350782388101
 20
61.71026330705831
 10
138.9555057844101
 20
61.74619497265831
 10
139.2759480372101
 20
61.77831035825829
 10
139.5951050372101
 20
61.80648482225831
  0
LINE
  5
138
330
2
100
AcDbEntity
  8
0
100
AcDbLine
 10
135.68281810441
 20
61.22866556145831
 30
0.0
 11
135.5550782868101
 21
61.20217935025832
 31
0.0
  0
LINE
  5
139
330
2
100
AcDbEntity
  8
0
100
AcDbLine
 10
135.4286042100101
 20
61.1757852046583
 30
0.0
 11
135.2419010628101
 21
61.13657532145831
 31
0.0
  0
LINE
  5
13A
330
2
100
AcDbEntity
  8
0
100
AcDbLine
 10
135.5550782868101
 20
61.20217935025832
 30
0.0
 11
135.4286042100101
 21
61.1757852046583
 31
0.0
  0
LWPOLYLINE
  5
13B
330
2
100
AcDbEntity
  8
0
100
AcDbPolyline
 90
       10
 70
     0
 43
0.0
 10
136.3351838868101
 20
61.3597299886583
 10
136.2693259796101
 20
61.3469192334583
 10
136.2035614276101
 20
61.33401440305831
 10
136.1378983684101
 20
61.3210245902583
 10
136.0723449364101
 20
61.30795888785832
 10
136.0069142436101
 20
61.29482728625831
 10
135.9416393012101
 20
61.28164338705829
 10
135.8765580964101
 20
61.26842169425831
 10
135.8117086180101
 20
61.25517671025829
 10
135.68281810441
 20
61.22866556145831
  0
LWPOLYLINE
  5
13C
330
2
100
AcDbEntity
  8
0
100
AcDbPolyline
 90
       31
 70
     0
 43
0.0
 10
139.9888008820101
 20
64.65263915185829
 10
140.1539245380101
 20
64.65244387825831
 10
140.3150171988101
 20
64.65187744945831
 10
140.4720070164101
 20
64.65096894065831
 10
140.6248221412101
 20
64.64974743185831
 10
140.7733907220101
 20
64.6482420046583
 10
140.9176902868101
 20
64.64648000305832
 10
141.0578958660101
 20
64.64448183985831
 10
141.1942318660101
 20
64.64226619665831
 10
141.3269226948101
 20
64.63985175025832
 10
141.4561927604101
 20
64.6372571822583
 10
141.5822532580101
 20
64.63449981425831
 10
141.7052625332101
 20
64.63159152945832
 10
141.8253657188101
 20
64.62854285425831
 10
141.9427079524101
 20
64.62536431665831
 10
142.05743436521
 20
64.62206644305831
 10
142.1973917108101
 20
64.61779018545832
 10
142.3338124036101
 20
64.61335166865831
 10
142.4670202404101
 20
64.60875865425831
 10
142.59733901321
 20
64.6040189006583
 10
142.7250889348101
 20
64.59913855185831
 10
142.8505758852101
 20
64.5941173022583
 10
142.9741021620101
 20
64.58895323665831
 10
143.0959700660101
 20
64.58364443185832
 10
143.2564202132101
 20
64.57633299345829
 10
143.4152769780101
 20
64.5687288414583
 10
143.5733577796101
 20
64.56079999025831
 10
144.0477789732101
 20
64.5348593278583
 10
144.5238561044101
 20
64.50557949105832
 10
144.9999448756101
 20
64.4730404382583
 10
145.4744227780101
 20
64.43736493265831
  0
LWPOLYLINE
  5
13D
330
2
100
AcDbEntity
  8
0
100
AcDbPolyline
 90
       21
 70
     0
 43
0.0
 10
135.7318104196101
 20
62.45157104945829
 10
135.9798339348101
 20
62.50970033425829
 10
136.2286428228101
 20
62.5784494974583
 10
136.4746397380101
 20
62.65702589425831
 10
136.7173813796101
 20
62.74528880625831
 10
136.9564234020101
 20
62.84307427985831
 10
137.1913315332101
 20
62.95019880625829
 10
137.4216807220101
 20
63.06645954065832
 10
137.6470544996101
 20
63.1916342254583
 10
137.8670454388101
 20
63.32548139665831
 10
138.0812573636101
 20
63.46774170225831
 10
138.2893058724101
 20
63.61813844465832
 10
138.4908186068101
 20
63.7763778542583
 10
138.6854366404101
 20
63.9421501870583
 10
138.8728151716101
 20
64.11513043345832
 10
139.0526239156101
 20
64.2949787086583
 10
139.2245481284101
 20
64.48134121585829
 10
139.3882893236101
 20
64.6738509822583
 10
139.5435660500101
 20
64.87212869105829
 10
139.6901153732101
 20
65.07578457425831
 10
139.7952664804101
 20
65.2335442462583
  0
LWPOLYLINE
  5
13E
330
2
100
AcDbEntity
  8
0
100
AcDbPolyline
 90
        4
 70
     0
 43
0.0
 10
135.2678280196101
 20
62.3689826030583
 10
135.4218758196101
 20
62.3927459886583
 10
135.5785882116101
 20
62.42063699185831
 10
135.7318104196101
 20
62.45157104625829
  0
LWPOLYLINE
  5
13F
330
2
100
AcDbEntity
  8
0
100
AcDbPolyline
 90
        4
 70
     0
 43
0.0
 10
136.6613999204101
 20
65.31595091185829
 10
137.5501342244101
 20
65.3057835822583
 10
138.4376661540101
 20
65.29452106865829
 10
139.3238634260101
 20
65.28216437425832
  0
LWPOLYLINE
  5
140
330
2
100
AcDbEntity
  8
0
100
AcDbPolyline
 90
       23
 70
     0
 43
0.0
 10
136.6613999204101
 20
65.31595091185829
 10
136.6185891636101
 20
65.31626890865831
 10
136.5757370356101
 20
65.31630058705829
 10
136.5328661492101
 20
65.3160482798583
 10
136.4899676852101
 20
65.3155106254583
 10
136.4470407284101
 20
65.3146824014583
 10
136.40406153321
 20
65.3135536270583
 10
136.3612386772101
 20
65.31211766545832
 10
136.3188090244101
 20
65.3103701534583
 10
136.2768529204101
 20
65.3083000350583
 10
136.2354992260101
 20
65.30589511985832
 10
136.1951505428101
 20
65.30315933265831
 10
136.1562042292101
 20
65.3001027022583
 10
136.1188331924101
 20
65.29672078065832
 10
136.0833774996101
 20
65.2930234190583
 10
136.0502650740101
 20
65.28903574385831
 10
136.0198314196101
 20
65.28478052625832
 10
135.9923651188101
 20
65.28027899825829
 10
135.9683016932101
 20
65.27558696305831
 10
135.9479702372101
 20
65.27076516305831
 10
135.9315113732101
 20
65.2658508078583
 10
135.9190855380101
 20
65.26090419345831
 10
135.9107635700101
 20
65.25599613585831
  0
LWPOLYLINE
  5
141
330
2
100
AcDbEntity
  8
0
100
AcDbPolyline
 90
        3
 70
     0
 43
0.0
 10
135.8977857028101
 20
65.24641479825831
 10
135.8947651300101
 20
65.2433175358583
 10
135.8944383588101
 20
65.2425282670583
  0
LWPOLYLINE
  5
142
330
2
100
AcDbEntity
  8
0
100
AcDbPolyline
 90
        3
 70
     0
 43
0.0
 10
135.8977857028101
 20
65.24641479825831
 10
135.9044088532101
 20
65.25119185265831
 10
135.9107635700101
 20
65.25599613585831
  0
LINE
  5
143
330
2
100
AcDbEntity
  8
0
100
AcDbLine
 10
139.3700257652101
 20
64.65263915185829
 30
0.0
 11
139.9888008820101
 21
64.65263915185829
 31
0.0
  0
LWPOLYLINE
  5
144
330
2
100
AcDbEntity
  8
0
100
AcDbPolyline
 90
       21
 70
     0
 43
0.0
 10
139.7952685956101
 20
65.2335442350583
 10
139.7961745700101
 20
65.2366748830583
 10
139.7944410948101
 20
65.2402500462583
 10
139.7898125572101
 20
65.24372183665829
 10
139.7823972196101
 20
65.24708774865832
 10
139.7723009444101
 20
65.25033997425831
 10
139.7596160356101
 20
65.2534736510583
 10
139.7443965076101
 20
65.25648903825831
 10
139.7267231156101
 20
65.25937763825831
 10
139.7066151828101
 20
65.26213944305832
 10
139.6840966884101
 20
65.2647699182583
 10
139.6592094036101
 20
65.26726101585831
 10
139.6318925684101
 20
65.26961267345831
 10
139.6021827604101
 20
65.2718133950583
 10
139.5700406964101
 20
65.27385660145831
 10
139.5354014676101
 20
65.2757345022583
 10
139.4982866500101
 20
65.27743279665831
 10
139.4585723492101
 20
65.27894223985831
 10
139.4163012340101
 20
65.2802447630583
 10
139.3713976532101
 20
65.28132521425831
 10
139.3238634260101
 20
65.28216437425832
  0
LWPOLYLINE
  5
145
330
2
100
AcDbEntity
  8
0
100
AcDbPolyline
 90
       49
 70
     0
 43
0.0
 10
150.6491632548101
 20
62.7326081918583
 10
150.7539968132101
 20
62.66579604465829
 10
150.8576639556101
 20
62.59695662065832
 10
150.9601521732101
 20
62.5260848686583
 10
151.0614288788101
 20
62.45319289425831
 10
151.1613811940101
 20
62.3783614222583
 10
151.2598761652101
 20
62.3016883278583
 10
151.3567951732101
 20
62.22326427505831
 10
151.4520769508101
 20
62.14315105585831
 10
151.5456745620101
 20
62.06140324785829
 10
151.6375322404101
 20
61.9780873038583
 10
151.7275588900101
 20
61.8933171918583
 10
151.8156545764101
 20
61.8072187550583
 10
151.9017314740101
 20
61.71991028785831
 10
151.9857501748101
 20
61.63147990065832
 10
152.0676833716101
 20
61.54200815025831
 10
152.1474965332101
 20
61.45158820945829
 10
152.2251262020101
 20
61.3603636974583
 10
152.3005016916101
 20
61.26849084625831
 10
152.3735642612101
 20
61.1761167486583
 10
152.4443029684101
 20
61.0833519310583
 10
152.5127188164101
 20
60.9902977838583
 10
152.5788196692101
 20
60.89704637585831
 10
152.6426408324101
 20
60.8036524926583
 10
152.7042244708101
 20
60.7101615966583
 10
152.7636127876101
 20
60.6166179134583
 10
152.8208481316101
 20
60.52306069905831
 10
152.8759728868101
 20
60.42952796625832
 10
152.9290319748101
 20
60.3360505038583
 10
152.9800804740101
 20
60.2426302014583
 10
153.0291759972101
 20
60.14926172145831
 10
153.0763721764101
 20
60.05594486705831
 10
153.1217067012101
 20
59.96270001745831
 10
153.1652132788101
 20
59.86955268945831
 10
153.2069264116101
 20
59.7765243070583
 10
153.2468837796101
 20
59.6836199086583
 10
153.2851238612101
 20
59.59084043985831
 10
153.3216790548101
 20
59.49820373105831
 10
153.3565574468101
 20
59.40579518065831
 10
153.3897610436101
 20
59.31371707825829
 10
153.4212974052101
 20
59.2220590238583
 10
153.4511962804101
 20
59.13085986545832
 10
153.4794929748101
 20
59.04014575825832
 10
153.5062200548101
 20
58.9499542350583
 10
153.5313991716101
 20
58.86036831985831
 10
153.5550492404101
 20
58.77148241105832
 10
153.5771935252101
 20
58.68337748945831
 10
153.5978726868101
 20
58.5960808718583
 10
153.6171317316101
 20
58.50960646065832
  0
LWPOLYLINE
  5
146
330
2
100
AcDbEntity
  8
0
100
AcDbPolyline
 90
       59
 70
     0
 43
0.0
 10
153.6171317316101
 20
58.50960646065832
 10
153.5588400068101
 20
58.5689305566583
 10
153.5013859396101
 20
58.62664579025829
 10
153.4448788228101
 20
58.68269393265831
 10
153.3893872756101
 20
58.7370552094583
 10
153.3348172404101
 20
58.78986368785831
 10
153.2810339924101
 20
58.84129189425832
 10
153.2279113540101
 20
58.8915007614583
 10
153.1753573444101
 20
58.94060485585831
 10
153.1232885316101
 20
58.98870714865831
 10
153.0458904692101
 20
59.05922009585831
 10
152.9689823396101
 20
59.12813401585831
 10
152.8921429732101
 20
59.1958693390583
 10
152.8149226612101
 20
59.26283487665831
 10
152.7368578468101
 20
59.32943372945832
 10
152.6574581332101
 20
59.39605777905831
 10
152.5761854420101
 20
59.4631186830583
 10
152.4923378484101
 20
59.53111840145831
 10
152.4346432884101
 20
59.5772268814583
 10
152.3752612276101
 20
59.62410959825831
 10
152.3139787380101
 20
59.67189041585831
 10
152.2505852244101
 20
59.72068700465832
 10
152.1848794164101
 20
59.7705922894583
 10
152.1166623764101
 20
59.8216930062583
 10
152.0457378756101
 20
59.87406919825829
 10
151.9719205124101
 20
59.9277741246583
 10
151.8950275908101
 20
59.98285435505829
 10
151.8148827284101
 20
60.0393475134583
 10
151.7313347780101
 20
60.09725544785831
 10
151.6442389044101
 20
60.1565710622583
 10
151.5534458884101
 20
60.2172854878583
 10
151.4587889780101
 20
60.27938275665829
 10
151.3600970388101
 20
60.34284512785831
 10
151.2571916148101
 20
60.40765354705832
 10
151.1498649812101
 20
60.47378372305832
 10
151.0379020932101
 20
60.5412100526583
 10
150.95075861961
 20
60.5926111262583
 10
150.8607991444101
 20
60.64469285905829
 10
150.7679365220101
 20
60.6974212254583
 10
150.6720836084101
 20
60.75076220145831
 10
150.5731892820101
 20
60.80466195185829
 10
150.4713465172101
 20
60.85898739985831
 10
150.3666843156101
 20
60.9135856606583
 10
150.25933167561
 20
60.96830384945829
 10
150.1122427284101
 20
61.04119062385831
 10
149.9609663060101
 20
61.11369769905832
 10
149.8058686020101
 20
61.18550396945829
 10
149.6472683620101
 20
61.25631701265831
 10
149.4852945284101
 20
61.32595913425831
 10
149.3200285956101
 20
61.39428132785829
 10
149.1515514532101
 20
61.4611363502583
 10
148.9799415540101
 20
61.52638401585829
 10
148.8052767476101
 20
61.58988591185831
 10
148.6276459988101
 20
61.65150334705831
 10
148.4471827284101
 20
61.7110965582583
 10
148.26403147721
 20
61.76852551185831
 10
148.0783122612101
 20
61.82365954705829
 10
147.8900470068101
 20
61.87640551665831
 10
147.6992331140101
 20
61.9266796446583
  0
LWPOLYLINE
  5
147
330
2
100
AcDbEntity
  8
0
100
AcDbPolyline
 90
       18
 70
     0
 43
0.0
 10
162.4199722868101
 20
54.04918740145831
 10
162.3560938820101
 20
54.24061232465831
 10
162.2897545300101
 20
54.4313174318583
 10
162.2210576692101
 20
54.62110889745829
 10
162.1499967252101
 20
54.81012300945829
 10
162.07659957321
 20
54.99838250225829
 10
162.0011181716101
 20
55.18535690385832
 10
161.9233842852101
 20
55.37157057265829
 10
161.8433406180101
 20
55.55722628785829
 10
161.7610513924101
 20
55.74222995185832
 10
161.6765389428101
 20
55.9265941902583
 10
161.5897927172101
 20
56.1104070078583
 10
161.5007859988101
 20
56.2937783918583
 10
161.4094527876101
 20
56.4768819054583
 10
161.3157221620101
 20
56.65988058545829
 10
161.2195571172101
 20
56.8428553502583
 10
161.1209240308101
 20
57.02587020945831
 10
161.0197654996101
 20
57.2090238174583
  0
LWPOLYLINE
  5
148
330
2
100
AcDbEntity
  8
0
100
AcDbPolyline
 90
        5
 70
     0
 43
0.0
 10
163.9545527076101
 20
55.8449002542583
 10
163.8472048436101
 20
56.19895413265831
 10
163.5890349956101
 20
56.97361114865831
 10
163.3027469940101
 20
57.7357724638583
 10
162.9892180740101
 20
58.48370774545831
  0
LWPOLYLINE
  5
149
330
2
100
AcDbEntity
  8
0
100
AcDbPolyline
 90
        7
 70
     0
 43
0.0
 10
164.8160019268101
 20
50.75713759505831
 10
164.8053987572101
 20
50.95112148625833
 10
164.7468715124101
 20
51.71584071985833
 10
164.6632656980101
 20
52.46642136145831
 10
164.5557916228101
 20
53.20228179505832
 10
164.4257286884101
 20
53.92253368625834
 10
164.2770970036101
 20
54.61682531985829
  0
LWPOLYLINE
  5
14A
330
2
100
AcDbEntity
  8
0
100
AcDbPolyline
 90
       24
 70
     0
 43
0.0
 10
163.1220807716101
 20
49.6503910814583
 10
163.1207321300101
 20
49.84658455185831
 10
163.1167123316101
 20
50.04165013105833
 10
163.1100442628101
 20
50.23581738225832
 10
163.1007148196101
 20
50.4297552446583
 10
163.0887324148101
 20
50.62328894225831
 10
163.0741149060101
 20
50.81624645585833
 10
163.0568599188101
 20
51.00876564465832
 10
163.0369646500101
 20
51.20091920945833
 10
163.0144291972101
 20
51.39272418865832
 10
162.9892524356101
 20
51.58419879985832
 10
162.9614312516101
 20
51.77536543025832
 10
162.9309596996101
 20
51.96625385745832
 10
162.8978264340101
 20
52.15691324305831
 10
162.8620257508101
 20
52.34734723505832
 10
162.8235525380101
 20
52.53755313585833
 10
162.7823872884101
 20
52.7275906542583
 10
162.7385018164101
 20
52.91753876465833
 10
162.6919182916101
 20
53.10725607025833
 10
162.6425814372101
 20
53.29691875505833
 10
162.5902357796101
 20
53.48961929585832
 10
162.5353756276101
 20
53.67901066225829
 10
162.4784767716101
 20
53.86590607665832
 10
162.4199722868101
 20
54.04918740145831
  0
LWPOLYLINE
  5
14B
330
2
100
AcDbEntity
  8
0
100
AcDbPolyline
 90
        3
 70
     0
 43
0.0
 10
164.8160019268101
 20
48.5436445662583
 10
164.8279519588101
 20
48.81472351505832
 10
164.8437946948101
 20
49.6503910814583
  0
LWPOLYLINE
  5
14C
330
2
100
AcDbEntity
  8
0
100
AcDbPolyline
 90
        3
 70
     0
 43
0.0
 10
164.8437946948101
 20
49.6503910814583
 10
164.8279519588101
 20
50.48605864625833
 10
164.8160019268101
 20
50.75713759505831
  0
LWPOLYLINE
  5
14D
330
2
100
AcDbEntity
  8
0
100
AcDbPolyline
 90
        4
 70
     0
 43
0.0
 10
164.2770971876101
 20
54.61682452465831
 10
164.16805801961
 20
55.06560570225829
 10
164.0425817748101
 20
55.5371136830583
 10
163.9545527076101
 20
55.8449002542583
  0
LINE
  5
14E
330
2
100
AcDbEntity
  8
0
100
AcDbLine
 10
164.2764176052101
 20
54.61941090705829
 30
0.0
 11
164.2770970036101
 21
54.61682531985829
 31
0.0
  0
LWPOLYLINE
  5
14F
330
2
100
AcDbEntity
  8
0
100
AcDbPolyline
 90
        4
 70
     0
 43
0.0
 10
145.7459887092101
 20
70.62897668465831
 10
145.4463545636101
 20
70.6407879982583
 10
145.1465192260101
 20
70.64791015505829
 10
144.8465160180101
 20
70.65034125425831
  0
ENDSEC
  0
SECTION
  2
OBJECTS
  0
DICTIONARY
  5
A
330
0
100
AcDbDictionary
  3
ACAD_GROUP
350
23
  3
ACAD_LAYOUT
350
9
  3
ACAD_MLINESTYLE
350
24
  3
ACAD_PLOTSETTINGS
350
25
  3
ACAD_PLOTSTYLENAME
350
26
  3
ACDBHEADERROUNDTRIPXREC
350
1C6
  3
ACDBVARIABLEDICTIONARY
350
150
  0
DICTIONARY
  5
180
330
2
100
AcDbDictionary
280
     1
  3
ACAD_LAYOUTSELFREF
360
1E7
  0
DICTIONARY
  5
186
330
B
100
AcDbDictionary
280
     1
  3
ACAD_LAYOUTSELFREF
360
1E8
  0
DICTIONARY
  5
23
102
{ACAD_REACTORS
330
A
102
}
330
A
100
AcDbDictionary
  0
DICTIONARY
  5
9
102
{ACAD_REACTORS
330
A
102
}
330
A
100
AcDbDictionary
  0
DICTIONARY
  5
24
102
{ACAD_REACTORS
330
A
102
}
330
A
100
AcDbDictionary
  3
STANDARD
350
27
  0
DICTIONARY
  5
25
102
{ACAD_REACTORS
330
A
102
}
330
A
100
AcDbDictionary
  0
ACDBDICTIONARYWDFLT
  5
26
102
{ACAD_REACTORS
330
A
102
}
330
A
100
AcDbDictionary
281
     1
  3
Normal
350
5
100
AcDbDictionaryWithDefault
340
5
  0
DICTIONARY
  5
1C6
102
{ACAD_REACTORS
330
A
102
}
330
A
100
AcDbDictionary
  3
CEPSNTYPE
350
1D0
  3
DIMSTYLEDATA
350
1D4
  3
FINGERPRINTGUID
350
1D1
  3
HYPERLINKBASE
350
1C9
  3
INSUNITS
350
1CF
  3
LAYOUTDICT
350
1CB
  3
LWETCUNION
350
1CE
  3
PLOTSETDICT
350
1CC
  3
PLOTSTYLNAMDICT
350
1CD
  3
PSVPSCALE
350
1D3
  3
PUCSBASE
350
1D7
  3
PUCSORGBACK
350
1DD
  3
PUCSORGBOTTOM
350
1D9
  3
PUCSORGFRONT
350
1DC
  3
PUCSORGLEFT
350
1DA
  3
PUCSORGRIGHT
350
1DB
  3
PUCSORGTOP
350
1D8
  3
PUCSORTHOREF
350
1D5
  3
PUCSORTHOVIEW
350
1D6
  3
STYLESHEET
350
1CA
  3
TSTACKALIGN
350
1C7
  3
TSTACKSIZE
350
1C8
  3
UCSBASE
350
1E0
  3
UCSORGBACK
350
1E6
  3
UCSORGBOTTOM
350
1E2
  3
UCSORGFRONT
350
1E5
  3
UCSORGLEFT
350
1E3
  3
UCSORGRIGHT
350
1E4
  3
UCSORGTOP
350
1E1
  3
UCSORTHOREF
350
1DE
  3
UCSORTHOVIEW
350
1DF
  3
VERSIONGUID
350
1D2
  0
DICTIONARY
  5
150
102
{ACAD_REACTORS
330
A
102
}
330
A
100
AcDbDictionary
  3
DIMASSOC
350
152
  3
HIDETEXT
350
151
  0
XRECORD
  5
1E7
102
{ACAD_REACTORS
330
180
102
}
330
180
100
AcDbXrecord
340
2
  0
XRECORD
  5
1E8
102
{ACAD_REACTORS
330
186
102
}
330
186
100
AcDbXrecord
340
B
  0
MLINESTYLE
  5
27
102
{ACAD_REACTORS
330
24
102
}
330
24
100
AcDbMlineStyle
  2
STANDARD
 70
     0
  3

 62
   256
 51
90.0
 52
90.0
 71
     2
 49
0.5
 62
   256
  6
BYLAYER
 49
-0.5
 62
   256
  6
BYLAYER
  0
ACDBPLACEHOLDER
  5
5
102
{ACAD_REACTORS
330
26
102
}
330
0
100
AcDbPlaceHolder
280
     0
  0
XRECORD
  5
1D0
102
{ACAD_REACTORS
330
1C6
102
}
330
1C6
100
AcDbXrecord
 90
        0
  0
XRECORD
  5
1D4
102
{ACAD_REACTORS
330
1C6
102
}
330
1C6
100
AcDbXrecord
1000
DSTYLE
1002
{
1070
   341
340
1E
1070
   342
340
1E
1002
}
  0
XRECORD
  5
1D1
102
{ACAD_REACTORS
330
1C6
102
}
330
1C6
100
AcDbXrecord
  1

  0
XRECORD
  5
1C9
102
{ACAD_REACTORS
330
1C6
102
}
330
1C6
100
AcDbXrecord
  1

  0
XRECORD
  5
1CF
102
{ACAD_REACTORS
330
1C6
102
}
330
1C6
100
AcDbXrecord
 90
        1
  0
XRECORD
  5
1CB
102
{ACAD_REACTORS
330
1C6
102
}
330
1C6
100
AcDbXrecord
340
9
  0
XRECORD
  5
1CE
102
{ACAD_REACTORS
330
1C6
102
}
330
1C6
100
AcDbXrecord
 90
    10781
  0
XRECORD
  5
1CC
102
{ACAD_REACTORS
330
1C6
102
}
330
1C6
100
AcDbXrecord
340
25
  0
XRECORD
  5
1CD
102
{ACAD_REACTORS
330
1C6
102
}
330
1C6
100
AcDbXrecord
340
26
  0
XRECORD
  5
1D3
102
{ACAD_REACTORS
330
1C6
102
}
330
1C6
100
AcDbXrecord
 40
0.0
  0
XRECORD
  5
1D7
102
{ACAD_REACTORS
330
1C6
102
}
330
1C6
100
AcDbXrecord
340
0
  0
XRECORD
  5
1DD
102
{ACAD_REACTORS
330
1C6
102
}
330
1C6
100
AcDbXrecord
 10
0.0
 20
0.0
 30
0.0
  0
XRECORD
  5
1D9
102
{ACAD_REACTORS
330
1C6
102
}
330
1C6
100
AcDbXrecord
 10
0.0
 20
0.0
 30
0.0
  0
XRECORD
  5
1DC
102
{ACAD_REACTORS
330
1C6
102
}
330
1C6
100
AcDbXrecord
 10
0.0
 20
0.0
 30
0.0
  0
XRECORD
  5
1DA
102
{ACAD_REACTORS
330
1C6
102
}
330
1C6
100
AcDbXrecord
 10
0.0
 20
0.0
 30
0.0
  0
XRECORD
  5
1DB
102
{ACAD_REACTORS
330
1C6
102
}
330
1C6
100
AcDbXrecord
 10
0.0
 20
0.0
 30
0.0
  0
XRECORD
  5
1D8
102
{ACAD_REACTORS
330
1C6
102
}
330
1C6
100
AcDbXrecord
 10
0.0
 20
0.0
 30
0.0
  0
XRECORD
  5
1D5
102
{ACAD_REACTORS
330
1C6
102
}
330
1C6
100
AcDbXrecord
340
0
  0
XRECORD
  5
1D6
102
{ACAD_REACTORS
330
1C6
102
}
330
1C6
100
AcDbXrecord
 70
     0
  0
XRECORD
  5
1CA
102
{ACAD_REACTORS
330
1C6
102
}
330
1C6
100
AcDbXrecord
  1

  0
XRECORD
  5
1C7
102
{ACAD_REACTORS
330
1C6
102
}
330
1C6
100
AcDbXrecord
 90
        1
  0
XRECORD
  5
1C8
102
{ACAD_REACTORS
330
1C6
102
}
330
1C6
100
AcDbXrecord
 90
       70
  0
XRECORD
  5
1E0
102
{ACAD_REACTORS
330
1C6
102
}
330
1C6
100
AcDbXrecord
340
0
  0
XRECORD
  5
1E6
102
{ACAD_REACTORS
330
1C6
102
}
330
1C6
100
AcDbXrecord
 10
0.0
 20
0.0
 30
0.0
  0
XRECORD
  5
1E2
102
{ACAD_REACTORS
330
1C6
102
}
330
1C6
100
AcDbXrecord
 10
0.0
 20
0.0
 30
0.0
  0
XRECORD
  5
1E5
102
{ACAD_REACTORS
330
1C6
102
}
330
1C6
100
AcDbXrecord
 10
0.0
 20
0.0
 30
0.0
  0
XRECORD
  5
1E3
102
{ACAD_REACTORS
330
1C6
102
}
330
1C6
100
AcDbXrecord
 10
0.0
 20
0.0
 30
0.0
  0
XRECORD
  5
1E4
102
{ACAD_REACTORS
330
1C6
102
}
330
1C6
100
AcDbXrecord
 10
0.0
 20
0.0
 30
0.0
  0
XRECORD
  5
1E1
102
{ACAD_REACTORS
330
1C6
102
}
330
1C6
100
AcDbXrecord
 10
0.0
 20
0.0
 30
0.0
  0
XRECORD
  5
1DE
102
{ACAD_REACTORS
330
1C6
102
}
330
1C6
100
AcDbXrecord
340
0
  0
XRECORD
  5
1DF
102
{ACAD_REACTORS
330
1C6
102
}
330
1C6
100
AcDbXrecord
 70
     0
  0
XRECORD
  5
1D2
102
{ACAD_REACTORS
330
1C6
102
}
330
1C6
100
AcDbXrecord
  1
{D934CC6A-77D0-42BB-BB5C-1011368DA909}
  0
DICTIONARYVAR
  5
152
102
{ACAD_REACTORS
330
150
102
}
330
150
100
DictionaryVariables
280
     0
  1
1
  0
DICTIONARYVAR
  5
151
102
{ACAD_REACTORS
330
150
102
}
330
150
100
DictionaryVariables
280
     0
  1
1
  0
ENDSEC
  0
EOF
