  0
SECTION
  2
HEADER
  9
$ACADVER
  1
AC1014
  9
$ACADMAINTVER
 70
     9
  9
$DWGCODEPAGE
  3
ANSI_1252
  9
$INSBASE
 10
-41.18333369948252
 20
42.15039108145831
 30
0.0
  9
$EXTMIN
 10
-77.18620154005368
 20
28.64595771098663
 30
-0.0015258207003583
  9
$EXTMAX
 10
-5.179127209746638
 20
70.65600412657437
 30
0.0000000349246037
  9
$LIMMIN
 10
0.0
 20
0.0
  9
$LIMMAX
 10
17.0
 20
11.0
  9
$ORTHOMODE
 70
     1
  9
$REGENMODE
 70
     1
  9
$FILLMODE
 70
     1
  9
$QTEXTMODE
 70
     0
  9
$MIRRTEXT
 70
     1
  9
$DRAGMODE
 70
     2
  9
$LTSCALE
 40
2.0
  9
$OSMODE
 70
    55
  9
$ATTMODE
 70
     1
  9
$TEXTSIZE
 40
0.2
  9
$TRACEWID
 40
0.05
  9
$TEXTSTYLE
  7
STANDARD
  9
$CLAYER
  8
0
  9
$CELTYPE
  6
BYLAYER
  9
$CECOLOR
 62
   256
  9
$CELTSCALE
 40
1.0
  9
$DELOBJ
 70
     1
  9
$DISPSILH
 70
     0
  9
$DIMSCALE
 40
16.0
  9
$DIMASZ
 40
0.1875
  9
$DIMEXO
 40
0.0625
  9
$DIMDLI
 40
0.38
  9
$DIMRND
 40
0.0
  9
$DIMDLE
 40
0.0
  9
$DIMEXE
 40
0.18
  9
$DIMTP
 40
0.0
  9
$DIMTM
 40
0.0
  9
$DIMTXT
 40
0.125
  9
$DIMCEN
 40
0.09
  9
$DIMTSZ
 40
0.0
  9
$DIMTOL
 70
     0
  9
$DIMLIM
 70
     0
  9
$DIMTIH
 70
     1
  9
$DIMTOH
 70
     1
  9
$DIMSE1
 70
     0
  9
$DIMSE2
 70
     0
  9
$DIMTAD
 70
     0
  9
$DIMZIN
 70
     4
  9
$DIMBLK
  1
_FILLED
  9
$DIMASO
 70
     1
  9
$DIMSHO
 70
     1
  9
$DIMPOST
  1

  9
$DIMAPOST
  1

  9
$DIMALT
 70
     0
  9
$DIMALTD
 70
     2
  9
$DIMALTF
 40
25.4
  9
$DIMLFAC
 40
1.0
  9
$DIMTOFL
 70
     0
  9
$DIMTVP
 40
0.0
  9
$DIMTIX
 70
     0
  9
$DIMSOXD
 70
     0
  9
$DIMSAH
 70
     0
  9
$DIMBLK1
  1

  9
$DIMBLK2
  1

  9
$DIMSTYLE
  2
S_TANDARD
  9
$DIMCLRD
 70
     0
  9
$DIMCLRE
 70
     0
  9
$DIMCLRT
 70
     0
  9
$DIMTFAC
 40
1.0
  9
$DIMGAP
 40
0.09
  9
$DIMJUST
 70
     0
  9
$DIMSD1
 70
     0
  9
$DIMSD2
 70
     0
  9
$DIMTOLJ
 70
     1
  9
$DIMTZIN
 70
     4
  9
$DIMALTZ
 70
     0
  9
$DIMALTTZ
 70
     0
  9
$DIMFIT
 70
     3
  9
$DIMUPT
 70
     0
  9
$DIMUNIT
 70
     2
  9
$DIMDEC
 70
     3
  9
$DIMTDEC
 70
     3
  9
$DIMALTU
 70
     2
  9
$DIMALTTD
 70
     2
  9
$DIMTXSTY
  7
STANDARD
  9
$DIMAUNIT
 70
     0
  9
$LUNITS
 70
     2
  9
$LUPREC
 70
     4
  9
$SKETCHINC
 40
0.1
  9
$FILLETRAD
 40
0.375
  9
$AUNITS
 70
     0
  9
$AUPREC
 70
     0
  9
$MENU
  1
acad
  9
$ELEVATION
 40
0.0
  9
$PELEVATION
 40
0.0
  9
$THICKNESS
 40
0.0
  9
$LIMCHECK
 70
     0
  9
$BLIPMODE
 70
     0
  9
$CHAMFERA
 40
0.0
  9
$CHAMFERB
 40
0.0
  9
$CHAMFERC
 40
0.0
  9
$CHAMFERD
 40
0.0
  9
$SKPOLY
 70
     0
  9
$TDCREATE
 40
2453681.666029074
  9
$TDUPDATE
 40
2453685.476550092
  9
$TDINDWG
 40
0.0292986227
  9
$TDUSRTIMER
 40
0.0292986227
  9
$USRTIMER
 70
     1
  9
$ANGBASE
 50
0.0
  9
$ANGDIR
 70
     0
  9
$PDMODE
 70
     3
  9
$PDSIZE
 40
0.3125
  9
$PLINEWID
 40
0.0
  9
$COORDS
 70
     1
  9
$SPLFRAME
 70
     0
  9
$SPLINETYPE
 70
     6
  9
$SPLINESEGS
 70
     8
  9
$ATTDIA
 70
     0
  9
$ATTREQ
 70
     1
  9
$HANDLING
 70
 22529
  9
$HANDSEED
  5
1E9
  9
$SURFTAB1
 70
     6
  9
$SURFTAB2
 70
     6
  9
$SURFTYPE
 70
     6
  9
$SURFU
 70
     6
  9
$SURFV
 70
     6
  9
$UCSNAME
  2

  9
$UCSORG
 10
0.0
 20
0.0
 30
0.0
  9
$UCSXDIR
 10
1.0
 20
0.0
 30
0.0
  9
$UCSYDIR
 10
0.0
 20
1.0
 30
0.0
  9
$PUCSNAME
  2

  9
$PUCSORG
 10
0.0
 20
0.0
 30
0.0
  9
$PUCSXDIR
 10
1.0
 20
0.0
 30
0.0
  9
$PUCSYDIR
 10
0.0
 20
1.0
 30
0.0
  9
$USERI1
 70
     0
  9
$USERI2
 70
     0
  9
$USERI3
 70
     0
  9
$USERI4
 70
     0
  9
$USERI5
 70
     0
  9
$USERR1
 40
0.0
  9
$USERR2
 40
0.0
  9
$USERR3
 40
0.0
  9
$USERR4
 40
0.0
  9
$USERR5
 40
0.0
  9
$WORLDVIEW
 70
     1
  9
$SHADEDGE
 70
     3
  9
$SHADEDIF
 70
    70
  9
$TILEMODE
 70
     1
  9
$MAXACTVP
 70
    16
  9
$PINSBASE
 10
0.0
 20
0.0
 30
0.0
  9
$PLIMCHECK
 70
     0
  9
$PEXTMIN
 10
1.000000000000000E+20
 20
1.000000000000000E+20
 30
1.000000000000000E+20
  9
$PEXTMAX
 10
-1.000000000000000E+20
 20
-1.000000000000000E+20
 30
-1.000000000000000E+20
  9
$PLIMMIN
 10
0.0
 20
0.0
  9
$PLIMMAX
 10
12.0
 20
9.0
  9
$UNITMODE
 70
     0
  9
$VISRETAIN
 70
     0
  9
$PLINEGEN
 70
     1
  9
$PSLTSCALE
 70
     0
  9
$TREEDEPTH
 70
  3020
  9
$PICKSTYLE
 70
     1
  9
$CMLSTYLE
  2
STANDARD
  9
$CMLJUST
 70
     0
  9
$CMLSCALE
 40
1.0
  9
$PROXYGRAPHICS
 70
     0
  9
$MEASUREMENT
 70
     0
  0
ENDSEC
  0
SECTION
  2
CLASSES
  0
CLASS
  1
ACDBDICTIONARYWDFLT
  2
AcDbDictionaryWithDefault
  3
AutoCAD 2000
 90
        0
280
     0
281
     0
  0
CLASS
  1
ACDBPLACEHOLDER
  2
AcDbPlaceHolder
  3
AutoCAD 2000
 90
        0
280
     0
281
     0
  0
CLASS
  1
LAYOUT
  2
AcDbLayout
  3
AutoCAD 2000
 90
        0
280
     0
281
     0
  0
CLASS
  1
LWPOLYLINE
  2
AcDbPolyline
  3
AutoCAD 2000
 90
        0
280
     0
281
     1
  0
CLASS
  1
IMAGE
  2
AcDbRasterImage
  3
ISM
 90
      127
280
     0
281
     1
  0
CLASS
  1
OLE2FRAME
  2
AcDbOle2Frame
  3
AutoCAD 2000
 90
        0
280
     0
281
     1
  0
CLASS
  1
HATCH
  2
AcDbHatch
  3
AutoCAD 2000
 90
        0
280
     0
281
     1
  0
CLASS
  1
DICTIONARYVAR
  2
AcDbDictionaryVar
  3
AutoCAD 2000
 90
        0
280
     0
281
     0
  0
CLASS
  1
RASTERVARIABLES
  2
AcDbRasterVariables
  3
ISM
 90
        0
280
     0
281
     0
  0
CLASS
  1
IMAGEDEF
  2
AcDbRasterImageDef
  3
ISM
 90
        0
280
     0
281
     0
  0
CLASS
  1
IMAGEDEF_REACTOR
  2
AcDbRasterImageDefReactor
  3
ISM
 90
        1
280
     0
281
     0
  0
CLASS
  1
IDBUFFER
  2
AcDbIdBuffer
  3
AutoCAD 2000
 90
        0
280
     0
281
     0
  0
CLASS
  1
SPATIAL_FILTER
  2
AcDbSpatialFilter
  3
AutoCAD 2000
 90
        0
280
     0
281
     0
  0
CLASS
  1
XRECORD
  2
AcDbXrecord
  3
AutoCAD 2000
 90
        0
280
     0
281
     0
  0
CLASS
  1
SORTENTSTABLE
  2
AcDbSortentsTable
  3
AutoCAD 2000
 90
        0
280
     0
281
     0
  0
CLASS
  1
LAYER_INDEX
  2
AcDbLayerIndex
  3
AutoCAD 2000
 90
        0
280
     0
281
     0
  0
CLASS
  1
SPATIAL_INDEX
  2
AcDbSpatialIndex
  3
AutoCAD 2000
 90
        0
280
     0
281
     0
  0
CLASS
  1
OBJECT_PTR
  2
CAseDLPNTableRecord
  3
ASE-LPNTableRecord
 90
        1
280
     0
281
     0
  0
CLASS
  1
PLOTSETTINGS
  2
AcDbPlotSettings
  3
AutoCAD 2000
 90
        0
280
     0
281
     0
  0
CLASS
  1
VBA_PROJECT
  2
AcDbVbaProject
  3
acadvba
 90
        0
280
     0
281
     0
  0
CLASS
  1
WIPEOUT
  2
AcDbWipeout
  3
WipeOut|AutoCAD Express Tool|expresstools@autodesk.com
 90
      127
280
     1
281
     1
  0
CLASS
  1
WIPEOUTVARIABLES
  2
AcDbWipeoutVariables
  3
WipeOut|AutoCAD Express Tool|expresstools@autodesk.com
 90
        0
280
     1
281
     0
  0
CLASS
  1
RTEXT
  2
RText
  3
RText|AutoCAD Express Tool|expresstools@autodesk.com
 90
        0
280
     1
281
     1
  0
CLASS
  1
ARCALIGNEDTEXT
  2
AcDbArcAlignedText
  3
ATEXT|AutoCAD Express Tool|expresstools@autodesk.com
 90
        0
280
     1
281
     1
  0
CLASS
  1
LONG_TRANSACTION
  2
AcDbLongTransaction
  3
AutoCAD 2000
 90
        0
280
     0
281
     0
  0
CLASS
  1
LWPOLYLINE
  2
AcDbPolyline
  3
AutoCAD 2000
 90
        0
280
     0
281
     1
  0
CLASS
  1
HATCH
  2
AcDbHatch
  3
AutoCAD 2000
 90
        0
280
     0
281
     1
  0
CLASS
  1
XRECORD
  2
AcDbXrecord
  3
AutoCAD 2000
 90
        0
280
     0
281
     0
  0
CLASS
  1
LONG_TRANSACTION
  2
AcDbLongTransaction
  3
AutoCAD 2000
 90
        0
280
     0
281
     0
  0
CLASS
  1
LWPOLYLINE
  2
AcDbPolyline
  3
AutoCAD 2000
 90
        0
280
     0
281
     1
  0
CLASS
  1
HATCH
  2
AcDbHatch
  3
AutoCAD 2000
 90
        0
280
     0
281
     1
  0
CLASS
  1
XRECORD
  2
AcDbXrecord
  3
AutoCAD 2000
 90
        0
280
     0
281
     0
  0
ENDSEC
  0
SECTION
  2
TABLES
  0
TABLE
  2
VPORT
  5
18
330
0
100
AcDbSymbolTable
 70
     3
  0
VPORT
  5
1C5
330
18
100
AcDbSymbolTableRecord
100
AcDbViewportTableRecord
  2
*ACTIVE
 70
     0
 10
0.0
 20
0.0
 11
1.0
 21
1.0
 12
-41.18266453048709
 22
49.65098088111517
 13
0.0
 23
0.0
 14
1.0
 24
1.0
 15
0.0
 25
0.0
 16
0.0
 26
0.0
 36
1.0
 17
0.0
 27
0.0
 37
0.0
 40
49.28229414858569
 41
1.786792452830188
 42
50.0
 43
0.0
 44
0.0
 50
0.0
 51
0.0
 71
     0
 72
   100
 73
     1
 74
     1
 75
     0
 76
     0
 77
     0
 78
     0
  0
ENDTAB
  0
TABLE
  2
LTYPE
  5
13
330
0
100
AcDbSymbolTable
 70
     2
  0
LTYPE
  5
14
330
13
100
AcDbSymbolTableRecord
100
AcDbLinetypeTableRecord
  2
BYBLOCK
 70
     0
  3

 72
    65
 73
     0
 40
0.0
  0
LTYPE
  5
15
330
13
100
AcDbSymbolTableRecord
100
AcDbLinetypeTableRecord
  2
BYLAYER
 70
     0
  3

 72
    65
 73
     0
 40
0.0
  0
LTYPE
  5
6
330
13
100
AcDbSymbolTableRecord
100
AcDbLinetypeTableRecord
  2
CONTINUOUS
 70
     0
  3
Solid line
 72
    65
 73
     0
 40
0.0
  0
LTYPE
  5
47
330
13
100
AcDbSymbolTableRecord
100
AcDbLinetypeTableRecord
  2
CENTER
 70
     0
  3
____ _ ____ _ ____ _ ____ _ ____ _ ____ _ ____
 72
    65
 73
     4
 40
0.6
 49
0.375
 74
     0
 49
-0.075
 74
     0
 49
0.075
 74
     0
 49
-0.075
 74
     0
  0
ENDTAB
  0
TABLE
  2
LAYER
  5
F
330
0
100
AcDbSymbolTable
 70
     2
  0
LAYER
  5
4
330
F
100
AcDbSymbolTableRecord
100
AcDbLayerTableRecord
  2
0
 70
     0
 62
     7
  6
CONTINUOUS
  0
LAYER
  5
46
330
F
100
AcDbSymbolTableRecord
100
AcDbLayerTableRecord
  2
CENTER
 70
     0
 62
     1
  6
CENTER
  0
ENDTAB
  0
TABLE
  2
STYLE
  5
10
330
0
100
AcDbSymbolTable
 70
     1
  0
STYLE
  5
11
330
10
100
AcDbSymbolTableRecord
100
AcDbTextStyleTableRecord
  2
STANDARD
 70
     0
 40
0.0
 41
0.8
 50
0.0
 71
     0
 42
0.2
  3
txt
  4

  0
ENDTAB
  0
TABLE
  2
VIEW
  5
16
330
0
100
AcDbSymbolTable
 70
     0
  0
ENDTAB
  0
TABLE
  2
UCS
  5
17
330
0
100
AcDbSymbolTable
 70
     0
  0
ENDTAB
  0
TABLE
  2
APPID
  5
1A
330
0
100
AcDbSymbolTable
 70
     1
  0
APPID
  5
1B
330
1A
100
AcDbSymbolTableRecord
100
AcDbRegAppTableRecord
  2
ACAD
 70
     0
  0
ENDTAB
  0
TABLE
  2
DIMSTYLE
  5
1C
330
0
100
AcDbSymbolTable
 70
     1
  0
DIMSTYLE
105
1D
330
1C
100
AcDbSymbolTableRecord
100
AcDbDimStyleTableRecord
  2
S_TANDARD
 70
     0
  3

  4

  5
_FILLED
  6

  7

 40
16.0
 41
0.1875
 42
0.0625
 43
0.38
 44
0.18
 45
0.0
 46
0.0
 47
0.0
 48
0.0
140
0.125
141
0.09
142
0.0
143
25.4
144
1.0
145
0.0
146
1.0
147
0.09
 71
     0
 72
     0
 73
     1
 74
     1
 75
     0
 76
     0
 77
     0
 78
     4
170
     0
171
     2
172
     0
173
     0
174
     0
175
     0
176
     0
177
     0
178
     0
270
     2
271
     3
272
     3
273
     2
274
     2
340
11
275
     0
280
     0
281
     0
282
     0
283
     1
284
     4
285
     0
286
     0
287
     3
288
     0
  0
ENDTAB
  0
TABLE
  2
BLOCK_RECORD
  5
1
330
0
100
AcDbSymbolTable
 70
     1
  0
BLOCK_RECORD
  5
2
102
{ACAD_XDICTIONARY
360
180
102
}
330
1
100
AcDbSymbolTableRecord
100
AcDbBlockTableRecord
  2
*MODEL_SPACE
  0
BLOCK_RECORD
  5
B
102
{ACAD_XDICTIONARY
360
186
102
}
330
1
100
AcDbSymbolTableRecord
100
AcDbBlockTableRecord
  2
*PAPER_SPACE
  0
BLOCK_RECORD
  5
1E
330
1
100
AcDbSymbolTableRecord
100
AcDbBlockTableRecord
  2
_FILLED
  0
ENDTAB
  0
ENDSEC
  0
SECTION
  2
BLOCKS
  0
BLOCK
  5
3
330
2
100
AcDbEntity
  8
0
100
AcDbBlockBegin
  2
*MODEL_SPACE
 70
     0
 10
0.0
 20
0.0
 30
0.0
  3
*MODEL_SPACE
  1

  0
ENDBLK
  5
7
330
2
100
AcDbEntity
  8
0
100
AcDbBlockEnd
  0
BLOCK
  5
C
330
B
100
AcDbEntity
 67
     1
  8
0
100
AcDbBlockBegin
  2
*PAPER_SPACE
 70
     0
 10
0.0
 20
0.0
 30
0.0
  3
*PAPER_SPACE
  1

  0
ENDBLK
  5
D
330
B
100
AcDbEntity
 67
     1
  8
0
100
AcDbBlockEnd
  0
BLOCK
  5
20
330
1E
100
AcDbEntity
  8
0
100
AcDbBlockBegin
  2
_FILLED
 70
     0
 10
0.0
 20
0.0
 30
0.0
  3
_FILLED
  1

  0
SOLID
  5
1F
330
1E
100
AcDbEntity
  8
0
  6
BYBLOCK
 62
     0
100
AcDbTrace
 10
0.0
 20
0.0
 30
0.0
 11
-1.0
 21
0.1666666667
 31
0.0
 12
-1.0
 22
-0.1666666667
 32
0.0
 13
-1.0
 23
-0.1666666667
 33
0.0
  0
ENDBLK
  5
21
330
1E
100
AcDbEntity
  8
0
  6
BYBLOCK
 62
     0
100
AcDbBlockEnd
  0
ENDSEC
  0
SECTION
  2
ENTITIES
  0
LWPOLYLINE
  5
28
330
2
100
AcDbEntity
  8
0
100
AcDbPolyline
 90
       49
 70
     0
 43
0.0
 10
-19.37797132668252
 20
62.7325560238583
 10
-19.27313776828252
 20
62.6657438766583
 10
-19.16947062588252
 20
62.59690445265832
 10
-19.06698240828252
 20
62.5260327006583
 10
-18.96570570268252
 20
62.45314072625831
 10
-18.86575338748252
 20
62.37830925425831
 10
-18.76725841628253
 20
62.3016361598583
 10
-18.67033940828252
 20
62.22321210705832
 10
-18.57505763068252
 20
62.14309888785831
 10
-18.48146001948252
 20
62.06135107985829
 10
-18.38960234108253
 20
61.97803513585831
 10
-18.29957569148253
 20
61.89326502385831
 10
-18.21148000508253
 20
61.8071665870583
 10
-18.12540310748252
 20
61.71985811985831
 10
-18.04138440668252
 20
61.63142773265832
 10
-17.95945120988253
 20
61.54195598225832
 10
-17.87963804828253
 20
61.45153604145829
 10
-17.80200837948252
 20
61.3603115294583
 10
-17.72663288988252
 20
61.26843867825832
 10
-17.65357032028252
 20
61.1760645806583
 10
-17.58283161308253
 20
61.08329976305831
 10
-17.51441576508253
 20
60.9902456158583
 10
-17.44831491228252
 20
60.89699420785831
 10
-17.38449374908252
 20
60.8036003246583
 10
-17.32291011068253
 20
60.71010942865831
 10
-17.26352179388253
 20
60.6165657454583
 10
-17.20628644988252
 20
60.52300853105831
 10
-17.15116169468252
 20
60.42947579825832
 10
-17.09810260668253
 20
60.33599833585831
 10
-17.04705410748252
 20
60.2425780334583
 10
-16.99795858428252
 20
60.14920955345832
 10
-16.95076240508252
 20
60.05589269905832
 10
-16.90542788028253
 20
59.96264784945831
 10
-16.86192130268253
 20
59.86950052145832
 10
-16.82020816988253
 20
59.77647213905831
 10
-16.78025080188253
 20
59.6835677406583
 10
-16.74201072028253
 20
59.59078827185831
 10
-16.70545552668252
 20
59.49815156305831
 10
-16.67057713468253
 20
59.40574301265832
 10
-16.63737353788252
 20
59.3136649102583
 10
-16.60583717628253
 20
59.2220068558583
 10
-16.57593830108253
 20
59.13080769745832
 10
-16.54764160668253
 20
59.04009359025832
 10
-16.52091452668253
 20
58.94990206705831
 10
-16.49573540988252
 20
58.86031615185832
 10
-16.47208534108253
 20
58.77143024305832
 10
-16.44994105628252
 20
58.68332532145831
 10
-16.42926189468252
 20
58.59602870385831
 10
-16.41000284988253
 20
58.50955429265832
  0
LWPOLYLINE
  5
29
330
2
100
AcDbEntity
  8
0
100
AcDbPolyline
 90
       33
 70
     0
 43
0.0
 10
-15.93009339388252
 20
53.20467471025833
 10
-15.96462140348252
 20
53.35624451985831
 10
-16.00074042428252
 20
53.50712931025831
 10
-16.03847944348252
 20
53.65730444945831
 10
-16.07790253148253
 20
53.80688305265832
 10
-16.11908323868253
 20
53.95600004785831
 10
-16.16209794428253
 20
54.10473986705833
 10
-16.20702765308253
 20
54.25318021745832
 10
-16.25396902428252
 20
54.40142241905832
 10
-16.28644820348253
 20
54.50023680305832
 10
-16.32000203228253
 20
54.59930285105833
 10
-16.35476638428252
 20
54.70110854705831
 10
-16.39088302268253
 20
54.80155076625831
 10
-16.42851723228253
 20
54.90310051025829
 10
-16.46784018108253
 20
55.00602947985831
 10
-16.49854698268252
 20
55.08429357905831
 10
-16.53039250588253
 20
55.16359379825832
 10
-16.56346928028253
 20
55.2440376158583
 10
-16.59786983228252
 20
55.32573250705832
 10
-16.63369011388252
 20
55.4087831374583
 10
-16.67103978108252
 20
55.4932829358583
 10
-16.71003191868253
 20
55.57932252305832
 10
-16.75077960828252
 20
55.6669925150583
 10
-16.78472228348252
 20
55.73836466705831
 10
-16.81994597788252
 20
55.8108928750583
 10
-16.85653578428252
 20
55.88463174545831
 10
-16.89457679708253
 20
55.9596358750583
 10
-16.93415410908252
 20
56.03595987025832
 10
-16.97534594588252
 20
56.1136391278583
 10
-17.01820307548253
 20
56.19263224625831
 10
-17.06276939868253
 20
56.27287862545831
 10
-17.10908881468253
 20
56.35431766065832
 10
-17.15720522428253
 20
56.4368887502583
  0
LWPOLYLINE
  5
2A
330
2
100
AcDbEntity
  8
0
100
AcDbPolyline
 90
       75
 70
     0
 43
0.0
 10
-9.007369081882529
 20
57.20897164945831
 10
-9.113191661082524
 20
57.39532171665832
 10
-9.22189913468253
 20
57.58079289585831
 10
-9.333561435482522
 20
57.76546524785832
 10
-9.448254600282524
 20
57.9494194222583
 10
-9.566017672282526
 20
58.13266869105831
 10
-9.686857437082522
 20
58.31517410865831
 10
-9.810729041882524
 20
58.4968237294583
 10
-9.937551726682528
 20
58.6774577902583
 10
-10.06729121468252
 20
58.8569895870583
 10
-10.19997038748252
 20
59.0354155022583
 10
-10.33561920668252
 20
59.21273926865831
 10
-10.47432452188252
 20
59.3890340110583
 10
-10.61612764988252
 20
59.56430867505829
 10
-10.76103780828252
 20
59.73853008785832
 10
-10.90906080028253
 20
59.91166090865831
 10
-11.06020407548253
 20
60.08366631825831
 10
-11.21451769308252
 20
60.25455838865832
 10
-11.37204640028252
 20
60.4243401822583
 10
-11.53281561148253
 20
60.59299148305831
 10
-11.69680295708252
 20
60.7604424078583
 10
-11.86390895068252
 20
60.92654845425832
 10
-12.03403930428253
 20
61.09117667665831
 10
-12.20720699228253
 20
61.25430315345832
 10
-12.38342147068253
 20
61.41590004465832
 10
-12.56269507548252
 20
61.57594176785829
 10
-12.74504985948253
 20
61.73441071985831
 10
-12.93047376508252
 20
61.89125985745832
 10
-13.11898901308252
 20
62.04647065905831
 10
-13.31051704828253
 20
62.19994309265832
 10
-13.50510926588252
 20
62.3516840350583
 10
-13.70245778268253
 20
62.50142472145831
 10
-13.90128452668253
 20
62.64820116945831
 10
-14.10063500668252
 20
62.7913347742583
 10
-14.30007728348252
 20
62.93056676465832
 10
-14.49962150108253
 20
63.06596755985831
 10
-14.69932372828253
 20
63.19763167345832
 10
-14.89918934588253
 20
63.32561596145831
 10
-15.09910986588252
 20
63.4499057918583
 10
-15.29878992188253
 20
63.57038259185831
 10
-15.49798657948253
 20
63.6869766542583
 10
-15.69659756508252
 20
63.79970551025832
 10
-15.89460552188252
 20
63.90863420145831
 10
-16.09202659548252
 20
64.0138450798583
 10
-16.28887464508252
 20
64.1154163278583
 10
-16.48519549308252
 20
64.21343980945832
 10
-16.68104333308252
 20
64.3080073934583
 10
-16.87642865468252
 20
64.3991869438583
 10
-17.07155372828252
 20
64.48712515505832
 10
-17.26718203228253
 20
64.57220671665831
 10
-17.46379923388252
 20
64.6546700590583
 10
-17.66135902588253
 20
64.73451348785832
 10
-17.85989491388252
 20
64.81176857905831
 10
-18.05957618748253
 20
64.8865148238583
 10
-18.26057069628252
 20
64.95882207185832
 10
-18.46293148188253
 20
65.02871319825832
 10
-18.66670368188252
 20
65.09620663665831
 10
-18.87207415228253
 20
65.16136279185833
 10
-19.07954630268253
 20
65.2243299886583
 10
-19.28970696348253
 20
65.28526452785832
 10
-19.50283981468253
 20
65.34421785425831
 10
-19.71903158108253
 20
65.4011786062583
 10
-19.93844095548253
 20
65.4561514206583
 10
-20.16126809628252
 20
65.50914587505832
 10
-20.38766226748252
 20
65.56015247825832
 10
-20.61773335708252
 20
65.60914846065831
 10
-20.85174408508252
 20
65.65613904785831
 10
-21.09029486748252
 20
65.7011849838583
 10
-21.33404781468253
 20
65.74434583505831
 10
-21.58344697788252
 20
65.78562829585831
 10
-21.83867502428252
 20
65.8249861390583
 10
-22.10038867068253
 20
65.86243872465832
 10
-22.36952740348253
 20
65.89801682865831
 10
-22.64379748028253
 20
65.9313637982583
 10
-22.91782587228253
 20
65.96169704625831
  0
LWPOLYLINE
  5
2B
330
2
100
AcDbEntity
  8
0
100
AcDbPolyline
 90
       59
 70
     0
 43
0.0
 10
-16.41000284988253
 20
58.50955429265832
 10
-16.46829457468253
 20
58.5688783886583
 10
-16.52574864188252
 20
58.6265936222583
 10
-16.58225575868253
 20
58.68264176465832
 10
-16.63774730588252
 20
58.73700304145831
 10
-16.69231734108253
 20
58.78981151985832
 10
-16.74610058908253
 20
58.84123972625832
 10
-16.79922322748252
 20
58.8914485934583
 10
-16.85177723708252
 20
58.94055268785831
 10
-16.90384604988253
 20
58.98865498065831
 10
-16.98124411228252
 20
59.05916792785831
 10
-17.05815224188252
 20
59.12808184785831
 10
-17.13499160828253
 20
59.19581717105831
 10
-17.21221192028252
 20
59.26278270865831
 10
-17.29027673468253
 20
59.32938156145832
 10
-17.36967644828253
 20
59.39600561105831
 10
-17.45094913948253
 20
59.4630665150583
 10
-17.53479673308253
 20
59.53106623345831
 10
-17.59249129308253
 20
59.5771747134583
 10
-17.65187335388253
 20
59.62405743025832
 10
-17.71315584348252
 20
59.67183824785831
 10
-17.77654935708253
 20
59.72063483665832
 10
-17.84225516508253
 20
59.77054012145831
 10
-17.91047220508252
 20
59.8216408382583
 10
-17.98139670588253
 20
59.8740170302583
 10
-18.05521406908252
 20
59.9277219566583
 10
-18.13210699068253
 20
59.98280218705829
 10
-18.21225185308253
 20
60.0392953454583
 10
-18.29579980348252
 20
60.09720327985832
 10
-18.38289567708253
 20
60.15651889425831
 10
-18.47368869308253
 20
60.21723331985831
 10
-18.56834560348252
 20
60.2793305886583
 10
-18.66703754268253
 20
60.34279295985832
 10
-18.76994296668253
 20
60.40760137905832
 10
-18.87726960028253
 20
60.47373155505832
 10
-18.98923248828252
 20
60.5411578846583
 10
-19.07637596188253
 20
60.59255895825831
 10
-19.16633543708252
 20
60.6446406910583
 10
-19.25919805948252
 20
60.69736905745831
 10
-19.35505097308252
 20
60.75071003345832
 10
-19.45394529948252
 20
60.80460978385829
 10
-19.55578806428252
 20
60.85893523185831
 10
-19.66045026588253
 20
60.9135334926583
 10
-19.76780290588253
 20
60.9682516814583
 10
-19.91489185308252
 20
61.04113845585832
 10
-20.06616827548252
 20
61.11364553105833
 10
-20.22126597948252
 20
61.18545180145829
 10
-20.37986621948252
 20
61.25626484465832
 10
-20.54184005308252
 20
61.32590696625832
 10
-20.70710598588253
 20
61.3942291598583
 10
-20.87558312828253
 20
61.4610841822583
 10
-21.04719302748253
 20
61.5263318478583
 10
-21.22185783388252
 20
61.58983374385832
 10
-21.39948858268252
 20
61.65145117905831
 10
-21.57995185308253
 20
61.71104439025831
 10
-21.76310310428253
 20
61.76847334385832
 10
-21.94882232028253
 20
61.8236073790583
 10
-22.13708757468252
 20
61.87635334865831
 10
-22.32790146748253
 20
61.9266274766583
  0
LWPOLYLINE
  5
2C
330
2
100
AcDbEntity
  8
0
100
AcDbPolyline
 90
       93
 70
     0
 43
0.0
 10
-26.54287024668252
 20
61.8060813614583
 10
-26.31867474588253
 20
61.78270984145831
 10
-26.10021289788253
 20
61.75687217105831
 10
-25.88750102748253
 20
61.72869894225832
 10
-25.68056604028253
 20
61.69832358705829
 10
-25.47943122428253
 20
61.66588121265832
 10
-25.28405691228252
 20
61.63149975665831
 10
-25.09369453148252
 20
61.59516355985832
 10
-24.90688341628252
 20
61.5566898318583
 10
-24.72263470588252
 20
61.51594338705831
 10
-24.54062671068253
 20
61.47290260145831
 10
-24.36056265788252
 20
61.42753764625831
 10
-24.18214319708252
 20
61.37980525105831
 10
-24.00507612668252
 20
61.32965107345831
 10
-23.82904194588252
 20
61.27699939665831
 10
-23.65377491068252
 20
61.2217767070583
 10
-23.47926873468253
 20
61.16398505425832
 10
-23.30559892188253
 20
61.10364983505832
 10
-23.13270834908253
 20
61.0407490974583
 10
-22.96047918588253
 20
60.97523438545832
 10
-22.78881588508252
 20
60.90705894065831
 10
-22.61765309308252
 20
60.83618197105832
 10
-22.44697013308253
 20
60.76257673265832
 10
-22.27669402588253
 20
60.68618941905831
 10
-22.10652988508252
 20
60.60685358225831
 10
-21.93614562108253
 20
60.5243756654583
 10
-21.76543794428252
 20
60.43866131025831
 10
-21.59451439868253
 20
60.34971618865831
 10
-21.42355962428253
 20
60.25759033105831
 10
-21.25275657788253
 20
60.1623388462583
 10
-21.08263305308253
 20
60.0642286350583
 10
-20.91172920988252
 20
59.96234644785833
 10
-20.73965872348253
 20
59.8563822606583
 10
-20.57563517788253
 20
59.75224382225832
 10
-20.42719636028252
 20
59.65541054065832
 10
-20.29248164028253
 20
59.56543583345831
 10
-20.16848874268252
 20
59.48089025425829
 10
-20.05356933948253
 20
59.4010739534583
 10
-19.94637494908252
 20
59.32537929105831
 10
-19.84586170108252
 20
59.2533300510583
 10
-19.75173675228252
 20
59.18493123345831
 10
-19.66204864348253
 20
59.11893337585832
 10
-19.57126518108252
 20
59.05126260305832
 10
-19.47466264028253
 20
58.97818947185831
 10
-19.37009745148253
 20
58.89771344305831
 10
-19.25374556348252
 20
58.8062836830583
 10
-19.12529876188253
 20
58.7027692638583
 10
-18.99506299388252
 20
58.59470958065831
 10
-18.87215104188253
 20
58.4895207870583
 10
-18.75676849148253
 20
58.3876284510583
 10
-18.64735339068252
 20
58.2878962398583
 10
-18.54322263388253
 20
58.1898923134583
 10
-18.44370154748253
 20
58.09315262545831
 10
-18.34811077308252
 20
57.9971577390583
 10
-18.25629965628253
 20
57.9018838494583
 10
-18.17072008188253
 20
57.8101464126583
 10
-18.09409445948253
 20
57.72542805425832
 10
-18.02465523548252
 20
57.64640266225831
 10
-17.95783205948252
 20
57.56823000785832
 10
-17.89115671068252
 20
57.48808061585831
 10
-17.82459070908252
 20
57.40584812785832
 10
-17.75821770748253
 20
57.3215703918583
 10
-17.69187092668252
 20
57.2349607630583
 10
-17.62549090108253
 20
57.14584633425833
 10
-17.55896868028253
 20
57.05396723665831
 10
-17.49219673148252
 20
56.9590371470583
 10
-17.42504369948252
 20
56.86070283185831
 10
-17.35735376988253
 20
56.75853323345831
 10
-17.28894265308253
 20
56.65200126385832
 10
-17.21954659708252
 20
56.54038467345831
 10
-17.14883526428252
 20
56.42275372945832
 10
-17.07700790588252
 20
56.29897798705832
 10
-17.00520530588252
 20
56.1706282030583
 10
-16.93448256828253
 20
56.03937103665831
 10
-16.86503672668253
 20
55.90546393425831
 10
-16.79682784188253
 20
55.76872542385832
 10
-16.72989739548252
 20
55.62912098705831
 10
-16.66426880348252
 20
55.4865749518583
 10
-16.59996020188252
 20
55.34099132465832
 10
-16.53699382908253
 20
55.19227294705832
 10
-16.47560403708253
 20
55.04084682385832
 10
-16.41627130428253
 20
54.88787518545831
 10
-16.35929089308253
 20
54.7342322686583
 10
-16.30459880828253
 20
54.57771968465832
 10
-16.25200942428253
 20
54.42235920145833
 10
-16.20141471068252
 20
54.26577775025831
 10
-16.15284380348252
 20
54.10821584465833
 10
-16.10635576028252
 20
53.95004642225831
 10
-16.06198228188253
 20
53.79159833265831
 10
-16.01972429148253
 20
53.63312827985831
 10
-15.97955922428252
 20
53.47482851185834
 10
-15.94146344188253
 20
53.31690342545832
 10
-15.90540774748252
 20
53.15955156945832
  0
LWPOLYLINE
  5
2D
330
2
100
AcDbEntity
  8
0
100
AcDbPolyline
 90
       49
 70
     0
 43
0.0
 10
-19.37797132668252
 20
36.56827830705831
 10
-19.27313776828252
 20
36.63509045425832
 10
-19.16947062428252
 20
36.70392987985831
 10
-19.06698240668252
 20
36.77480163185832
 10
-18.96570570108252
 20
36.84769360625832
 10
-18.86575338748252
 20
36.92252507825832
 10
-18.76725841628253
 20
36.99919817105831
 10
-18.67033940828252
 20
37.07762222385832
 10
-18.57505763228252
 20
37.15773544145832
 10
-18.48146002108252
 20
37.23948325105832
 10
-18.38960234268252
 20
37.32279919345831
 10
-18.29957569468253
 20
37.40756930545831
 10
-18.21148000828253
 20
37.49366774225832
 10
-18.12540311068252
 20
37.58097620785832
 10
-18.04138441148252
 20
37.66940659505833
 10
-17.95945121308253
 20
37.75887834545832
 10
-17.87963805148253
 20
37.84929828625832
 10
-17.80200838268252
 20
37.94052279665832
 10
-17.72663289468252
 20
38.03239564785831
 10
-17.65357032348252
 20
38.12476974545831
 10
-17.58283161788253
 20
38.21753456305831
 10
-17.51441576988253
 20
38.31058870865832
 10
-17.44831491708252
 20
38.40384011505832
 10
-17.38449375548252
 20
38.49723399825832
 10
-17.32291011708253
 20
38.59072489265832
 10
-17.26352180028253
 20
38.68426857585832
 10
-17.20628645628252
 20
38.77782578865832
 10
-17.15116170108252
 20
38.87135852305832
 10
-17.09810261148253
 20
38.96483598545831
 10
-17.04705411228252
 20
39.05825629105832
 10
-16.99795858588252
 20
39.15162477425831
 10
-16.95076240508252
 20
39.24494163185832
 10
-16.90542787868253
 20
39.33818648465831
 10
-16.86192129948253
 20
39.43133381425831
 10
-16.82020816828253
 20
39.52436219665832
 10
-16.78025080028253
 20
39.61726659505831
 10
-16.74201071868253
 20
39.71004606385832
 10
-16.70545552508252
 20
39.80268277105832
 10
-16.67057713468253
 20
39.89509132145832
 10
-16.63737353628252
 20
39.98716942225832
 10
-16.60583717628253
 20
40.07882747665832
 10
-16.57593829948253
 20
40.17002663665831
 10
-16.54764160668253
 20
40.26074074385831
 10
-16.52091452508253
 20
40.35093226705831
 10
-16.49573540988252
 20
40.44051818065832
 10
-16.47208534108253
 20
40.52940408945832
 10
-16.44994105628252
 20
40.61750901105832
 10
-16.42926189468252
 20
40.70480562705831
 10
-16.41000284988253
 20
40.79128003825831
  0
LWPOLYLINE
  5
2E
330
2
100
AcDbEntity
  8
0
100
AcDbPolyline
 90
       59
 70
     0
 43
0.0
 10
-16.41000284988253
 20
40.79128003825831
 10
-16.46829463708253
 20
40.73195588145832
 10
-16.52574875548252
 20
40.67424059505831
 10
-16.58225591708253
 20
40.61819241105832
 10
-16.63774749788252
 20
40.56383110225833
 10
-16.69231756028253
 20
40.51102260145831
 10
-16.74610082748253
 20
40.45959437905832
 10
-16.79922347868253
 20
40.40938550065832
 10
-16.85177749628252
 20
40.36028140305831
 10
-16.90384630588252
 20
40.31217911505832
 10
-16.98124434588253
 20
40.24166619185832
 10
-17.05815245148252
 20
40.17275229585832
 10
-17.13499180668253
 20
40.10501698545831
 10
-17.21221207388252
 20
40.03805148945832
 10
-17.29027676828252
 20
39.97145274065831
 10
-17.36967633308252
 20
39.90482881585831
 10
-17.45094889948252
 20
39.83776801265832
 10
-17.53479640028253
 20
39.76976836465832
 10
-17.59249091548253
 20
39.72365991665831
 10
-17.65187296988253
 20
39.67677719985831
 10
-17.71315551548252
 20
39.62899633745832
 10
-17.77654916028252
 20
39.58019964785831
 10
-17.84225512508253
 20
39.53029424145831
 10
-17.91047228828253
 20
39.47919343025832
 10
-17.98139682428252
 20
39.42681721425831
 10
-18.05521409948252
 20
39.37311235345831
 10
-18.13210677468252
 20
39.31803229585832
 10
-18.21225121628252
 20
39.26153943025831
 10
-18.29579859708252
 20
39.20363187985831
 10
-18.38289379708253
 20
39.14431670545831
 10
-18.47368607868253
 20
39.08360274225831
 10
-18.56834223868253
 20
39.02150592625832
 10
-18.66703345788252
 20
38.95804397105832
 10
-18.76993822428252
 20
38.89323590865831
 10
-18.87726425148253
 20
38.82710603665831
 10
-18.98922656028253
 20
38.75967997425832
 10
-19.07636961788253
 20
38.70827907825832
 10
-19.16632874428252
 20
38.65619747505831
 10
-19.25919114748252
 20
38.60346915825831
 10
-19.35504404028253
 20
38.55012811665832
 10
-19.45393859708252
 20
38.49622816145832
 10
-19.55578185788253
 20
38.44190236945832
 10
-19.66044482748253
 20
38.38730363665832
 10
-19.76779851228252
 20
38.33258486225832
 10
-19.91488921468253
 20
38.25969717585831
 10
-20.06616746588253
 20
38.18718919505831
 10
-20.22126664668252
 20
38.11538222545832
 10
-20.37986768508253
 20
38.04456883505832
 10
-20.54184167548253
 20
37.97492667345832
 10
-20.70710725948252
 20
37.90660465425832
 10
-20.87558368188253
 20
37.83974993585831
 10
-21.04719262428253
 20
37.77450263505832
 10
-21.22185636828253
 20
37.71100110865831
 10
-21.39948610588253
 20
37.64938398385832
 10
-21.57994863708252
 20
37.58979096785831
 10
-21.76309966268253
 20
37.53236203825832
 10
-21.94881936028252
 20
37.47722780945831
 10
-22.13708578588253
 20
37.42448147185832
 10
-22.32790146748253
 20
37.37420685425832
  0
LWPOLYLINE
  5
2F
330
2
100
AcDbEntity
  8
0
100
AcDbPolyline
 90
       75
 70
     0
 43
0.0
 10
-22.91782587228253
 20
33.33913728465831
 10
-22.64225737628252
 20
33.36964772945831
 10
-22.36778418268252
 20
33.40303925745832
 10
-22.09921824348252
 20
33.43855659825832
 10
-21.83775091548253
 20
33.47598560465832
 10
-21.58253668668252
 20
33.51535155825832
 10
-21.33318974748253
 20
33.55663548625832
 10
-21.08947592028252
 20
33.59979916945831
 10
-20.85094460348253
 20
33.64485105585831
 10
-20.61695685628252
 20
33.69184652145832
 10
-20.38688736668253
 20
33.74085166705831
 10
-20.16047718748252
 20
33.79187161105832
 10
-19.93764963068253
 20
33.84487614385832
 10
-19.71826251868253
 20
33.89985338385832
 10
-19.50208105628253
 20
33.95682137425831
 10
-19.28893783068252
 20
34.01578768625831
 10
-19.07875560988253
 20
34.07673896465832
 10
-18.87133422108253
 20
34.13970120305831
 10
-18.66598157468253
 20
34.20486183345831
 10
-18.46218016988252
 20
34.27237530065831
 10
-18.25984878428252
 20
34.34226677905831
 10
-18.05891418908252
 20
34.41456248625832
 10
-17.85926192348253
 20
34.48930738065832
 10
-17.66074699388252
 20
34.56656359505831
 10
-17.46325799868253
 20
34.64638713905833
 10
-17.26673761628252
 20
34.72881743985832
 10
-17.07117870588253
 20
34.81387524305832
 10
-16.87609328028253
 20
34.90180118065831
 10
-16.68073284028253
 20
34.99297435185831
 10
-16.48491705628252
 20
35.08753125105831
 10
-16.28861252828252
 20
35.18555106385832
 10
-16.09176879548252
 20
35.28712445105832
 10
-15.89436038588253
 20
35.39233287185832
 10
-15.69637014748252
 20
35.50125591025831
 10
-15.49778354908252
 20
35.61397470705832
 10
-15.29862218908253
 20
35.73055143025832
 10
-15.09897069628253
 20
35.85101377745832
 10
-14.89904716348253
 20
35.97530808945831
 10
-14.69916890268253
 20
36.10330326865831
 10
-14.49945472028252
 20
36.23497833585832
 10
-14.29989034428253
 20
36.37039623985831
 10
-14.10039856348253
 20
36.50966696785831
 10
-13.90104789628253
 20
36.65280543025831
 10
-13.70228234268252
 20
36.79954096305833
 10
-13.50493918588253
 20
36.94928111825832
 10
-13.31045533148253
 20
37.10094003825832
 10
-13.11891942748252
 20
37.25442020305832
 10
-12.93041458268253
 20
37.40962387505832
 10
-12.74500288348252
 20
37.56646389745832
 10
-12.56265634588253
 20
37.72492668305832
 10
-12.38339411868253
 20
37.88495904305832
 10
-12.20719387868253
 20
38.04654337425831
 10
-12.03403585308252
 20
38.20966095825832
 10
-11.86391078748252
 20
38.37428408145832
 10
-11.69681982908252
 20
38.54037493265831
 10
-11.53283266908252
 20
38.70782519665832
 10
-11.37207206268253
 20
38.87646686705831
 10
-11.21454359228252
 20
39.04624765585831
 10
-11.06023283388252
 20
39.21713574865831
 10
-10.90909136348253
 20
39.38913818545831
 10
-10.76105932508252
 20
39.56227875025832
 10
-10.61614361788252
 20
39.73650620305832
 10
-10.47434636668252
 20
39.91177294065831
 10
-10.33565881788253
 20
40.08804400305832
 10
-10.20001229788252
 20
40.26536326385833
 10
-10.06734224188252
 20
40.44377513905832
 10
-9.937611254682522
 20
40.62329297105832
 10
-9.810795486682522
 20
40.80391457905832
 10
-9.686937757082532
 20
40.98554069105833
 10
-9.566098589082528
 20
41.16804159825831
 10
-9.448341457882534
 20
41.35127770225832
 10
-9.333672344282533
 20
41.53518846545832
 10
-9.221968488282527
 20
41.71992494865832
 10
-9.113203641882535
 20
41.90549184145832
 10
-9.007369081882529
 20
42.09186268145831
  0
LWPOLYLINE
  5
30
330
2
100
AcDbEntity
  8
0
100
AcDbPolyline
 90
       33
 70
     0
 43
0.0
 10
-17.15679890108252
 20
42.86463446865831
 10
-17.10867037948253
 20
42.94724362385831
 10
-17.06234127228252
 20
43.02871756305831
 10
-17.01776757628252
 20
43.10899555505832
 10
-16.97490529308252
 20
43.18801687025831
 10
-16.93371042268252
 20
43.26572077745832
 10
-16.89413208668253
 20
43.34206579185832
 10
-16.85609190108253
 20
43.41708740625832
 10
-16.81950460668252
 20
43.49084035985831
 10
-16.78428494108253
 20
43.56337939185833
 10
-16.75034764668252
 20
43.63475924305832
 10
-16.70960834428252
 20
43.72243466385831
 10
-16.67062625308253
 20
43.80847520625831
 10
-16.63328809628252
 20
43.89297167825833
 10
-16.59748060348252
 20
43.97601489585832
 10
-16.56309392828252
 20
44.05769849265833
 10
-16.53003194748252
 20
44.13812740625831
 10
-16.49820196508253
 20
44.21740939505832
 10
-16.46751128508252
 20
44.29565222065831
 10
-16.42821046428252
 20
44.39854856305831
 10
-16.39059886588252
 20
44.50006129905832
 10
-16.35450508028253
 20
44.60046265265831
 10
-16.31976356028252
 20
44.70002831985833
 10
-16.28623223548252
 20
44.79904789265831
 10
-16.25377489628253
 20
44.89781443665831
 10
-16.20686450908253
 20
45.04598404465832
 10
-16.16196351068252
 20
45.19435164785831
 10
-16.11897522588252
 20
45.34301913745832
 10
-16.07781876668252
 20
45.49206430865832
 10
-16.03841803708253
 20
45.64157091505832
 10
-16.00070036828252
 20
45.79167060145831
 10
-15.96460225148253
 20
45.94247434705831
 10
-15.93009342268253
 20
46.09396256465831
  0
LWPOLYLINE
  5
31
330
2
100
AcDbEntity
  8
0
100
AcDbPolyline
 90
       92
 70
     0
 43
0.0
 10
-15.90540987388253
 20
46.13908249265832
 10
-15.94146517948253
 20
45.98173275825832
 10
-15.97956027708252
 20
45.82381079505831
 10
-16.01972381948253
 20
45.66551708145833
 10
-16.06198074908252
 20
45.50705079025832
 10
-16.10635397468253
 20
45.34860329265831
 10
-16.15284066588253
 20
45.19043805745831
 10
-16.20140854108252
 20
45.03288523665832
 10
-16.25200146108253
 20
44.87630825425832
 10
-16.30459130748252
 20
44.72094529745832
 10
-16.35928275388252
 20
44.56662938705831
 10
-16.41626127068252
 20
44.41299045745831
 10
-16.47559061308253
 20
44.26002616945832
 10
-16.53697580828253
 20
44.10860963505832
 10
-16.59993955708253
 20
43.95989543505832
 10
-16.66424675868252
 20
43.81431285585832
 10
-16.72987366428253
 20
43.67176831665832
 10
-16.79680200668252
 20
43.53216608305832
 10
-16.86500907068253
 20
43.39542904465832
 10
-16.93445176668253
 20
43.26152579505833
 10
-17.00517504028252
 20
43.13026544785831
 10
-17.07698052828253
 20
43.00190855505831
 10
-17.14880610748252
 20
42.87813411025832
 10
-17.21951456508253
 20
42.76050621105832
 10
-17.28890881308252
 20
42.64889080625831
 10
-17.35731688508252
 20
42.54236183505832
 10
-17.42500386268253
 20
42.44019489585832
 10
-17.49215558908252
 20
42.34186068785832
 10
-17.55892702748252
 20
42.24692958065833
 10
-17.62544728188252
 20
42.15505149105832
 10
-17.69182292348253
 20
42.06594117265832
 10
-17.75816209468253
 20
41.97933951825832
 10
-17.82452972028252
 20
41.89506644465832
 10
-17.89108820508252
 20
41.81284089905832
 10
-17.95776589948252
 20
41.73268632305832
 10
-18.02458989148253
 20
41.65451048145832
 10
-18.09403245948253
 20
41.57547915505833
 10
-18.17066196348253
 20
41.49075443825831
 10
-18.25619056028253
 20
41.39906876145832
 10
-18.34795066268253
 20
41.30384323025832
 10
-18.44353439708253
 20
41.20785002545832
 10
-18.54304856028252
 20
41.11111161905831
 10
-18.64716813148253
 20
41.01311268305831
 10
-18.75657100348253
 20
40.91338599345832
 10
-18.87192393468252
 20
40.81151390865832
 10
-18.99482088668253
 20
40.70633167665831
 10
-19.12522444348252
 20
40.59812864465832
 10
-19.25389989788253
 20
40.49443071985832
 10
-19.37025855868253
 20
40.40299843985831
 10
-19.47477277308253
 20
40.32256359345832
 10
-19.57138924348252
 20
40.24948129585832
 10
-19.66216867068253
 20
40.18181470865831
 10
-19.75183963068252
 20
40.11583041905832
 10
-19.84597491068252
 20
40.04742503825831
 10
-19.94649275548252
 20
39.97537361905832
 10
-20.05368716828253
 20
39.89968018705831
 10
-20.16861254108252
 20
39.81986114225832
 10
-20.29261464988252
 20
39.73531091825831
 10
-20.42735060028252
 20
39.64532404945831
 10
-20.57577461788253
 20
39.54850273585831
 10
-20.73968954908252
 20
39.44443473425831
 10
-20.91169686108253
 20
39.33850935185831
 10
-21.08259478908253
 20
39.23662990385832
 10
-21.25271566428253
 20
39.13852035825832
 10
-21.42351536348252
 20
39.04326983025832
 10
-21.59446664348253
 20
38.95114489425832
 10
-21.76538660028252
 20
38.86220062865832
 10
-21.93609020828253
 20
38.77648725425832
 10
-22.10647033948252
 20
38.69401021745832
 10
-22.27663318268253
 20
38.61467383505832
 10
-22.44690781148253
 20
38.53828602225832
 10
-22.61758675068253
 20
38.46468132785832
 10
-22.78874575548252
 20
38.39380468785831
 10
-22.96040508348252
 20
38.32562953585831
 10
-23.13263031548252
 20
38.26011498705832
 10
-23.30551691228252
 20
38.19721431825832
 10
-23.47918308028252
 20
38.13687894545831
 10
-23.65368368668252
 20
38.07908766065832
 10
-23.82894537948253
 20
38.02386510705832
 10
-24.00497598748252
 20
37.97121289585832
 10
-24.18203859548252
 20
37.92105833585832
 10
-24.36045356828252
 20
37.87332544145832
 10
-24.54051285308253
 20
37.82795993585832
 10
-24.72251573148253
 20
37.78491854865832
 10
-24.90675879548253
 20
37.74417148305831
 10
-25.09355769308253
 20
37.70569828625832
 10
-25.28390185308252
 20
37.66936337905832
 10
-25.47926624188252
 20
37.63498130865832
 10
-25.68039450748253
 20
37.60253753745832
 10
-25.88732053948253
 20
37.57216096145831
 10
-26.10002311548253
 20
37.54398632945831
 10
-26.31847574268252
 20
37.51814701585832
  0
LWPOLYLINE
  5
32
330
2
100
AcDbEntity
  8
0
100
AcDbPolyline
 90
       26
 70
     0
 43
0.0
 10
-7.037916507482535
 20
58.48365557745831
 10
-7.433826627482531
 20
59.3300061870583
 10
-7.864620616282522
 20
60.15524307505831
 10
-8.329091800282526
 20
60.9576150942583
 10
-8.826017677082532
 20
61.73549386385833
 10
-9.354123347482527
 20
62.48750880785832
 10
-9.912038550682524
 20
63.21225215825831
 10
-10.49839747548253
 20
63.9084019278583
 10
-11.11185258108253
 20
64.57490658705831
 10
-11.75082643708252
 20
65.21054752145833
 10
-12.41383410908253
 20
65.8142624094583
 10
-13.09960773468253
 20
66.38536904145832
 10
-13.80666399548252
 20
66.92305322545831
 10
-14.53364018908253
 20
67.42660992945832
 10
-15.27931597308253
 20
67.89554613105829
 10
-16.04208631548253
 20
68.32918373905832
 10
-16.82045213628252
 20
68.7269217742583
 10
-17.61313241628252
 20
69.0883729374583
 10
-18.41880128668252
 20
69.4131868814583
 10
-19.23567471068253
 20
69.7008181950583
 10
-20.06140856188252
 20
69.95069366225831
 10
-20.89352753628253
 20
70.16237641905831
 10
-21.73129447868253
 20
70.33589194865832
 10
-22.57547557788253
 20
70.4715156526583
 10
-23.42566719068253
 20
70.56925235185833
 10
-24.28114587228253
 20
70.62892451665831
  0
LWPOLYLINE
  5
33
330
2
100
AcDbEntity
  8
0
100
AcDbPolyline
 90
       26
 70
     0
 43
0.0
 10
-24.28114587228253
 20
28.67190981425832
 10
-23.42566719068253
 20
28.73158197905832
 10
-22.57547557788253
 20
28.82931867825832
 10
-21.73129447868253
 20
28.96494238225832
 10
-20.89352753628253
 20
29.13845791185831
 10
-20.06140856188252
 20
29.35014066865832
 10
-19.23567471068253
 20
29.60001613585832
 10
-18.41880128668252
 20
29.88764744945832
 10
-17.61313241628252
 20
30.21246139345832
 10
-16.82045213628252
 20
30.57391255665832
 10
-16.04208631548253
 20
30.97165059185831
 10
-15.27931597308253
 20
31.40528819985832
 10
-14.53364018908253
 20
31.87422440145831
 10
-13.80666399548252
 20
32.37778110545832
 10
-13.09960773468253
 20
32.91546528945831
 10
-12.41383410908253
 20
33.48657192145831
 10
-11.75082643708252
 20
34.09028680945832
 10
-11.11185258108253
 20
34.72592774385831
 10
-10.49839747548253
 20
35.39243240305831
 10
-9.912038550682524
 20
36.08858217265831
 10
-9.354123347482527
 20
36.81332552465832
 10
-8.826017677082532
 20
37.56534046705832
 10
-8.329091800282526
 20
38.34321923825832
 10
-7.864620616282522
 20
39.14559125585831
 10
-7.433826627482531
 20
39.97082814385832
 10
-7.037916507482535
 20
40.81717875345831
  0
LWPOLYLINE
  5
34
330
2
100
AcDbEntity
  8
0
100
AcDbPolyline
 90
       35
 70
     0
 43
0.0
 10
-35.23194556508252
 20
39.59614851345832
 10
-35.14187712828253
 20
39.80797249265831
 10
-35.05276422268252
 20
40.02534486705831
 10
-34.96464521468253
 20
40.24845688785831
 10
-34.87753648348252
 20
40.47756260465832
 10
-34.79146890908252
 20
40.71290688785832
 10
-34.70660272028253
 20
40.95439739665831
 10
-34.62312183868253
 20
41.20185284465832
 10
-34.54116736188252
 20
41.45519568625831
 10
-34.46091537148253
 20
41.71422098545831
 10
-34.38247990268253
 20
41.97890367025832
 10
-34.30598362908253
 20
42.24918839345831
 10
-34.23161892028252
 20
42.52475156145832
 10
-34.15950158748252
 20
42.80551768465832
 10
-34.08976101468252
 20
43.09135000945832
 10
-34.02257013628252
 20
43.38190162225831
 10
-33.95800389628253
 20
43.67722128625832
 10
-33.89608463228252
 20
43.97761614865832
 10
-33.83686987708253
 20
44.28323807505831
 10
-33.78045513788253
 20
44.59408019345832
 10
-33.72700108828253
 20
44.90976083665831
 10
-33.67665015388253
 20
45.22992829425832
 10
-33.62953684348252
 20
45.55420422705831
 10
-33.58578009468253
 20
45.88223579345831
 10
-33.54548039068252
 20
46.21373799825831
 10
-33.50872985788253
 20
46.54843929105831
 10
-33.47564558428253
 20
46.88573264945833
 10
-33.44631651708253
 20
47.22509618545833
 10
-33.42079450748252
 20
47.56844309745832
 10
-33.39910814588253
 20
47.91155275985832
 10
-33.38127016188252
 20
48.25692144945833
 10
-33.36734855228253
 20
48.60387714065831
 10
-33.35738220188253
 20
48.95200665105832
 10
-33.35139819388253
 20
49.30096156625831
 10
-33.34941567068253
 20
49.6503910814583
  0
LWPOLYLINE
  5
35
330
2
100
AcDbEntity
  8
0
100
AcDbPolyline
 90
       29
 70
     0
 43
0.0
 10
-34.71669830748253
 20
41.02324734865832
 10
-34.60662066428253
 20
41.35019473585831
 10
-34.50193088508253
 20
41.67896636145831
 10
-34.40245358748252
 20
42.00952368465832
 10
-34.30808488828253
 20
42.34167614545831
 10
-34.21873989788252
 20
42.67520095825832
 10
-34.13433818268252
 20
43.00989848945831
 10
-34.05479407228253
 20
43.34560777585831
 10
-33.97999650108252
 20
43.68229939665831
 10
-33.90978488188252
 20
44.02024590225831
 10
-33.84382596988253
 20
44.36079618225831
 10
-33.80204147548252
 20
44.59007407665832
 10
-33.76193653148253
 20
44.82170069425832
 10
-33.72346788508252
 20
45.05614842385832
 10
-33.68661286108252
 20
45.29378111825831
 10
-33.65143105468253
 20
45.53452849105831
 10
-33.61800263548252
 20
45.77821172145832
 10
-33.58640513628253
 20
46.02464750225832
 10
-33.55670555388252
 20
46.27363459185832
 10
-33.52896824508252
 20
46.5249672638583
 10
-33.50325535548252
 20
46.77843915025831
 10
-33.47962016988252
 20
47.03384131985833
 10
-33.45811375708253
 20
47.29096419985832
 10
-33.42994552028253
 20
47.68157090385833
 10
-33.40678360028252
 20
48.07279119025833
 10
-33.38871922268252
 20
48.46606712945831
 10
-33.37580185788253
 20
48.86046139985831
 10
-33.36806316348253
 20
49.2551991534583
 10
-33.36550532508252
 20
49.6503910814583
  0
LWPOLYLINE
  5
36
330
2
100
AcDbEntity
  8
0
100
AcDbPolyline
 90
       37
 70
     0
 43
0.0
 10
-33.36245044828253
 20
49.64006631505833
 10
-33.36505601788252
 20
49.2997843662583
 10
-33.37147236988252
 20
48.96046734545831
 10
-33.38166369308253
 20
48.62254703665832
 10
-33.39558282428253
 20
48.28643603345833
 10
-33.41317574268252
 20
47.95246735985833
 10
-33.43437520508253
 20
47.62105274225831
 10
-33.45914645468252
 20
47.28988435025831
 10
-33.48746792508253
 20
46.9629584558583
 10
-33.51927314748252
 20
46.63841866225831
 10
-33.55442984988252
 20
46.31706488465831
 10
-33.59285278588252
 20
45.99908650865831
 10
-33.63444029308253
 20
45.68477014385832
 10
-33.67908377148252
 20
45.37439622385831
 10
-33.72668595228252
 20
45.06812506705832
 10
-33.77712364668252
 20
44.76625002705833
 10
-33.83028896508253
 20
44.46893234385831
 10
-33.88608124028253
 20
44.17628054705832
 10
-33.94434764668253
 20
43.88864825745832
 10
-34.00546756668252
 20
43.60392623185831
 10
-34.06979264668253
 20
43.32058268465832
 10
-34.13744121148252
 20
43.03832002225832
 10
-34.20803337788253
 20
42.75884099985831
 10
-34.28090716988252
 20
42.48458260305832
 10
-34.35585588988253
 20
42.21595022065832
 10
-34.43274862428252
 20
41.95303245905831
 10
-34.51182563708252
 20
41.69469663825831
 10
-34.59166279388253
 20
41.44505537425832
 10
-34.67066626748253
 20
41.20805482225832
 10
-34.74881248028252
 20
40.98260605905831
 10
-34.82649430428253
 20
40.76665098385832
 10
-34.90412120508253
 20
40.55837733585831
 10
-34.98182283708253
 20
40.35692673585831
 10
-35.05967884988253
 20
40.16167147345831
 10
-35.13768075708253
 20
39.97227195505832
 10
-35.21572012988253
 20
39.78864478545832
 10
-35.29414040828253
 20
39.60974783825832
  0
LWPOLYLINE
  5
37
330
2
100
AcDbEntity
  8
0
100
AcDbPolyline
 90
       35
 70
     0
 43
0.0
 10
-49.01725172828253
 20
49.6503910814583
 10
-49.01526920348253
 20
49.30096156625831
 10
-49.00928519708253
 20
48.95200665105832
 10
-48.99931884668252
 20
48.60387714065831
 10
-48.98539723708252
 20
48.25692144945833
 10
-48.96755925308252
 20
47.91155275985832
 10
-48.94587289148252
 20
47.56844309745832
 10
-48.92035088188253
 20
47.22509618545833
 10
-48.89102181308253
 20
46.88573264945833
 10
-48.85793754108253
 20
46.54843929105831
 10
-48.82118700668254
 20
46.21373799825831
 10
-48.78088730428252
 20
45.88223579345831
 10
-48.73713055388252
 20
45.55420422705831
 10
-48.69001724508253
 20
45.22992829425832
 10
-48.63966631068253
 20
44.90976083665831
 10
-48.58621225948252
 20
44.59408019345832
 10
-48.52979752188253
 20
44.28323807505831
 10
-48.47058276668253
 20
43.97761614865832
 10
-48.40866350268253
 20
43.67722128625832
 10
-48.34409726268252
 20
43.38190162225831
 10
-48.27690638428252
 20
43.09135000945832
 10
-48.20716581148253
 20
42.80551768465832
 10
-48.13504847868253
 20
42.52475156145832
 10
-48.06068376988253
 20
42.24918839345831
 10
-47.98418749628253
 20
41.97890367025832
 10
-47.90575202748253
 20
41.71422098545831
 10
-47.82550003708253
 20
41.45519568625831
 10
-47.74354556028252
 20
41.20185284465832
 10
-47.66006467868253
 20
40.95439739665831
 10
-47.57519848988252
 20
40.71290688785832
 10
-47.48913091548253
 20
40.47756260465832
 10
-47.40202218428253
 20
40.24845688785831
 10
-47.31390317628252
 20
40.02534486705831
 10
-47.22479027068253
 20
39.80797249265831
 10
-47.13472183388252
 20
39.59614851345832
  0
LWPOLYLINE
  5
38
330
2
100
AcDbEntity
  8
0
100
AcDbPolyline
 90
       37
 70
     0
 43
0.0
 10
-47.07252683548253
 20
39.60974748785832
 10
-47.15073985308253
 20
39.78816594385832
 10
-47.22867049788253
 20
39.97151600945832
 10
-47.30654571228252
 20
40.16057910865831
 10
-47.38443341468253
 20
40.35587861745832
 10
-47.46214912828253
 20
40.55733045265832
 10
-47.53979020828253
 20
40.76560567825832
 10
-47.61748452988252
 20
40.98155760145832
 10
-47.69564045468253
 20
41.20699435825832
 10
-47.77465448188253
 20
41.44398371985832
 10
-47.85449886748253
 20
41.69360124465831
 10
-47.93359701628253
 20
41.95195742225832
 10
-48.01051070428252
 20
42.21489754065832
 10
-48.08547986268253
 20
42.48355327665832
 10
-48.15837381468253
 20
42.75783698705832
 10
-48.22898518588253
 20
43.03734080785832
 10
-48.29665608668253
 20
43.31964548625832
 10
-48.36100326908253
 20
43.60303607825832
 10
-48.42214568988253
 20
43.88781386545832
 10
-48.48042985308253
 20
44.17548559825832
 10
-48.53623464828253
 20
44.46815405425831
 10
-48.58941530108253
 20
44.76550738385831
 10
-48.63986824188252
 20
45.06742310225832
 10
-48.68748524668252
 20
45.37373880465832
 10
-48.73214158908253
 20
45.68415085745831
 10
-48.77374198428253
 20
45.99851275985832
 10
-48.81217695068253
 20
46.31653854705832
 10
-48.84734459868252
 20
46.63793991985832
 10
-48.87916024828253
 20
46.9625335838583
 10
-48.90749034428253
 20
47.2895064238583
 10
-48.93226987068253
 20
47.62073214705833
 10
-48.95347581148254
 20
47.95219572785831
 10
-48.97107424988253
 20
48.28621661105831
 10
-48.98499800348253
 20
48.62238772145833
 10
-48.99519248028252
 20
48.96036350705833
 10
-49.00161076188253
 20
49.29973778705832
 10
-49.00421695068253
 20
49.64006631505833
  0
LWPOLYLINE
  5
39
330
2
100
AcDbEntity
  8
0
100
AcDbPolyline
 90
       24
 70
     0
 43
0.0
 10
-66.87493422108253
 20
47.19104602545831
 10
-66.85177676988252
 20
47.14845667345832
 10
-66.82906188188252
 20
47.10634976625831
 10
-66.80699539388253
 20
47.06500453425831
 10
-66.78578315068254
 20
47.02470020145832
 10
-66.76559051228252
 20
46.98566187505831
 10
-66.74642092828253
 20
46.94789816945833
 10
-66.72823736988252
 20
46.91136357745832
 10
-66.71100280348253
 20
46.87601259025833
 10
-66.69467071068253
 20
46.84177948625833
 10
-66.67915660348254
 20
46.80851769585831
 10
-66.66436650268252
 20
46.77606042865831
 10
-66.65020643068253
 20
46.74424090065832
 10
-66.63215127388252
 20
46.70251299985832
 10
-66.61487028828253
 20
46.66119322545832
 10
-66.59818466748252
 20
46.61985245745833
 10
-66.57398250748252
 20
46.55706609585831
 10
-66.55072076988253
 20
46.49303584305831
 10
-66.52843272508253
 20
46.42764325105832
 10
-66.50727204668253
 20
46.36122063985832
 10
-66.48741118588254
 20
46.29422441745831
 10
-66.46897730108253
 20
46.22715656945832
 10
-66.45205127068253
 20
46.16041844945832
 10
-66.43657413308253
 20
46.09396326865832
  0
LWPOLYLINE
  5
3A
330
2
100
AcDbEntity
  8
0
100
AcDbPolyline
 90
       53
 70
     0
 43
0.0
 10
-69.70071162908252
 20
49.6503910814583
 10
-69.69885000828253
 20
49.54670264305832
 10
-69.69343478108253
 20
49.44713003665831
 10
-69.68479666268253
 20
49.35314723505832
 10
-69.67312029948252
 20
49.26436689105833
 10
-69.65811616028253
 20
49.17797443345833
 10
-69.63950621948253
 20
49.09270124305831
 10
-69.61751343388252
 20
49.01020378065831
 10
-69.59209087868252
 20
48.93087007985832
 10
-69.56266613788253
 20
48.85372178865833
 10
-69.52883745628253
 20
48.77878244465833
 10
-69.49067929148253
 20
48.70730324625833
 10
-69.45150525628253
 20
48.64537105425833
 10
-69.41544274268252
 20
48.59754107345833
 10
-69.38149552508253
 20
48.56146931665833
 10
-69.34588544668253
 20
48.53318806225832
 10
-69.30555063068253
 20
48.51082778545833
 10
-69.25983823548254
 20
48.49377783665833
 10
-69.20942456348253
 20
48.47955558225831
 10
-69.15431934748252
 20
48.46701643505832
 10
-69.09434684988252
 20
48.45487991665831
 10
-69.02904242428252
 20
48.44227064305832
 10
-68.95782735388252
 20
48.42863404945831
 10
-68.88003103068253
 20
48.41298623665832
 10
-68.79491520188253
 20
48.39395300785833
 10
-68.70159753628252
 20
48.37004357105832
 10
-68.59892809308252
 20
48.33949748305832
 10
-68.48531051228253
 20
48.30055069745833
 10
-68.35928315548253
 20
48.25105188785832
 10
-68.22067474428251
 20
48.18855923825831
 10
-68.07948690108253
 20
48.11585655665831
 10
-67.94633411548253
 20
48.03807677585831
 10
-67.82254731868253
 20
47.95712590865832
 10
-67.70345232988254
 20
47.87038953265832
 10
-67.58012875548252
 20
47.76967113585832
 10
-67.44760449628254
 20
47.64693942705832
 10
-67.31946199548253
 20
47.5115828558583
 10
-67.20677653308253
 20
47.37514211825833
 10
-67.11228005308253
 20
47.25040385425833
 10
-67.03110251228252
 20
47.1339562030583
 10
-66.95947962908253
 20
47.02438176625832
 10
-66.89550992508253
 20
46.92157004305832
 10
-66.83788801468253
 20
46.82552371505831
 10
-66.78594156828253
 20
46.73664933745831
 10
-66.73933237308253
 20
46.65540152305831
 10
-66.69778121308252
 20
46.58184884145833
 10
-66.66042168348252
 20
46.51483674545832
 10
-66.62592704828253
 20
46.45224241105831
 10
-66.59294564988252
 20
46.39172829425832
 10
-66.56019929148252
 20
46.33080472145831
 10
-66.52729220508253
 20
46.26848118065832
 10
-66.49429405628253
 20
46.20462033425831
 10
-66.46125970428252
 20
46.13908696625832
  0
LWPOLYLINE
  5
3B
330
2
100
AcDbEntity
  8
0
100
AcDbPolyline
 90
       24
 70
     0
 43
0.0
 10
-75.46161358908253
 20
49.6503910814583
 10
-75.46023351708253
 20
49.45192491345832
 10
-75.45624896348252
 20
49.25927091345832
 10
-75.44963439548252
 20
49.06635688945832
 10
-75.44030447548252
 20
48.87206068465832
 10
-75.42832493308253
 20
48.67836079025832
 10
-75.41373996668252
 20
48.48565175825831
 10
-75.39651424348253
 20
48.29327525105833
 10
-75.37665416668253
 20
48.10128163185831
 10
-75.35415838748253
 20
47.90963624945831
 10
-75.32902373148252
 20
47.71830604305833
 10
-75.30124752668253
 20
47.52727550225833
 10
-75.27082644828252
 20
47.33438879025831
 10
-75.23775128988254
 20
47.14389365585833
 10
-75.20200748828253
 20
46.95359297905832
 10
-75.16358289308252
 20
46.76346198065831
 10
-75.12246876508253
 20
46.57350016465832
 10
-75.07865584028252
 20
46.38370772305831
 10
-75.03215445148253
 20
46.19416539025833
 10
-74.98288395708252
 20
46.00459859025831
 10
-74.93084030908253
 20
45.81506603025832
 10
-74.87618471548254
 20
45.62617423665832
 10
-74.81900707068253
 20
45.43818068625831
 10
-74.75950514748253
 20
45.25169908785832
  0
LWPOLYLINE
  5
3C
330
2
100
AcDbEntity
  8
0
100
AcDbPolyline
 90
        7
 70
     0
 43
0.0
 10
-77.15553474428253
 20
48.5436445662583
 10
-77.14493157468253
 20
48.34966067665831
 10
-77.08640432988253
 20
47.58494144145831
 10
-77.00279851548254
 20
46.83221706705833
 10
-76.89532444028253
 20
46.09635663345832
 10
-76.76526150588253
 20
45.37610474225831
 10
-76.61662982108253
 20
44.68406117905832
  0
LWPOLYLINE
  5
3D
330
2
100
AcDbEntity
  8
0
100
AcDbPolyline
 90
       75
 70
     0
 43
0.0
 10
-73.35929831708253
 20
42.09186268145831
 10
-73.25346375708253
 20
41.90549184145832
 10
-73.14469891068253
 20
41.71992494865832
 10
-73.03299505468253
 20
41.53518846545832
 10
-72.91832594108253
 20
41.35127770225832
 10
-72.80056880988252
 20
41.16804159825831
 10
-72.67972964188253
 20
40.98554069105833
 10
-72.55587191228253
 20
40.80391457905832
 10
-72.42905614428252
 20
40.62329297105832
 10
-72.29932515708253
 20
40.44377513905832
 10
-72.16665510108253
 20
40.26536326385833
 10
-72.03100858108253
 20
40.08804400305832
 10
-71.89232103228253
 20
39.91177294065831
 10
-71.75052378108254
 20
39.73650620305832
 10
-71.60560807388254
 20
39.56227875025832
 10
-71.45757603548253
 20
39.38913818545831
 10
-71.30643456508252
 20
39.21713574865831
 10
-71.15212380668253
 20
39.04624765585831
 10
-70.99459533628253
 20
38.87646686705831
 10
-70.83383472988254
 20
38.70782519665832
 10
-70.66984756988254
 20
38.54037493265831
 10
-70.50275661148254
 20
38.37428408145832
 10
-70.33263154588252
 20
38.20966095825832
 10
-70.15947352028253
 20
38.04654337425831
 10
-69.98327328028253
 20
37.88495904305832
 10
-69.80401105308252
 20
37.72492668305832
 10
-69.62166451548253
 20
37.56646389745832
 10
-69.43625281628253
 20
37.40962387505832
 10
-69.24774797148254
 20
37.25442020305832
 10
-69.05621206748254
 20
37.10094003825832
 10
-68.86172821148253
 20
36.94928111825832
 10
-68.66438505628252
 20
36.79954096305833
 10
-68.46561950268252
 20
36.65280543025831
 10
-68.26626883548252
 20
36.50966696785831
 10
-68.06677705468253
 20
36.37039623985831
 10
-67.86721267868253
 20
36.23497833585832
 10
-67.66749849628252
 20
36.10330326865831
 10
-67.46762023548253
 20
35.97530808945831
 10
-67.26769670268253
 20
35.85101377745832
 10
-67.06804520988253
 20
35.73055143025832
 10
-66.86888384988254
 20
35.61397470705832
 10
-66.67029725148253
 20
35.50125591025831
 10
-66.47230701308252
 20
35.39233287185832
 10
-66.27489860348252
 20
35.28712445105832
 10
-66.07805487068254
 20
35.18555106385832
 10
-65.88175034268252
 20
35.08753125105831
 10
-65.68593455868253
 20
34.99297435185831
 10
-65.49057411868253
 20
34.90180118065831
 10
-65.29548869308253
 20
34.81387524305832
 10
-65.09992978108252
 20
34.72881743985832
 10
-64.90340940028253
 20
34.64638713905833
 10
-64.70592040508254
 20
34.56656359505831
 10
-64.50740547548253
 20
34.48930738065832
 10
-64.30775320988252
 20
34.41456248625832
 10
-64.10681861468254
 20
34.34226677905831
 10
-63.90448722748253
 20
34.27237530065831
 10
-63.70068582428253
 20
34.20486183345831
 10
-63.49533317788253
 20
34.13970120305831
 10
-63.28791178908253
 20
34.07673896465832
 10
-63.07772956828253
 20
34.01578768625831
 10
-62.86458634268253
 20
33.95682137425831
 10
-62.64840487868252
 20
33.89985338385832
 10
-62.42901776828253
 20
33.84487614385832
 10
-62.20619021148253
 20
33.79187161105832
 10
-61.97978003228253
 20
33.74085166705831
 10
-61.74971054268253
 20
33.69184652145832
 10
-61.51572279548253
 20
33.64485105585831
 10
-61.27719147868253
 20
33.59979916945831
 10
-61.03347765148253
 20
33.55663548625832
 10
-60.78413071228253
 20
33.51535155825832
 10
-60.52891648348253
 20
33.47598560465832
 10
-60.26744915548253
 20
33.43855659825832
 10
-59.99888321628253
 20
33.40303925745832
 10
-59.72441002268253
 20
33.36964772945831
 10
-59.44884152668253
 20
33.33913728465831
  0
LWPOLYLINE
  5
3E
330
2
100
AcDbEntity
  8
0
100
AcDbPolyline
 90
       26
 70
     0
 43
0.0
 10
-75.32875089148252
 20
40.81717875345831
 10
-74.93284077148253
 20
39.97082814385832
 10
-74.50204678268253
 20
39.14559125585831
 10
-74.03757559868253
 20
38.34321923825832
 10
-73.54064972188253
 20
37.56534046705832
 10
-73.01254405148253
 20
36.81332552465832
 10
-72.45462884668254
 20
36.08858217265831
 10
-71.86826992348253
 20
35.39243240305831
 10
-71.25481481788253
 20
34.72592774385831
 10
-70.61584096028252
 20
34.09028680945832
 10
-69.95283328988254
 20
33.48657192145831
 10
-69.26705966428253
 20
32.91546528945831
 10
-68.56000340348254
 20
32.37778110545832
 10
-67.83302720988253
 20
31.87422440145831
 10
-67.08735142588253
 20
31.40528819985832
 10
-66.32458108348252
 20
30.97165059185831
 10
-65.54621526108252
 20
30.57391255665832
 10
-64.75353498268254
 20
30.21246139345832
 10
-63.94786611228252
 20
29.88764744945832
 10
-63.13099268828253
 20
29.60001613585832
 10
-62.30525883708253
 20
29.35014066865832
 10
-61.47313986268253
 20
29.13845791185831
 10
-60.63537292028253
 20
28.96494238225832
 10
-59.79119182108252
 20
28.82931867825832
 10
-58.94100020828253
 20
28.73158197905832
 10
-58.08552152668252
 20
28.67190981425832
  0
LWPOLYLINE
  5
3F
330
2
100
AcDbEntity
  8
0
100
AcDbPolyline
 90
        5
 70
     0
 43
0.0
 10
-76.29408552508252
 20
43.45598624465832
 10
-76.18673766108253
 20
43.10193236785831
 10
-75.92856781308253
 20
42.32727535025833
 10
-75.64227981148253
 20
41.56511403505832
 10
-75.32875089148252
 20
40.81717875345831
  0
LWPOLYLINE
  5
40
330
2
100
AcDbEntity
  8
0
100
AcDbPolyline
 90
       19
 70
     0
 43
0.0
 10
-74.75950514748253
 20
45.25169908785832
 10
-74.71203098908254
 20
45.10866805745832
 10
-74.66024580828253
 20
44.95760086545832
 10
-74.60385913628252
 20
44.79845505425831
 10
-74.54245796188252
 20
44.63087423985832
 10
-74.47561792668253
 20
44.45456047025832
 10
-74.40339235228254
 20
44.27049306385831
 10
-74.32849205308253
 20
44.08599426545832
 10
-74.25152274108254
 20
43.90252389585831
 10
-74.17233855388253
 20
43.71965531665832
 10
-74.09097120988253
 20
43.53740754225831
 10
-74.00743273308254
 20
43.35574804305831
 10
-73.92172461468253
 20
43.17461953585832
 10
-73.83381814908253
 20
42.99391118225832
 10
-73.74364492028252
 20
42.81344758065833
 10
-73.65114052508253
 20
42.63308084785832
 10
-73.55626985628252
 20
42.45273463985831
 10
-73.45900158268253
 20
42.27234959345832
 10
-73.35929831708253
 20
42.09186268145831
  0
LWPOLYLINE
  5
41
330
2
100
AcDbEntity
  8
0
100
AcDbPolyline
 90
        4
 70
     0
 43
0.0
 10
-76.61663000508252
 20
44.68406197425832
 10
-76.50759083708253
 20
44.23528079665832
 10
-76.38211459068253
 20
43.76377281585832
 10
-76.29408552508252
 20
43.45598624465832
  0
LWPOLYLINE
  5
42
330
2
100
AcDbEntity
  8
0
100
AcDbPolyline
 90
       10
 70
     0
 43
0.0
 10
-41.94137427548253
 20
38.85984299025832
 10
-41.85933209148252
 20
38.86227230225832
 10
-41.80046988668253
 20
38.86389100785832
 10
-41.74326379388253
 20
38.86535995825831
 10
-41.68715400988253
 20
38.86669730065832
 10
-41.63152067068253
 20
38.86791635825832
 10
-41.51993380028253
 20
38.87002212465832
 10
-41.40758385308252
 20
38.87163927345832
 10
-41.29516469628252
 20
38.87268277905831
 10
-41.18333369948253
 20
38.87305544465832
  0
LWPOLYLINE
  5
43
330
2
100
AcDbEntity
  8
0
100
AcDbPolyline
 90
       21
 70
     0
 43
0.0
 10
-41.18333369948253
 20
38.96176292945832
 10
-41.32215752668253
 20
38.96119300305832
 10
-41.47356387708252
 20
38.95945643185832
 10
-41.63547944028252
 20
38.95655687505831
 10
-41.80564038748252
 20
38.95253212785832
 10
-41.98633021628253
 20
38.94730244465833
 10
-42.17853012828252
 20
38.94076914865832
 10
-42.38476797148253
 20
38.93273264945832
 10
-42.61286436828252
 20
38.92267869905831
 10
-42.87509869628253
 20
38.90967350865832
 10
-43.16378716988253
 20
38.89365123025832
 10
-43.44446591228252
 20
38.87644656145831
 10
-43.70039765788253
 20
38.85940236465831
 10
-43.93635966108253
 20
38.84252995185832
 10
-44.16035856028253
 20
38.82544345265833
 10
-44.38955494908252
 20
38.80680850545831
 10
-44.62975590108253
 20
38.78591150385832
 10
-44.87010380348253
 20
38.76345562065832
 10
-45.09315504508252
 20
38.74107474545831
 10
-45.29626824508253
 20
38.71925263665831
 10
-45.48155889308254
 20
38.69799736145831
  0
LWPOLYLINE
  5
44
330
2
100
AcDbEntity
  8
0
100
AcDbPolyline
 90
       44
 70
     0
 43
0.0
 10
-41.18333369948253
 20
43.94864604145833
 10
-41.32327049628253
 20
43.94316127345832
 10
-41.46375518108253
 20
43.92655615985831
 10
-41.60343220348252
 20
43.89876855665831
 10
-41.74095359548252
 20
43.85995077905831
 10
-41.87523152188252
 20
43.81037494385831
 10
-42.00544972668253
 20
43.75032516945831
 10
-42.13076022748253
 20
43.68016483825831
 10
-42.25024978588253
 20
43.60038819665832
 10
-42.36300828828253
 20
43.51161835825832
 10
-42.46824033468253
 20
43.41453050065832
 10
-42.56525482428253
 20
43.30982845745832
 10
-42.65334642908253
 20
43.19836972625831
 10
-42.73193608508252
 20
43.08103018065832
 10
-42.80053303548252
 20
42.95872896785831
 10
-42.85878433468252
 20
42.83230895505831
 10
-42.90631998268253
 20
42.70287944625831
 10
-42.94294310108253
 20
42.57145191505832
 10
-42.96855785788253
 20
42.43904368465832
 10
-42.98316800988253
 20
42.30666769585831
 10
-42.98687463068254
 20
42.17536104305832
 10
-42.97976747708253
 20
42.04407623665832
 10
-42.96158261308252
 20
41.91047420465832
 10
-42.93200167388252
 20
41.77500337105832
 10
-42.89092831068252
 20
41.63882047825832
 10
-42.84065253788253
 20
41.50826338545831
 10
-42.78399382108253
 20
41.38701197265832
 10
-42.72233708988252
 20
41.27461479345831
 10
-42.65659518268252
 20
41.17038874225832
 10
-42.58743026748253
 20
41.07376061105832
 10
-42.51503813308253
 20
40.98388142545831
 10
-42.43948614108252
 20
40.90011419185831
 10
-42.36056206908253
 20
40.82181903825832
 10
-42.27802779068253
 20
40.74861582385832
 10
-42.19141679548252
 20
40.68016917745832
 10
-42.10031175548252
 20
40.61642625105831
 10
-42.00422117948252
 20
40.55749162865832
 10
-41.90268908348253
 20
40.50369675345832
 10
-41.79524510108253
 20
40.45556140465832
 10
-41.68185631388253
 20
40.41395505425831
 10
-41.56295500828252
 20
40.37994650705831
 10
-41.43924663548253
 20
40.35460727985832
 10
-41.31198535868253
 20
40.33893340145833
 10
-41.18333369948253
 20
40.33364404945832
  0
LINE
  5
45
330
2
100
AcDbEntity
  8
CENTER
100
AcDbLine
 10
-37.94533781969022
 20
42.14824734865831
 30
0.0
 11
-44.42132957927483
 21
42.14824734865831
 31
0.0
  0
CIRCLE
  5
48
330
2
100
AcDbEntity
  8
0
100
AcDbCircle
 10
-41.18333369948253
 20
42.14824734865831
 30
0.0
 40
1.448223304
  0
LWPOLYLINE
  5
49
330
2
100
AcDbEntity
  8
0
100
AcDbPolyline
 90
       17
 70
     0
 43
0.0
 10
-34.75930656348252
 20
36.93190389585832
 10
-35.55804151708253
 20
37.03862929585832
 10
-36.36051417948253
 20
37.13147852145832
 10
-37.16351653468253
 20
37.21002031825832
 10
-37.96695414108252
 20
37.27426571665832
 10
-38.77073160028253
 20
37.32422398545832
 10
-39.57475519868252
 20
37.35990284785831
 10
-40.37893945308252
 20
37.38130847665832
 10
-41.18320399548252
 20
37.38844478385832
 10
-41.98746858748252
 20
37.38131307665832
 10
-42.79165295388253
 20
37.35991204785832
 10
-43.59567666588254
 20
37.32423778545831
 10
-44.39945422428253
 20
37.27428412145831
 10
-45.20289194588253
 20
37.21004332945832
 10
-46.00589448348253
 20
37.13150614065832
 10
-46.80836742588252
 20
37.03866151665831
 10
-47.60736083548252
 20
36.93190389585832
  0
LWPOLYLINE
  5
4A
330
2
100
AcDbEntity
  8
0
100
AcDbPolyline
 90
       18
 70
     0
 43
0.0
 10
-46.45318570588253
 20
35.60544518865831
 10
-45.83950884828253
 20
35.71666150545832
 10
-45.22156039068252
 20
35.81448043665832
 10
-44.60236694428252
 20
35.89834488465832
 10
-43.98212141308252
 20
35.96824546705831
 10
-43.36101965948252
 20
36.02417410225832
 10
-42.73925629308253
 20
36.06612464305832
 10
-42.11702328348252
 20
36.09409284945831
 10
-41.49450867068253
 20
36.10807614385832
 10
-40.87190021148252
 20
36.10807323985832
 10
-40.24938564668253
 20
36.09408413745831
 10
-39.62715271068252
 20
36.06611011825831
 10
-39.00538942908252
 20
36.02415375825831
 10
-38.38428780188253
 20
35.96821929585832
 10
-37.76404249788253
 20
35.89831288145831
 10
-37.14484945308253
 20
35.81444261265831
 10
-36.52690161148253
 20
35.71661788465832
 10
-35.91348169308253
 20
35.60544518865831
  0
LWPOLYLINE
  5
4B
330
2
100
AcDbEntity
  8
0
100
AcDbPolyline
 90
       20
 70
     0
 43
0.0
 10
-42.37083369948253
 20
33.93993883825832
 10
-42.36609217628253
 20
33.93113989105831
 10
-42.35221797788253
 20
33.92251390225832
 10
-42.32981884348252
 20
33.91412879185832
 10
-42.29992439548253
 20
33.90612759025831
 10
-42.26386782748252
 20
33.89862794065832
 10
-42.22254975228253
 20
33.89162232465832
 10
-42.17627690108253
 20
33.88504187505831
 10
-42.12515884348252
 20
33.87884069265832
 10
-42.06890311068252
 20
33.87296534705832
 10
-42.00725418428253
 20
33.86740322225832
 10
-41.93953035068253
 20
33.86213378225832
 10
-41.86495721628253
 20
33.85716581105831
 10
-41.78279452348253
 20
33.85254272465831
 10
-41.69349232028253
 20
33.84838698065832
 10
-41.59796161788253
 20
33.84482246385831
 10
-41.49724816188252
 20
33.84195212945831
 10
-41.39370972668253
 20
33.83987674705831
 10
-41.28883972988252
 20
33.83862906705831
 10
-41.18333369948253
 20
33.83821283505832
  0
LWPOLYLINE
  5
4C
330
2
100
AcDbEntity
  8
0
100
AcDbPolyline
 90
       20
 70
     0
 43
0.0
 10
-41.18333369948253
 20
34.04669073585832
 10
-41.28581039068253
 20
34.04624864945831
 10
-41.38760485628253
 20
34.04492561745832
 10
-41.48773343868252
 20
34.04273930865832
 10
-41.58573484348252
 20
34.03970667025832
 10
-41.68060145628253
 20
34.03586876305832
 10
-41.77043128668252
 20
34.03133821425832
 10
-41.85287048828253
 20
34.02632207185832
 10
-41.92783567548253
 20
34.02094708945832
 10
-41.99546525148252
 20
34.01532524465832
 10
-42.05614307068252
 20
34.00954208465831
 10
-42.11262231548253
 20
34.00339641425832
 10
-42.16679662108252
 20
33.99663071025832
 10
-42.21752452348252
 20
33.98926235185832
 10
-42.26345930428253
 20
33.98133231345831
 10
-42.30204875868253
 20
33.97314816465831
 10
-42.33226381628253
 20
33.96486506065832
 10
-42.35397544188252
 20
33.95645697745832
 10
-42.36674983228252
 20
33.94808608945832
 10
-42.37083369948253
 20
33.93993883825832
  0
LWPOLYLINE
  5
4D
330
2
100
AcDbEntity
  8
0
100
AcDbPolyline
 90
       13
 70
     0
 43
0.0
 10
-41.18333369948253
 20
33.92228847025831
 10
-41.28675072188253
 20
33.92183796945831
 10
-41.38937249308253
 20
33.92049148145832
 10
-41.49028189468253
 20
33.91826716785832
 10
-41.58864843868252
 20
33.91519542545831
 10
-41.68312362108252
 20
33.91134338705831
 10
-41.77131064828252
 20
33.90687370385832
 10
-41.85177286428252
 20
33.90197204465831
 10
-41.92444238908253
 20
33.89677637585831
 10
-41.99030634428253
 20
33.89133691185832
 10
-42.05087860028252
 20
33.88561116945832
 10
-42.10793427708253
 20
33.87945274225831
 10
-42.11849963388253
 20
33.87814520625831
  0
LWPOLYLINE
  5
4E
330
2
100
AcDbEntity
  8
0
100
AcDbPolyline
 90
       43
 70
     0
 43
0.0
 10
-41.18333369948253
 20
37.89240771345832
 10
-41.36749619228253
 20
37.89188514385832
 10
-41.55386764508253
 20
37.89028561425832
 10
-41.74261136028252
 20
37.88756968945832
 10
-41.93253285788253
 20
37.88373113585832
 10
-42.12216179708252
 20
37.87878177585832
 10
-42.31028217148252
 20
37.87277249905832
 10
-42.49582538908252
 20
37.86576905265831
 10
-42.67805818908253
 20
37.85785755985832
 10
-42.85687920348253
 20
37.84909563825832
 10
-43.03437931708252
 20
37.83940649265832
 10
-43.15325361628253
 20
37.83237364305832
 10
-43.27332487708253
 20
37.82482423665832
 10
-43.39520425948252
 20
37.81670288305832
 10
-43.51954532668253
 20
37.80794516625831
 10
-43.64717126108253
 20
37.79845057585832
 10
-43.77894764668252
 20
37.78810957105832
 10
-43.91556079228253
 20
37.77682201745832
 10
-44.05697990908253
 20
37.76452538705832
 10
-44.20299493308253
 20
37.75116655505832
 10
-44.35316243868252
 20
37.73672339825831
 10
-44.50610554908253
 20
37.72129781585831
 10
-44.66021402428252
 20
37.70502270705832
 10
-44.89077646108252
 20
37.67926310865832
 10
-45.11932576988253
 20
37.65207084625831
 10
-45.34521932028252
 20
37.62357577585832
 10
-45.56929258588254
 20
37.59370822865832
 10
-45.79278205308253
 20
37.56233194225831
 10
-46.01705016028252
 20
37.52924383665831
 10
-46.16770792028252
 20
37.50611685425831
 10
-46.31989278108252
 20
37.48201405425832
 10
-46.47416625948252
 20
37.45681810865832
 10
-46.63107282908252
 20
37.43040925905831
 10
-46.79108878428253
 20
37.40265802385831
 10
-46.95467337148253
 20
37.37343249105832
 10
-47.07999786748253
 20
37.35045983825832
 10
-47.20788902108253
 20
37.32648819025832
 10
-47.33864780348253
 20
37.30142204145831
 10
-47.47257519068253
 20
37.27516588945831
 10
-47.60990268508253
 20
37.24763591985832
 10
-47.75058390268253
 20
37.21879506065831
 10
-47.89450299548252
 20
37.18861793105832
 10
-48.04154411228252
 20
37.15707914865832
  0
LWPOLYLINE
  5
4F
330
2
100
AcDbEntity
  8
0
100
AcDbPolyline
 90
       24
 70
     0
 43
0.0
 10
-59.44884152668253
 20
33.33913728465831
 10
-59.16689342748252
 20
33.31141341105832
 10
-58.87646102268252
 20
33.28620129585832
 10
-58.57689520028253
 20
33.26360082065832
 10
-58.26754728188253
 20
33.24372971825831
 10
-57.94764613148252
 20
33.22671671345832
 10
-57.61620463068253
 20
33.21270226865832
 10
-57.27207638428253
 20
33.20184768945832
 10
-56.90619195868253
 20
33.19419185745831
 10
-56.49630113948252
 20
33.18984920145832
 10
-56.03124050588253
 20
33.18923291985832
 10
-55.50503881148253
 20
33.19224952305831
 10
-54.91697440668253
 20
33.19804837265831
 10
-54.25846856028252
 20
33.20519629585832
 10
-53.51929716028253
 20
33.21167824625832
 10
-52.68703730908253
 20
33.21676034545832
 10
-51.74985341308254
 20
33.22029476945831
 10
-50.69393574748253
 20
33.22207344945831
 10
-49.50376881468253
 20
33.22187132945831
 10
-48.16277670268253
 20
33.21953264305832
 10
-46.65467604188252
 20
33.21518600625831
 10
-44.95242736988252
 20
33.20952762865831
 10
-43.02141368508253
 20
33.20422705425832
 10
-41.18333369948253
 20
33.20213422225831
  0
LWPOLYLINE
  5
50
330
2
100
AcDbEntity
  8
0
100
AcDbPolyline
 90
        4
 70
     0
 43
0.0
 10
-57.18604883388252
 20
28.65054524465832
 10
-51.98824338588252
 20
28.65018062065832
 10
-46.65303684508252
 20
28.65039108145831
 10
-41.18333369948253
 20
28.65049541745832
  0
LINE
  5
51
330
2
100
AcDbEntity
  8
0
100
AcDbLine
 10
-47.94761784988253
 20
34.64824734865831
 30
0.0
 11
-34.41900124988253
 21
34.64824734865831
 31
0.0
  0
LWPOLYLINE
  5
52
330
2
100
AcDbEntity
  8
0
100
AcDbPolyline
 90
       71
 70
     0
 43
0.0
 10
-48.04154411228252
 20
37.15707914865832
 10
-48.24366327548253
 20
37.11406866545832
 10
-48.44681090428252
 20
37.07252062545832
 10
-48.65104068348253
 20
37.03244112465832
 10
-48.85592336028253
 20
36.99392446065831
 10
-49.06091578428252
 20
36.95707946545831
 10
-49.26550215068253
 20
36.92198490865832
 10
-49.46928326748253
 20
36.88869049105832
 10
-49.67229905308252
 20
36.85715972465832
 10
-49.87510697628252
 20
36.82728742865831
 10
-50.07989560348253
 20
36.79877986545832
 10
-50.21880449468253
 20
36.78037435345832
 10
-50.36052056508252
 20
36.76238098225831
 10
-50.50581675228253
 20
36.74475684625832
 10
-50.65528134428253
 20
36.72748470065831
 10
-50.80876402908252
 20
36.71064995665832
 10
-50.96592984188252
 20
36.69436368945832
 10
-51.12637621468252
 20
36.67873567825831
 10
-51.28943015068253
 20
36.66387050705832
 10
-51.45435104348253
 20
36.64987147185832
 10
-51.62064020508252
 20
36.63682176625831
 10
-51.78876659548253
 20
36.62472419665831
 10
-51.95944109628253
 20
36.61356147025832
 10
-52.08956978428253
 20
36.60579668145832
 10
-52.22196942588253
 20
36.59856571665832
 10
-52.35707779548253
 20
36.59188627345832
 10
-52.49533266428253
 20
36.58577605105832
 10
-52.63717806588252
 20
36.58026027825831
 10
-52.78308305468254
 20
36.57539430065832
 10
-52.93352294428252
 20
36.57124099665832
 10
-53.08897304668253
 20
36.56786323985832
 10
-53.21723198108253
 20
36.56576608465831
 10
-53.34907753788254
 20
36.56426412625831
 10
-53.48458560028253
 20
36.56341596785832
 10
-53.62383205468252
 20
36.56328021745832
 10
-53.76689278428253
 20
36.56391547665831
 10
-53.91380129148252
 20
36.56538085585831
 10
-54.06442154108252
 20
36.56773747505831
 10
-54.21857511068253
 20
36.57104696145831
 10
-54.37608358268253
 20
36.57537093905832
 10
-54.53676853628252
 20
36.58077103505832
 10
-54.74172739068253
 20
36.58911205585831
 10
-54.95046751708253
 20
36.59925355345832
 10
-55.16208571068253
 20
36.61121827985831
 10
-55.37567877148252
 20
36.62502898545832
 10
-55.59042330908252
 20
36.64070273105831
 10
-55.80581520348252
 20
36.65823379665831
 10
-56.02111155228254
 20
36.67756170065832
 10
-56.23429510748252
 20
36.69842970225831
 10
-56.44369647068252
 20
36.72061192945832
 10
-56.65031199388252
 20
36.74420226865832
 10
-56.85580447068253
 20
36.76937454385832
 10
-57.06183669308252
 20
36.79630257745831
 10
-57.26946140988252
 20
36.82509144465832
 10
-57.47729117308253
 20
36.85557122065832
 10
-57.68369277788252
 20
36.88754239345832
 10
-57.88849015068253
 20
36.92096207825832
 10
-58.09169920668253
 20
36.95579046705831
 10
-58.29264669628253
 20
36.99184343825832
 10
-58.49048707548252
 20
37.02890079505833
 10
-58.68437479868252
 20
37.06674233585831
 10
-58.83611261468253
 20
37.09743384945832
 10
-58.98459718748252
 20
37.12838342225831
 10
-59.12964612508253
 20
37.15948816305832
 10
-59.27107702908252
 20
37.19064518385831
 10
-59.40870750748253
 20
37.22175159345831
 10
-59.54239753468253
 20
37.25271476785831
 10
-59.67217656508253
 20
37.28348315985831
 10
-59.79811642428252
 20
37.31401549265832
 10
-59.92028893788253
 20
37.34427048305831
 10
-60.03876593148253
 20
37.37420685425832
  0
LWPOLYLINE
  5
53
330
2
100
AcDbEntity
  8
0
100
AcDbPolyline
 90
       49
 70
     0
 43
0.0
 10
-65.95666454908253
 20
40.79128003825831
 10
-65.93740550428254
 20
40.70480562705831
 10
-65.91672634268253
 20
40.61750901105832
 10
-65.89458205788253
 20
40.52940408945832
 10
-65.87093198908252
 20
40.44051818065832
 10
-65.84575287388253
 20
40.35093226705831
 10
-65.81902579228253
 20
40.26074074385831
 10
-65.79072909948251
 20
40.17002663665831
 10
-65.76083022268253
 20
40.07882747665832
 10
-65.72929386268254
 20
39.98716942225832
 10
-65.69609026428253
 20
39.89509132145832
 10
-65.66121187388254
 20
39.80268277265832
 10
-65.62465668028252
 20
39.71004606385832
 10
-65.58641659868253
 20
39.61726659505831
 10
-65.54645923068253
 20
39.52436219825832
 10
-65.50474609948253
 20
39.43133381425831
 10
-65.46123952028253
 20
39.33818648465831
 10
-65.41590499388252
 20
39.24494163185832
 10
-65.36870881308252
 20
39.15162477425831
 10
-65.31961328668254
 20
39.05825629105832
 10
-65.26856478748253
 20
38.96483598545831
 10
-65.21550569788252
 20
38.87135852305832
 10
-65.16038094268253
 20
38.77782579025832
 10
-65.10314559868253
 20
38.68426857585832
 10
-65.04375728188254
 20
38.59072489425832
 10
-64.98217364348253
 20
38.49723399985832
 10
-64.91835248188252
 20
38.40384011665832
 10
-64.85225162908253
 20
38.31058870865832
 10
-64.78383578268253
 20
38.21753456305831
 10
-64.71309707548252
 20
38.12476974705831
 10
-64.64003450588254
 20
38.03239564945831
 10
-64.56465901788252
 20
37.94052279825832
 10
-64.48702934908252
 20
37.84929828785832
 10
-64.40721618748253
 20
37.75887834705832
 10
-64.32528298908252
 20
37.66940659665833
 10
-64.24126428828254
 20
37.58097620785832
 10
-64.15518739068253
 20
37.49366774225832
 10
-64.06709170428253
 20
37.40756930545831
 10
-63.97706505628253
 20
37.32279919345831
 10
-63.88520737788253
 20
37.23948325105832
 10
-63.79160976668252
 20
37.15773544145832
 10
-63.69632799068252
 20
37.07762222225832
 10
-63.59940898108252
 20
36.99919816945831
 10
-63.50091401148253
 20
36.92252507665832
 10
-63.40096169628253
 20
36.84769360465832
 10
-63.29968499068253
 20
36.77480163185832
 10
-63.19719677308253
 20
36.70392987985831
 10
-63.09352963068253
 20
36.63509045425832
 10
-62.98869607228253
 20
36.56827830705831
  0
LWPOLYLINE
  5
54
330
2
100
AcDbEntity
  8
0
100
AcDbPolyline
 90
       31
 70
     0
 43
0.0
 10
-57.81395559548252
 20
34.86352156625832
 10
-57.33848240508253
 20
34.82777463505832
 10
-56.86132004028253
 20
34.79517272145832
 10
-56.38415515388253
 20
34.76584389585831
 10
-55.90870545148253
 20
34.73987203985831
 10
-55.75036357308253
 20
34.73193987025832
 10
-55.59130454588252
 20
34.72433641905832
 10
-55.43071412348253
 20
34.71702945745831
 10
-55.30878321308254
 20
34.71172632945832
 10
-55.18522960188253
 20
34.70656972945831
 10
-55.05975000828254
 20
34.70155753425832
 10
-54.93204115228252
 20
34.69668762545831
 10
-54.80179627228253
 20
34.69195950065832
 10
-54.66869468508253
 20
34.68737911025832
 10
-54.53241222428252
 20
34.68295402385832
 10
-54.39262472348253
 20
34.67869180785832
 10
-54.27805669148253
 20
34.67540547345832
 10
-54.16089261948252
 20
34.67223862705832
 10
-54.04098715388252
 20
34.66920167025832
 10
-53.91819494748253
 20
34.66630501105832
 10
-53.79237064828252
 20
34.66355905265832
 10
-53.66335567388254
 20
34.66097555665832
 10
-53.53093850268253
 20
34.65857169745832
 10
-53.39489438268252
 20
34.65636600785831
 10
-53.25499855868253
 20
34.65437701585832
 10
-53.11102627708253
 20
34.65262325425832
 10
-52.96280224188253
 20
34.65112497745831
 10
-52.81034898108252
 20
34.64990935505832
 10
-52.65373848028253
 20
34.64900528145832
 10
-52.49304272508253
 20
34.64844164625832
 10
-52.32833369948252
 20
34.64824734865832
  0
LWPOLYLINE
  5
55
330
2
100
AcDbEntity
  8
0
100
AcDbPolyline
 90
        4
 70
     0
 43
0.0
 10
-58.08552152668252
 20
28.67190981425832
 10
-57.78588738108253
 20
28.66009850225831
 10
-57.48605204348253
 20
28.65297634385832
 10
-57.18604883388252
 20
28.65054524465832
  0
LWPOLYLINE
  5
56
330
2
100
AcDbEntity
  8
0
100
AcDbPolyline
 90
       33
 70
     0
 43
0.0
 10
-62.98869607228253
 20
36.56827830705831
 10
-62.88499046268253
 20
36.50430305105832
 10
-62.77904627868252
 20
36.44050111345832
 10
-62.67078672028253
 20
36.37690234065832
 10
-62.56013498908252
 20
36.31353658225831
 10
-62.44705246908253
 20
36.25045332785831
 10
-62.33165328828253
 20
36.18778064785832
 10
-62.21408975228253
 20
36.12566626065831
 10
-62.09451417468253
 20
36.06425787825832
 10
-61.93219338748253
 20
35.98371050865832
 10
-61.76680691868252
 20
35.90489260465832
 10
-61.59859527548253
 20
35.82801590865832
 10
-61.42781128668253
 20
35.75328773745831
 10
-61.25475705468253
 20
35.68089771185831
 10
-61.07974699868253
 20
35.61103103185832
 10
-60.90307767708253
 20
35.54385680305832
 10
-60.72497418908253
 20
35.47947975665831
 10
-60.54564377468253
 20
35.41798852625832
 10
-60.36529678108252
 20
35.35946618865832
 10
-60.18415599068252
 20
35.30397357585831
 10
-60.00244729788253
 20
35.25156595665832
 10
-59.82037004508253
 20
35.20228734865832
 10
-59.63801736828252
 20
35.15613675345832
 10
-59.45545584988252
 20
35.11310191985831
 10
-59.27275125788253
 20
35.07317020305832
 10
-59.08996609948253
 20
35.03632739185831
 10
-58.90716206908253
 20
35.00255888625832
 10
-58.72440443388253
 20
34.97184951025831
 10
-58.54177274908253
 20
34.94418179185831
 10
-58.35935014428253
 20
34.91953768465831
 10
-58.17721187708253
 20
34.89789747345832
 10
-57.99540172668253
 20
34.87923478225831
 10
-57.81395559548252
 20
34.86352156625832
  0
LWPOLYLINE
  5
57
330
2
100
AcDbEntity
  8
0
100
AcDbPolyline
 90
       21
 70
     0
 43
0.0
 10
-48.07134323548253
 20
36.84931544945832
 10
-48.31936675228253
 20
36.79118616465832
 10
-48.56817564028253
 20
36.72243700145832
 10
-48.81417255548253
 20
36.64386060465832
 10
-49.05691419708253
 20
36.55559769265831
 10
-49.29595621948253
 20
36.45781222065831
 10
-49.53086435068254
 20
36.35068769265831
 10
-49.76121353948252
 20
36.23442695825831
 10
-49.98658731708252
 20
36.10925227345831
 10
-50.20657825628252
 20
35.97540510225831
 10
-50.42079018108252
 20
35.83314479665832
 10
-50.62883868988253
 20
35.68274805425831
 10
-50.83035142428252
 20
35.52450864465832
 10
-51.02496945788253
 20
35.35873631185831
 10
-51.21234798908253
 20
35.18575606545831
 10
-51.39215673308253
 20
35.00590779025833
 10
-51.56408094588252
 20
34.81954528305832
 10
-51.72782214108252
 20
34.62703551665831
 10
-51.88309886748253
 20
34.42875780785832
 10
-52.02964819068253
 20
34.22510192465832
 10
-52.13479929788253
 20
34.06734225265831
  0
LWPOLYLINE
  5
58
330
2
100
AcDbEntity
  8
0
100
AcDbPolyline
 90
       22
 70
     0
 43
0.0
 10
-48.23397043708253
 20
34.05835823025831
 10
-48.20494125788252
 20
34.14749919665832
 10
-48.16389533308253
 20
34.25450346865832
 10
-48.11670685468254
 20
34.35954366225832
 10
-48.06351787228253
 20
34.46231647025832
 10
-48.00448530748252
 20
34.56252454545832
 10
-47.93978060028253
 20
34.65987706225832
 10
-47.86959009468254
 20
34.75408936145832
 10
-47.79411520508253
 20
34.84488347345831
 10
-47.71357389948252
 20
34.93198744145832
 10
-47.62819907868252
 20
35.01513849905832
 10
-47.53823750268253
 20
35.09408468785832
 10
-47.44395155868253
 20
35.16858394865831
 10
-47.34561907708253
 20
35.23840556145831
 10
-47.24353027868253
 20
35.30333324465832
 10
-47.13798653468252
 20
35.36316613905831
 10
-47.02929922908253
 20
35.41771952785831
 10
-46.91778910108253
 20
35.46682524465831
 10
-46.80378524988252
 20
35.51033224145832
 10
-46.68762430428252
 20
35.54810704145831
 10
-46.56964957628253
 20
35.58003419345832
 10
-46.45318570428253
 20
35.60544517425831
  0
LWPOLYLINE
  5
59
330
2
100
AcDbEntity
  8
0
100
AcDbPolyline
 90
        4
 70
     0
 43
0.0
 10
-49.00093273788254
 20
33.98493558705832
 10
-49.88966704028253
 20
33.99510291665832
 10
-50.77719897148253
 20
34.00636543025832
 10
-51.66339624348252
 20
34.01872212465832
  0
LWPOLYLINE
  5
5A
330
2
100
AcDbEntity
  8
0
100
AcDbPolyline
 90
       21
 70
     0
 43
0.0
 10
-52.13480141308252
 20
34.06734226385831
 10
-52.13570738748252
 20
34.06421161585832
 10
-52.13397391228252
 20
34.06063645265832
 10
-52.12934537468253
 20
34.05716466225832
 10
-52.12193003708254
 20
34.05379875185831
 10
-52.11183376188252
 20
34.05054652465832
 10
-52.09914885308252
 20
34.04741284785831
 10
-52.08392932348253
 20
34.04439746065832
 10
-52.06625593308253
 20
34.04150886065831
 10
-52.04614800028252
 20
34.03874705585831
 10
-52.02362950588252
 20
34.03611658065832
 10
-51.99874222108253
 20
34.03362548305832
 10
-51.97142538588252
 20
34.03127382545832
 10
-51.94171557788253
 20
34.02907310385831
 10
-51.90957351388253
 20
34.02702989745832
 10
-51.87493428508253
 20
34.02515199665831
 10
-51.83781946748253
 20
34.02345370225831
 10
-51.79810516668253
 20
34.02194425905832
 10
-51.75583405148252
 20
34.02064173585833
 10
-51.71093047068253
 20
34.01956128465831
 10
-51.66339624348252
 20
34.01872212465832
  0
LINE
  5
5B
330
2
100
AcDbEntity
  8
0
100
AcDbLine
 10
-52.32833369948252
 20
34.64824734865831
 30
0.0
 11
-51.70988980988252
 21
34.64824734865831
 31
0.0
  0
LWPOLYLINE
  5
5C
330
2
100
AcDbEntity
  8
0
100
AcDbPolyline
 90
        3
 70
     0
 43
0.0
 10
-48.23731852028252
 20
34.05447170065832
 10
-48.24394166908253
 20
34.04969464625832
 10
-48.25029638748254
 20
34.04489036465832
  0
LWPOLYLINE
  5
5D
330
2
100
AcDbEntity
  8
0
100
AcDbPolyline
 90
        3
 70
     0
 43
0.0
 10
-48.23731852028252
 20
34.05447170065832
 10
-48.23429794748253
 20
34.05756896465832
 10
-48.23397117628252
 20
34.05835823185831
  0
LWPOLYLINE
  5
5E
330
2
100
AcDbEntity
  8
0
100
AcDbPolyline
 90
       23
 70
     0
 43
0.0
 10
-49.00093273788254
 20
33.98493558705832
 10
-48.95812198108252
 20
33.98461759025831
 10
-48.91526985148253
 20
33.98458591185832
 10
-48.87239896668252
 20
33.98483821905832
 10
-48.82950050268253
 20
33.98537587345831
 10
-48.78657354588253
 20
33.98620409745832
 10
-48.74359435068253
 20
33.98733287185832
 10
-48.70077149468253
 20
33.98876883505831
 10
-48.65834184188253
 20
33.99051634545832
 10
-48.61638573788252
 20
33.99258646385832
 10
-48.57503204348252
 20
33.99499137905833
 10
-48.53468336028253
 20
33.99772716785832
 10
-48.49573704668253
 20
34.00078379665831
 10
-48.45836600828253
 20
34.00416571825831
 10
-48.42291031708253
 20
34.00786307985832
 10
-48.38979789148253
 20
34.01185075505832
 10
-48.35936423708253
 20
34.01610597265831
 10
-48.33189793468253
 20
34.02060750065832
 10
-48.30783451068253
 20
34.02529953585831
 10
-48.28750305468253
 20
34.03012133585832
 10
-48.27104419068253
 20
34.03503569265831
 10
-48.25861835548252
 20
34.03998230545831
 10
-48.25029638748254
 20
34.04489036465832
  0
LWPOLYLINE
  5
5F
330
2
100
AcDbEntity
  8
0
100
AcDbPolyline
 90
        4
 70
     0
 43
0.0
 10
-47.60736083548252
 20
36.93190389585832
 10
-47.76140863708252
 20
36.90814051025831
 10
-47.91812102908252
 20
36.88024950705831
 10
-48.07134323708253
 20
36.84931545425832
  0
LWPOLYLINE
  5
60
330
2
100
AcDbEntity
  8
0
100
AcDbPolyline
 90
       51
 70
     0
 43
0.0
 10
-59.41875728028253
 20
38.33049555665831
 10
-59.22619668828253
 20
38.25712079825832
 10
-59.03244137468252
 20
38.18688646865832
 10
-58.83744794428253
 20
38.11978975345831
 10
-58.64119965948253
 20
38.05583554065831
 10
-58.44378642748253
 20
37.99505949105832
 10
-58.24532481468253
 20
37.93750496625832
 10
-58.04589215548253
 20
37.88320033745832
 10
-57.84540885788253
 20
37.83211399985831
 10
-57.64375609628253
 20
37.78419936625831
 10
-57.44074694268253
 20
37.73939774705832
 10
-57.23592205308253
 20
37.69760207345832
 10
-57.02875398428253
 20
37.65869318065832
 10
-56.87148587548254
 20
37.63133476305832
 10
-56.71215819708253
 20
37.60548579025832
 10
-56.55032610268253
 20
37.58109892145831
 10
-56.38554474908253
 20
37.55812681905832
 10
-56.21738035868253
 20
37.53653719825832
 10
-56.04544342268252
 20
37.51635799185832
 10
-55.86935549628252
 20
37.49763218865832
 10
-55.68873813788252
 20
37.48040277905831
 10
-55.54073819708253
 20
37.46772870705832
 10
-55.38946014588252
 20
37.45608084465832
 10
-55.23476691868252
 20
37.44550019825832
 10
-55.07652144188253
 20
37.43602777265831
 10
-54.91458665148252
 20
37.42770457585832
 10
-54.74882691708252
 20
37.42057583185832
 10
-54.57911238428252
 20
37.41470364945832
 10
-54.40531463868253
 20
37.41015435985831
 10
-54.22730526748253
 20
37.40699428945831
 10
-54.04495585788253
 20
37.40528976945831
 10
-53.85819409148253
 20
37.40510598065832
 10
-53.66717204188252
 20
37.40650352465832
 10
-53.47209787388253
 20
37.40954185585831
 10
-53.27317975708253
 20
37.41428042545832
 10
-53.07062586108253
 20
37.42077868945832
 10
-52.86465330108253
 20
37.42909094065832
 10
-52.65551500348253
 20
37.43925083345832
 10
-52.44347284508252
 20
37.45128686065832
 10
-52.22878869788253
 20
37.46522751985832
 10
-52.01172444188253
 20
37.48110130065831
 10
-51.73749720188253
 20
37.50368477265832
 10
-51.46077867708253
 20
37.52926520625832
 10
-51.18238731868252
 20
37.55777453585832
 10
-50.90314158588252
 20
37.58914469585831
 10
-50.53062382748253
 20
37.63535177425831
 10
-50.15832805148253
 20
37.68664840625832
 10
-49.78654009308254
 20
37.74315922865832
 10
-49.41545820828252
 20
37.80485826225831
 10
-49.04493030268253
 20
37.87111704785832
 10
-48.67471670428253
 20
37.94115651025832
  0
LWPOLYLINE
  5
61
330
2
100
AcDbEntity
  8
0
100
AcDbPolyline
 90
       29
 70
     0
 43
0.0
 10
-56.04819165628253
 20
37.51814701585832
 10
-55.82401018908253
 20
37.49477409265832
 10
-55.59359838268253
 20
37.47395173585831
 10
-55.35587953788253
 20
37.45573559825832
 10
-55.11011108028253
 20
37.44022965745832
 10
-54.85627878268252
 20
37.42760981905832
 10
-54.59459222268254
 20
37.41805933745832
 10
-54.32513532828252
 20
37.41175063825831
 10
-54.04798498588253
 20
37.40885114545832
 10
-53.76372005788252
 20
37.40951431345832
 10
-53.47299364988252
 20
37.41386535825831
 10
-53.17581828028252
 20
37.42202320305832
 10
-52.87258920028254
 20
37.43409558865831
 10
-52.56424230428253
 20
37.45014937585832
 10
-52.25148052348252
 20
37.47023288785832
 10
-51.93505833148252
 20
37.49436757425832
 10
-51.61594472028252
 20
37.52253291825831
 10
-51.29550682108252
 20
37.55464230225832
 10
-50.97508698748253
 20
37.59056747505831
 10
-50.65536757308253
 20
37.63021964625831
 10
-50.33697936508253
 20
37.67350266705832
 10
-50.02102085468253
 20
37.72023625745831
 10
-49.70875431708252
 20
37.77017561265831
 10
-49.39782942748253
 20
37.82368246225832
 10
-49.07505596508253
 20
37.88320089905831
 10
-48.72005089788252
 20
37.95244002545832
 10
-48.32445948668253
 20
38.03241702545832
 10
-47.88271009628252
 20
38.12268297105831
 10
-47.39977864988254
 20
38.21936907665831
  0
LWPOLYLINE
  5
62
330
2
100
AcDbEntity
  8
0
100
AcDbPolyline
 90
       31
 70
     0
 43
0.0
 10
-65.20986850268252
 20
42.86463448945831
 10
-65.14472754908253
 20
42.75595445585832
 10
-65.07843667068252
 20
42.64885796625832
 10
-65.01100352188252
 20
42.54334293425833
 10
-64.94242479548254
 20
42.43939424945832
 10
-64.87269663228253
 20
42.33699783185832
 10
-64.80182394428253
 20
42.23615675345832
 10
-64.72980839868253
 20
42.13687202065832
 10
-64.65662992668253
 20
42.03911918865832
 10
-64.58224352028253
 20
41.94284652945831
 10
-64.50652613308253
 20
41.84791859025832
 10
-64.42934142908253
 20
41.75419753265831
 10
-64.35057794588252
 20
41.66161969265832
 10
-64.27019964988253
 20
41.57019680945832
 10
-64.18844734428254
 20
41.48016805585831
 10
-64.10555906268253
 20
41.39174106545833
 10
-64.02148492828253
 20
41.30476986545832
 10
-63.96468571868253
 20
41.24745679025831
 10
-63.90708436348253
 20
41.19046528785832
 10
-63.84845991868253
 20
41.13357408305831
 10
-63.78859764188253
 20
41.07657371825832
 10
-63.72730761148253
 20
41.01930201905832
 10
-63.66440610428252
 20
40.96160863185832
 10
-63.61605284828253
 20
40.91796596625831
 10
-63.56655783068252
 20
40.87390543825832
 10
-63.51578908988253
 20
40.82933095825832
 10
-63.46361466268253
 20
40.78414643985833
 10
-63.40992979708253
 20
40.73827973905832
 10
-63.35473857468253
 20
40.69175450705831
 10
-63.29807228668252
 20
40.64461833745832
 10
-63.23996222588252
 20
40.59691882705832
  0
LWPOLYLINE
  5
63
330
2
100
AcDbEntity
  8
0
100
AcDbPolyline
 90
       92
 70
     0
 43
0.0
 10
-66.46125752508253
 20
46.13908249265832
 10
-66.42520221948252
 20
45.98173275825832
 10
-66.38710712188253
 20
45.82381079505831
 10
-66.34694357948252
 20
45.66551708145833
 10
-66.30468664988253
 20
45.50705079025832
 10
-66.26031342428253
 20
45.34860329265831
 10
-66.21382673308253
 20
45.19043805745831
 10
-66.16525885788252
 20
45.03288523665832
 10
-66.11466593788254
 20
44.87630825425832
 10
-66.06207609148254
 20
44.72094529745832
 10
-66.00738464348253
 20
44.56662938705831
 10
-65.95040612828253
 20
44.41299045745831
 10
-65.89107678588253
 20
44.26002616945832
 10
-65.82969159068253
 20
44.10860963505832
 10
-65.76672784188253
 20
43.95989543505832
 10
-65.70242064028253
 20
43.81431285585832
 10
-65.63679373468253
 20
43.67176831665832
 10
-65.56986539228254
 20
43.53216608305832
 10
-65.50165832828253
 20
43.39542904465832
 10
-65.43221563228252
 20
43.26152579505833
 10
-65.36149235868254
 20
43.13026544785831
 10
-65.28968687068253
 20
43.00190855505831
 10
-65.21786129148253
 20
42.87813411025832
 10
-65.14715283388253
 20
42.76050621105832
 10
-65.07775858588252
 20
42.64889080625831
 10
-65.00935051388253
 20
42.54236183505832
 10
-64.94166353628253
 20
42.44019489585832
 10
-64.87451180988253
 20
42.34186068785832
 10
-64.80774037148254
 20
42.24692958065833
 10
-64.74122011708252
 20
42.15505149105832
 10
-64.67484447548253
 20
42.06594117265832
 10
-64.60850530428253
 20
41.97933951825832
 10
-64.54213767868253
 20
41.89506644465832
 10
-64.47557919388254
 20
41.81284089905832
 10
-64.40890149948254
 20
41.73268632305832
 10
-64.34207750748253
 20
41.65451048145832
 10
-64.27263493948252
 20
41.57547915505833
 10
-64.19600543548253
 20
41.49075443825831
 10
-64.11047683868253
 20
41.39906876145832
 10
-64.01871673628253
 20
41.30384323025832
 10
-63.92313300188252
 20
41.20785002545832
 10
-63.82361883868252
 20
41.11111161905831
 10
-63.71949926748253
 20
41.01311268305831
 10
-63.61009639548253
 20
40.91338599345832
 10
-63.49474346428253
 20
40.81151390865832
 10
-63.37184651228253
 20
40.70633167665831
 10
-63.24144295548252
 20
40.59812864465832
 10
-63.11276750108253
 20
40.49443071985832
 10
-62.99640884028253
 20
40.40299843985831
 10
-62.89189462588253
 20
40.32256359345832
 10
-62.79527815548252
 20
40.24948129585832
 10
-62.70449872828253
 20
40.18181470865831
 10
-62.61482776828253
 20
40.11583041905832
 10
-62.52069248828252
 20
40.04742503825831
 10
-62.42017464348253
 20
39.97537361905832
 10
-62.31298023068252
 20
39.89968018705831
 10
-62.19805485788253
 20
39.81986114225832
 10
-62.07405274748253
 20
39.73531091825831
 10
-61.93931679868253
 20
39.64532404945831
 10
-61.79089277948253
 20
39.54850273585831
 10
-61.62697784988253
 20
39.44443473425831
 10
-61.45497053788253
 20
39.33850935185831
 10
-61.28407260828253
 20
39.23662990385832
 10
-61.11395173468253
 20
39.13852035825832
 10
-60.94315203548252
 20
39.04326983025832
 10
-60.77220075548253
 20
38.95114489425832
 10
-60.60128079868253
 20
38.86220062865832
 10
-60.43057719068253
 20
38.77648725425832
 10
-60.26019705948253
 20
38.69401021745832
 10
-60.09003421628253
 20
38.61467383505832
 10
-59.91975958748253
 20
38.53828602225832
 10
-59.74908064828253
 20
38.46468132785832
 10
-59.57792164348252
 20
38.39380468785831
 10
-59.40626231548253
 20
38.32562953585831
 10
-59.23403708188253
 20
38.26011498705832
 10
-59.06115048668253
 20
38.19721431825832
 10
-58.88748431868253
 20
38.13687894545831
 10
-58.71298371228252
 20
38.07908766065832
 10
-58.53772201948252
 20
38.02386510705832
 10
-58.36169141148253
 20
37.97121289585832
 10
-58.18462880348253
 20
37.92105833585832
 10
-58.00621383068253
 20
37.87332544145832
 10
-57.82615454428253
 20
37.82795993585832
 10
-57.64415166588253
 20
37.78491854865832
 10
-57.45990860348253
 20
37.74417148305831
 10
-57.27310970588253
 20
37.70569828625832
 10
-57.08276554428252
 20
37.66936337905832
 10
-56.88740115708253
 20
37.63498130865832
 10
-56.68627289148253
 20
37.60253753745832
 10
-56.47934685788253
 20
37.57216096145831
 10
-56.26664428348253
 20
37.54398632945831
 10
-56.04819165628253
 20
37.51814701585832
  0
LWPOLYLINE
  5
64
330
2
100
AcDbEntity
  8
0
100
AcDbPolyline
 90
       59
 70
     0
 43
0.0
 10
-60.03876593148253
 20
37.37420685425832
 10
-60.22958159868252
 20
37.42448146705832
 10
-60.41784801308253
 20
37.47722780145831
 10
-60.60356770428253
 20
37.53236202865831
 10
-60.78671873148253
 20
37.58979095825832
 10
-60.96718126588253
 20
37.64938397425832
 10
-61.14481101308253
 20
37.71100110225831
 10
-61.31947477148253
 20
37.77450263345832
 10
-61.49108373308252
 20
37.83974994225831
 10
-61.65956017948253
 20
37.90660467025832
 10
-61.82482578908253
 20
37.97492670225832
 10
-61.98679981308252
 20
38.04456887825832
 10
-62.14540088988253
 20
38.11538228785831
 10
-62.30050011868253
 20
38.18718928305832
 10
-62.45177842108253
 20
38.25969728945832
 10
-62.59886917148253
 20
38.33258500625832
 10
-62.70622288668253
 20
38.38730379985832
 10
-62.81088588348253
 20
38.44190255025832
 10
-62.91272916188253
 20
38.49622835505831
 10
-63.01162372668253
 20
38.55012831985832
 10
-63.10747661468253
 20
38.60346936145831
 10
-63.20033900348253
 20
38.65619767505831
 10
-63.29029810588252
 20
38.70827926865832
 10
-63.37744113468253
 20
38.75968015185832
 10
-63.48940340188253
 20
38.82710619185832
 10
-63.59672938428253
 20
38.89323603825831
 10
-63.69963410428253
 20
38.95804407505831
 10
-63.79832528028252
 20
39.02150600465831
 10
-63.89298140188253
 20
39.08360279505831
 10
-63.98377364668252
 20
39.14431673585831
 10
-64.07086881308252
 20
39.20363188785831
 10
-64.15441616508252
 20
39.26153941745831
 10
-64.23456058268252
 20
39.31803226705832
 10
-64.31145324188253
 20
39.37311231185831
 10
-64.38527050588253
 20
39.42681716465832
 10
-64.45619503708252
 20
39.47919337585832
 10
-64.52441219548252
 20
39.53029418225832
 10
-64.59011815868253
 20
39.58019958545832
 10
-64.65351180348253
 20
39.62899627505832
 10
-64.71479435388252
 20
39.67677714065832
 10
-64.77417641468253
 20
39.72365986225832
 10
-64.83187093788252
 20
39.76976831505832
 10
-64.91571844828252
 20
39.83776797105832
 10
-64.99699102428252
 20
39.90482878225831
 10
-65.07639060188253
 20
39.97145271665832
 10
-65.15445530428252
 20
40.03805147185832
 10
-65.23167557468252
 20
40.10501697105833
 10
-65.30851493308253
 20
40.17275228305832
 10
-65.38542304508253
 20
40.24166618385832
 10
-65.46282109308254
 20
40.31217911505832
 10
-65.51488990748253
 20
40.36028140625831
 10
-65.56744392668253
 20
40.40938550705832
 10
-65.62056658268253
 20
40.45959438865832
 10
-65.67434985148253
 20
40.51102261265831
 10
-65.72891991388252
 20
40.56383111505831
 10
-65.78441149468253
 20
40.61819242225833
 10
-65.84091865308252
 20
40.67424060465831
 10
-65.89837276828252
 20
40.73195588625832
 10
-65.95666454908253
 20
40.79128003825831
  0
LWPOLYLINE
  5
65
330
2
100
AcDbEntity
  8
0
100
AcDbPolyline
 90
       35
 70
     0
 43
0.0
 10
-63.23996231388253
 20
40.59691886385831
 10
-63.16653610588253
 20
40.53752521265831
 10
-63.09108014108253
 20
40.47743853745831
 10
-63.01378648188252
 20
40.41681596625831
 10
-62.93477034268253
 20
40.35575031025832
 10
-62.85383954108253
 20
40.29407712785832
 10
-62.77072504348253
 20
40.23156766385832
 10
-62.68525102108252
 20
40.16807294225833
 10
-62.59761445628253
 20
40.10376309745832
 10
-62.50810553788253
 20
40.03888803825831
 10
-62.41701445148253
 20
39.97369767985832
 10
-62.32463138268253
 20
39.90844193425831
 10
-62.23124651708253
 20
39.84337071185832
 10
-62.16064071068252
 20
39.79478116625832
 10
-62.08925127388253
 20
39.74619605585832
 10
-62.01685203868253
 20
39.69748227825831
 10
-61.94384556668253
 20
39.64893406225833
 10
-61.84638633148253
 20
39.58504480305832
 10
-61.74932864828253
 20
39.52245935025832
 10
-61.65315850588253
 20
39.46147418865832
 10
-61.55821151548252
 20
39.40229039825832
 10
-61.46422176668252
 20
39.34472745105832
 10
-61.37077297148253
 20
39.28850941745832
 10
-61.23096238268253
 20
39.20626091985831
 10
-61.09158099388253
 20
39.12644903665832
 10
-60.95272724508252
 20
39.04907990065832
 10
-60.81429850108253
 20
38.97405856945831
 10
-60.67614186428253
 20
38.90126482865832
 10
-60.53810443548253
 20
38.83057846545832
 10
-60.35395822428252
 20
38.73941258865832
 10
-60.16928487068253
 20
38.65156795985832
 10
-59.98361712188253
 20
38.56683309265832
 10
-59.79659077788253
 20
38.48504551665832
 10
-59.60825382268253
 20
38.40623880945832
 10
-59.41875728508253
 20
38.33049556465831
  0
LWPOLYLINE
  5
66
330
2
100
AcDbEntity
  8
0
100
AcDbPolyline
 90
       33
 70
     0
 43
0.0
 10
-66.43657413308253
 20
46.09396326865832
 10
-66.40206245628252
 20
45.94246303985832
 10
-66.36596097628253
 20
45.79164591505832
 10
-66.32824053308252
 20
45.64153648305832
 10
-66.28883726588253
 20
45.49202217105832
 10
-66.24767792348253
 20
45.34296876465831
 10
-66.20468642268253
 20
45.19429260785832
 10
-66.15978200828251
 20
45.04591656465832
 10
-66.11286807868253
 20
44.89773900145832
 10
-66.08040834588253
 20
44.79896751665831
 10
-66.04687467388252
 20
44.69994347985832
 10
-66.01213092988253
 20
44.60037402065831
 10
-65.97603511228253
 20
44.49996971825831
 10
-65.93842172828252
 20
44.39845496145832
 10
-65.89911941788253
 20
44.29555758865832
 10
-65.86842784668252
 20
44.21731468305832
 10
-65.83659720188252
 20
44.13803325105832
 10
-65.80353482588254
 20
44.05760558225832
 10
-65.76914805948253
 20
43.97592396305831
 10
-65.73334081468252
 20
43.89288350065831
 10
-65.69600328828252
 20
43.80839058705832
 10
-65.65702224988253
 20
43.72235443825831
 10
-65.61628446748253
 20
43.63468426705832
 10
-65.58234874908253
 20
43.56330925105832
 10
-65.54713101788252
 20
43.49077563025832
 10
-65.51054604188252
 20
43.41702867665833
 10
-65.47250859068253
 20
43.34201366385832
 10
-65.43293343548254
 20
43.26567586225833
 10
-65.39174222268252
 20
43.18797978545831
 10
-65.34888409788253
 20
43.10896690065832
 10
-65.30431508668252
 20
43.02869791505832
 10
-65.25799121308253
 20
42.94723353585832
 10
-65.20986849788252
 20
42.86463446865831
  0
LWPOLYLINE
  5
67
330
2
100
AcDbEntity
  8
0
100
AcDbPolyline
 90
        9
 70
     0
 43
0.0
 10
-48.67471670428253
 20
37.94115651025832
 10
-48.60885879708253
 20
37.95396726545832
 10
-48.54309424668253
 20
37.96687209585831
 10
-48.47743118748252
 20
37.97986190705831
 10
-48.41187775548253
 20
37.99292761105831
 10
-48.34644706268253
 20
38.00605921265832
 10
-48.28117211868253
 20
38.01924311185832
 10
-48.21609091388252
 20
38.03246480465832
 10
-48.08665682748253
 20
38.05896472465832
  0
LWPOLYLINE
  5
68
330
2
100
AcDbEntity
  8
0
100
AcDbPolyline
 90
       31
 70
     0
 43
0.0
 10
-46.48891320508252
 20
38.39652347025832
 10
-46.42060984668252
 20
38.41102132945831
 10
-46.35142318748252
 20
38.42542241905831
 10
-46.28137523228253
 20
38.43970766225832
 10
-46.21049330748252
 20
38.45385731985832
 10
-46.13882601468254
 20
38.46784898385832
 10
-46.06642727388252
 20
38.48165957905832
 10
-45.99334136828253
 20
38.49526820625832
 10
-45.91957401788252
 20
38.50866265105832
 10
-45.84512130908253
 20
38.52183287185831
 10
-45.76998877628253
 20
38.53476730865832
 10
-45.69421975228253
 20
38.54744831665832
 10
-45.61786702268253
 20
38.55985672625832
 10
-45.54097862908252
 20
38.57197553265832
 10
-45.46358363868253
 20
38.58379636785832
 10
-45.38570637308253
 20
38.59531302225832
 10
-45.30737132348252
 20
38.60652066865832
 10
-45.22860365148253
 20
38.61742000305832
 10
-45.14942868668252
 20
38.62801310065831
 10
-45.06987900188252
 20
38.63830099025832
 10
-44.99001613468253
 20
38.64828050545832
 10
-44.90990886428252
 20
38.65794743345832
 10
-44.82961470268253
 20
38.66729897105832
 10
-44.74914609308252
 20
38.67633797105832
 10
-44.66850420828253
 20
38.68506869425832
 10
-44.58770166908253
 20
38.69349417905832
 10
-44.50679685468253
 20
38.70161254705832
 10
-44.42585959388253
 20
38.70942069265831
 10
-44.34495164508253
 20
38.71691644785832
 10
-44.26410252828254
 20
38.72410137905831
 10
-44.18333369948252
 20
38.73097799185831
  0
LINE
  5
69
330
2
100
AcDbEntity
  8
0
100
AcDbLine
 10
-47.30513226588253
 20
38.23795277425832
 30
0.0
 11
-47.39977979708252
 21
38.21936882545831
 31
0.0
  0
LINE
  5
6A
330
2
100
AcDbEntity
  8
0
100
AcDbLine
 10
-47.16590352508252
 20
38.26543101425831
 30
0.0
 11
-47.30513226588253
 21
38.23795277425832
 31
0.0
  0
LINE
  5
6B
330
2
100
AcDbEntity
  8
0
100
AcDbLine
 10
-47.02996000028252
 20
38.2924259982583
 30
0.0
 11
-47.16590352508252
 21
38.26543101425831
 31
0.0
  0
LINE
  5
6C
330
2
100
AcDbEntity
  8
0
100
AcDbLine
 10
-46.89729351068253
 20
38.31894595185831
 30
0.0
 11
-47.02996000028252
 21
38.2924259982583
 31
0.0
  0
LINE
  5
6D
330
2
100
AcDbEntity
  8
0
100
AcDbLine
 10
-46.81069065308252
 20
38.33636786865831
 30
0.0
 11
-46.89729351068253
 21
38.31894595185831
 31
0.0
  0
LINE
  5
6E
330
2
100
AcDbEntity
  8
0
100
AcDbLine
 10
-46.72559693308253
 20
38.35358721585831
 30
0.0
 11
-46.81069065308252
 21
38.33636786865831
 31
0.0
  0
LINE
  5
6F
330
2
100
AcDbEntity
  8
0
100
AcDbLine
 10
-46.64206271388252
 20
38.37060637905831
 30
0.0
 11
-46.72559693308253
 21
38.35358721585831
 31
0.0
  0
LINE
  5
70
330
2
100
AcDbEntity
  8
0
100
AcDbLine
 10
-46.56015781788252
 20
38.38742638385831
 30
0.0
 11
-46.64206271388252
 21
38.37060637905831
 31
0.0
  0
LINE
  5
71
330
2
100
AcDbEntity
  8
0
100
AcDbLine
 10
-46.47997308188253
 20
38.40404647505831
 30
0.0
 11
-46.56015781788252
 21
38.38742638385831
 31
0.0
  0
LINE
  5
72
330
2
100
AcDbEntity
  8
0
100
AcDbLine
 10
-46.40162154748253
 20
38.4204637390583
 30
0.0
 11
-46.47997308188253
 21
38.40404647505831
 31
0.0
  0
LINE
  5
73
330
2
100
AcDbEntity
  8
0
100
AcDbLine
 10
-47.70546187868252
 20
38.13823450865831
 30
0.0
 11
-47.52011332508253
 21
38.17724058065831
 31
0.0
  0
LINE
  5
74
330
2
100
AcDbEntity
  8
0
100
AcDbLine
 10
-47.52011332508253
 20
38.17724058065831
 30
0.0
 11
-47.16149844668253
 21
38.25318871025831
 31
0.0
  0
LINE
  5
75
330
2
100
AcDbEntity
  8
0
100
AcDbLine
 10
-46.32527310748253
 20
38.43666551825831
 30
0.0
 11
-46.40162154748253
 21
38.4204637390583
 31
0.0
  0
LINE
  5
76
330
2
100
AcDbEntity
  8
0
100
AcDbLine
 10
-47.16149844668253
 20
38.25318871025831
 30
0.0
 11
-46.70687143388252
 21
38.34993514385832
 31
0.0
  0
LINE
  5
77
330
2
100
AcDbEntity
  8
0
100
AcDbLine
 10
-46.70687143388252
 20
38.34993514385832
 30
0.0
 11
-46.48891320508252
 21
38.39652347025831
 31
0.0
  0
LINE
  5
78
330
2
100
AcDbEntity
  8
0
100
AcDbLine
 10
-46.25135290268253
 20
38.45258548465831
 30
0.0
 11
-46.32527310748253
 21
38.43666551825831
 31
0.0
  0
LWPOLYLINE
  5
79
330
2
100
AcDbEntity
  8
0
100
AcDbPolyline
 90
       34
 70
     0
 43
0.0
 10
-45.52147951548252
 20
38.66261351825832
 10
-45.52767933148253
 20
38.65794119025832
 10
-45.53492643868253
 20
38.65316143185831
 10
-45.54322203228252
 20
38.64827063345831
 10
-45.55257613148252
 20
38.64326236785831
 10
-45.56300413468252
 20
38.63812987025831
 10
-45.57452430108253
 20
38.63286696305832
 10
-45.58713097468252
 20
38.62747874865832
 10
-45.60079324668253
 20
38.62197882865832
 10
-45.61549626428252
 20
38.61637189105831
 10
-45.63123374748252
 20
38.61065865905832
 10
-45.64799682428253
 20
38.60484058545832
 10
-45.66577652508253
 20
38.59891887185832
 10
-45.68456310268253
 20
38.59289472945831
 10
-45.70434622908253
 20
38.58676931505832
 10
-45.72511492828252
 20
38.58054375185832
 10
-45.74685759708252
 20
38.57421914225832
 10
-45.76956200188253
 20
38.56779655985831
 10
-45.79321529628252
 20
38.56127706225832
 10
-45.81780397308253
 20
38.55466170385832
 10
-45.84331387068253
 20
38.54795154705832
 10
-45.86973024028253
 20
38.54114764945832
 10
-45.89703763068253
 20
38.53425109585831
 10
-45.92522017948252
 20
38.52726294545832
 10
-45.95426204988252
 20
38.52018412465832
 10
-45.98414643708252
 20
38.51301569265832
 10
-46.01485525788253
 20
38.50575891345831
 10
-46.04637036988252
 20
38.49841497425831
 10
-46.07867349148253
 20
38.49098502065832
 10
-46.11174609468252
 20
38.48347019665832
 10
-46.14556832668253
 20
38.47587189585832
 10
-46.18012138428253
 20
38.46819124145832
 10
-46.21538954428253
 20
38.46042865745831
 10
-46.25135290268253
 20
38.45258548465832
  0
LWPOLYLINE
  5
7A
330
2
100
AcDbEntity
  8
0
100
AcDbPolyline
 90
       17
 70
     0
 43
0.0
 10
-45.52147949948252
 20
38.66261352945832
 10
-45.64516353788252
 20
38.65317054545831
 10
-45.76929110268252
 20
38.65370749105832
 10
-45.89306870108252
 20
38.66422092785832
 10
-46.01570506428252
 20
38.68464364945831
 10
-46.13641622588253
 20
38.71484509905831
 10
-46.25443052348252
 20
38.75463221265831
 10
-46.36899353148253
 20
38.80375064305831
 10
-46.47937289148252
 20
38.86188639505831
 10
-46.58486298908252
 20
38.92866782705832
 10
-46.68478946588253
 20
39.00366803185832
 10
-46.77851352668253
 20
39.08640755985832
 10
-46.86543602748253
 20
39.17635748625832
 10
-46.94500130588252
 20
39.27294279665832
 10
-47.01670072828252
 20
39.37554605105831
 10
-47.08007594588252
 20
39.48351134545831
 10
-47.13472183388252
 20
39.59614851345832
  0
LWPOLYLINE
  5
7B
330
2
100
AcDbEntity
  8
0
100
AcDbPolyline
 90
       58
 70
     0
 43
0.0
 10
-45.48155889148254
 20
38.69799736305831
 10
-45.51928315708252
 20
38.69401702385831
 10
-45.55709920028253
 20
38.69097415985832
 10
-45.59498155548253
 20
38.68887086865832
 10
-45.63291636988252
 20
38.68770820785831
 10
-45.67084087228252
 20
38.68748723665832
 10
-45.70848926748253
 20
38.68819815185832
 10
-45.74559028508253
 20
38.68980642065832
 10
-45.78209417308253
 20
38.69227063825831
 10
-45.81802786588252
 20
38.69555444145832
 10
-45.85340660028252
 20
38.69962425265832
 10
-45.88824022588252
 20
38.70444864145832
 10
-45.92254743548252
 20
38.70999998865832
 10
-45.95635082588252
 20
38.71625440145832
 10
-45.98966604188253
 20
38.72318964945833
 10
-46.02250885948253
 20
38.73078597265831
 10
-46.05489486748253
 20
38.73902593265831
 10
-46.08683914268254
 20
38.74789422225831
 10
-46.11835637948253
 20
38.75737759985832
 10
-46.14946053628253
 20
38.76746469105831
 10
-46.18016556348253
 20
38.77814613745831
 10
-46.21048290748253
 20
38.78941363505831
 10
-46.24042900828253
 20
38.80126268305831
 10
-46.27000305148253
 20
38.81368360465831
 10
-46.29925330588252
 20
38.82668975825831
 10
-46.32826234908253
 20
38.84031660625831
 10
-46.35701413788253
 20
38.85455881425832
 10
-46.38548507228253
 20
38.86940639505832
 10
-46.41368286908253
 20
38.88486552305831
 10
-46.44160433148252
 20
38.90093789425833
 10
-46.46924777948252
 20
38.91762698705832
 10
-46.49660940348252
 20
38.93493599505831
 10
-46.52368389948253
 20
38.95286803665832
 10
-46.55046600668252
 20
38.97142710865832
 10
-46.57694398108254
 20
38.99061334225832
 10
-46.60310516348252
 20
39.01042634865832
 10
-46.62894573148252
 20
39.03087299345832
 10
-46.65445757308252
 20
39.05195794545832
 10
-46.67962809148252
 20
39.07368286865832
 10
-46.70444511868253
 20
39.09605023985832
 10
-46.72889520988252
 20
39.11906186865831
 10
-46.75296431228253
 20
39.14271941905831
 10
-46.77663772668252
 20
39.16702435025832
 10
-46.79989980348253
 20
39.19197754545832
 10
-46.82273569308253
 20
39.21758120785832
 10
-46.84512313148252
 20
39.24382935025831
 10
-46.86704037628253
 20
39.27071585745832
 10
-46.88847804668253
 20
39.29825016625832
 10
-46.90942257308252
 20
39.32643833905832
 10
-46.92985470268253
 20
39.35527999345831
 10
-46.94975684988253
 20
39.38477781425832
 10
-46.96910783868253
 20
39.41493003985832
 10
-46.98789151868253
 20
39.44574380305831
 10
-47.00607504828252
 20
39.47719912145831
 10
-47.02366343708253
 20
39.50934363185832
 10
-47.04058244988253
 20
39.54207987185832
 10
-47.05681684028253
 20
39.57541211665832
 10
-47.07252694108253
 20
39.60974748305832
  0
LINE
  5
7C
330
2
100
AcDbEntity
  8
0
100
AcDbLine
 10
-48.08665682748253
 20
38.0589647246583
 30
0.0
 11
-47.95833267868252
 21
38.08547091825831
 31
0.0
  0
LINE
  5
7D
330
2
100
AcDbEntity
  8
0
100
AcDbLine
 10
-47.95833267868252
 20
38.08547091825831
 30
0.0
 11
-47.83120055068252
 21
38.11192124785831
 31
0.0
  0
LINE
  5
7E
330
2
100
AcDbEntity
  8
0
100
AcDbLine
 10
-47.83120055068252
 20
38.11192124785831
 30
0.0
 11
-47.70546187868252
 21
38.13823450865831
 31
0.0
  0
LINE
  5
7F
330
2
100
AcDbEntity
  8
0
100
AcDbLine
 10
-42.02885018268253
 20
38.8570395742583
 30
0.0
 11
-41.94137427548253
 21
38.85984299025831
 31
0.0
  0
LINE
  5
80
330
2
100
AcDbEntity
  8
0
100
AcDbLine
 10
-42.12284052828252
 20
38.85379405745831
 30
0.0
 11
-42.02885018268253
 21
38.8570395742583
 31
0.0
  0
LINE
  5
81
330
2
100
AcDbEntity
  8
0
100
AcDbLine
 10
-42.22388079068252
 20
38.85004674225831
 30
0.0
 11
-42.12284052828252
 21
38.85379405745831
 31
0.0
  0
LWPOLYLINE
  5
82
330
2
100
AcDbEntity
  8
0
100
AcDbPolyline
 90
       30
 70
     0
 43
0.0
 10
-44.18333369948252
 20
38.73097799185831
 10
-44.10129154268253
 20
38.73772750545832
 10
-44.02089910908253
 20
38.74418035185832
 10
-43.94217123548253
 20
38.75034770065831
 10
-43.86512276668253
 20
38.75624072145832
 10
-43.78975927868252
 20
38.76187077745832
 10
-43.71604931228254
 20
38.76724998385831
 10
-43.64395214268252
 20
38.77239064465832
 10
-43.57342704988252
 20
38.77730506865831
 10
-43.50443591068253
 20
38.78200495505831
 10
-43.43695101788253
 20
38.78649957585832
 10
-43.37094727068254
 20
38.79079759825831
 10
-43.30639956028252
 20
38.79490769105832
 10
-43.24328156508252
 20
38.79883833105831
 10
-43.18156208988253
 20
38.80259722705832
 10
-43.12120871868252
 20
38.80619190225832
 10
-43.06218903868253
 20
38.80962987345832
 10
-42.98551626908252
 20
38.81398246705831
 10
-42.91108923548253
 20
38.81808403345832
 10
-42.83884028988253
 20
38.82194876145832
 10
-42.76870164828252
 20
38.82559042385832
 10
-42.70060496188253
 20
38.82902113745831
 10
-42.63448174108252
 20
38.83225260305831
 10
-42.57027148828252
 20
38.83529587985831
 10
-42.50794565948253
 20
38.83815945745832
 10
-42.44748369948253
 20
38.84085118225832
 10
-42.38886527228252
 20
38.84337875345831
 10
-42.33207091388253
 20
38.84574927185831
 10
-42.27708137468252
 20
38.84796968945831
 10
-42.22388079068252
 20
38.85004674225832
  0
LWPOLYLINE
  5
83
330
2
100
AcDbEntity
  8
0
100
AcDbPolyline
 90
       72
 70
     0
 43
0.0
 10
-22.32790146748253
 20
37.37420685425832
 10
-22.43097530748252
 20
37.34813300625831
 10
-22.53718336828252
 20
37.32173196465832
 10
-22.64631154108252
 20
37.29509275985831
 10
-22.75824804668252
 20
37.26828163985832
 10
-22.87329038748252
 20
37.24127372305832
 10
-22.99183839228253
 20
37.21402134385831
 10
-23.11416186268253
 20
37.18650762865832
 10
-23.24001049788252
 20
37.15883886065831
 10
-23.36900397148252
 20
37.13115210865832
 10
-23.46750016828252
 20
37.11047216785832
 10
-23.56688744348252
 20
37.09000384305832
 10
-23.76731795228252
 20
37.04995014705831
 10
-23.97212418908253
 20
37.01070587185831
 10
-24.18056373628252
 20
36.97249501745832
 10
-24.39078024508252
 20
36.93573526225832
 10
-24.60067129628253
 20
36.90077943505832
 10
-24.80868420028253
 20
36.86786433425832
 10
-25.01571124188252
 20
36.83682744945832
 10
-25.22274009628253
 20
36.80748251185832
 10
-25.42869504348253
 20
36.77994753105831
 10
-25.63248439228253
 20
36.75434592625832
 10
-25.83501596988253
 20
36.73051846225832
 10
-26.03791132668253
 20
36.70824022225831
 10
-26.24364739868252
 20
36.68730618385831
 10
-26.45396447388253
 20
36.66760642385832
 10
-26.66680086748253
 20
36.64939150545832
 10
-26.87951900188252
 20
36.63294634705831
 10
-27.09097967388252
 20
36.61833276625833
 10
-27.30048859388253
 20
36.60555039825832
 10
-27.50763274428253
 20
36.59457321585832
 10
-27.71190386108253
 20
36.58536660945832
 10
-27.91213144828252
 20
36.57788726385832
 10
-28.10726919708253
 20
36.57207709905832
 10
-28.29742979068253
 20
36.56782769265832
 10
-28.42155706908252
 20
36.56580268465831
 10
-28.54328980668252
 20
36.56438530225832
 10
-28.66226668348252
 20
36.56354328145831
 10
-28.77823678908253
 20
36.56324394385832
 10
-28.89139090908253
 20
36.56345293265831
 10
-29.00203024188252
 20
36.56413547345831
 10
-29.16372964828252
 20
36.56597378065832
 10
-29.32024556188252
 20
36.56869790065831
 10
-29.47150087708253
 20
36.57221411825832
 10
-29.61792174428252
 20
36.57645958225831
 10
-29.76006013628253
 20
36.58137916465832
 10
-29.89846802108253
 20
36.58691773425831
 10
-30.07812303228253
 20
36.59518851345831
 10
-30.25319658108253
 20
36.60444163345831
 10
-30.42475793628253
 20
36.61465702545832
 10
-30.59379932668253
 20
36.62582190225831
 10
-30.76100483228252
 20
36.63795262865832
 10
-30.92698148988253
 20
36.65107285105832
 10
-31.09208176348252
 20
36.66518290545831
 10
-31.25563981468252
 20
36.68018986705832
 10
-31.41673522588253
 20
36.69597749745832
 10
-31.57454276668252
 20
36.71242976945832
 10
-31.72861795708253
 20
36.72943147665832
 10
-31.87861149788253
 20
36.74686762545831
 10
-32.02435864828252
 20
36.76464909105832
 10
-32.16643286588253
 20
36.78279023025832
 10
-32.30559216188253
 20
36.80133127345832
 10
-32.51048623228253
 20
36.83000663985831
 10
-32.71286029468253
 20
36.85996397585831
 10
-32.91469180508252
 20
36.89145397745832
 10
-33.11653589948253
 20
36.92456343185832
 10
-33.31852539228252
 20
36.95932577265832
 10
-33.52052616828252
 20
36.99572491665832
 10
-33.72234030588252
 20
37.03373086545831
 10
-33.92378160508252
 20
37.07330750705832
 10
-34.12470563068252
 20
37.11442430705832
 10
-34.32512328668252
 20
37.15707914865832
  0
LWPOLYLINE
  5
84
330
2
100
AcDbEntity
  8
0
100
AcDbPolyline
 90
       42
 70
     0
 43
0.0
 10
-34.32512328668252
 20
37.15707914865832
 10
-34.47304455228253
 20
37.18880463825832
 10
-34.61784851068253
 20
37.21916109585832
 10
-34.75942398588253
 20
37.24817498065832
 10
-34.89765980028252
 20
37.27587275665832
 10
-35.03251107228253
 20
37.30229199505831
 10
-35.16419807868253
 20
37.32751468465831
 10
-35.29300739068253
 20
37.35163392305832
 10
-35.41922557788252
 20
37.37474280785832
 10
-35.58394101468252
 20
37.40412882065832
 10
-35.74499785948252
 20
37.43201431985831
 10
-35.90283450748252
 20
37.45852947505832
 10
-36.05790485468253
 20
37.48380192625831
 10
-36.21072479388253
 20
37.50794921105832
 10
-36.36182571868252
 20
37.53108634865831
 10
-36.58634626108252
 20
37.56412303505832
 10
-36.80956739228253
 20
37.59537432145831
 10
-37.03287937628252
 20
37.62505745585832
 10
-37.25774260508252
 20
37.65334408465832
 10
-37.48521852828253
 20
37.68033752785832
 10
-37.71470273308253
 20
37.70591341905833
 10
-37.86808515708253
 20
37.72207379665831
 10
-38.02029221948252
 20
37.73739088625831
 10
-38.16970971388252
 20
37.75173199185831
 10
-38.31496380348252
 20
37.76499579345832
 10
-38.45564213788253
 20
37.77720644785832
 10
-38.59157273628253
 20
37.78841948465832
 10
-38.72275475068252
 20
37.79869907505831
 10
-38.84987185788253
 20
37.80814395505831
 10
-38.97377887068252
 20
37.81686150385832
 10
-39.15535167388253
 20
37.82877924305831
 10
-39.33367796508253
 20
37.83948612145831
 10
-39.51090347708253
 20
37.84915334865832
 10
-39.68954536028252
 20
37.85790084625832
 10
-39.87166389468253
 20
37.86580234865831
 10
-40.05712047068253
 20
37.87279811985832
 10
-40.24514988348252
 20
37.87880051825832
 10
-40.43467944188252
 20
37.88374375345832
 10
-40.62449383868252
 20
37.88757722385832
 10
-40.81311477788253
 20
37.89028922065832
 10
-40.99933991868252
 20
37.89188611665831
 10
-41.18333369948253
 20
37.89240771345832
  0
LWPOLYLINE
  5
85
330
2
100
AcDbEntity
  8
0
100
AcDbPolyline
 90
       31
 70
     0
 43
0.0
 10
-30.03833369948253
 20
34.64824734865832
 10
-29.87320900348253
 20
34.64844262225832
 10
-29.71211534588252
 20
34.64900905905832
 10
-29.55512457628252
 20
34.64991757905831
 10
-29.40230854428253
 20
34.65113910225832
 10
-29.25373909788253
 20
34.65264454865832
 10
-29.10943871228252
 20
34.65440657105832
 10
-28.96923235548253
 20
34.65640475665832
 10
-28.83289562268252
 20
34.65862042545831
 10
-28.70020410588253
 20
34.66103489745831
 10
-28.57093340028253
 20
34.66362949265832
 10
-28.44487231068253
 20
34.66638688945831
 10
-28.32186249148253
 20
34.66929520465832
 10
-28.20175880828253
 20
34.67234390865832
 10
-28.08441612828252
 20
34.67552247505832
 10
-27.96968931708252
 20
34.67882037905831
 10
-27.82973154428252
 20
34.68309667185831
 10
-27.69331050268253
 20
34.68753522065832
 10
-27.56010239868253
 20
34.69212826705831
 10
-27.42978343868253
 20
34.69686805105832
 10
-27.30203341148252
 20
34.70174842705832
 10
-27.17654644028253
 20
34.70676969745832
 10
-27.05302022748253
 20
34.71193378385832
 10
-26.93115247708253
 20
34.71724260145832
 10
-26.77070267388252
 20
34.72455405265832
 10
-26.61184640828253
 20
34.73215820625832
 10
-26.45376625308253
 20
34.74008704945831
 10
-25.97934763068252
 20
34.76602763505831
 10
-25.50327324828252
 20
34.79530734705832
 10
-25.02718719708252
 20
34.82784624145832
 10
-24.55271180348252
 20
34.86352156625832
  0
LWPOLYLINE
  5
86
330
2
100
AcDbEntity
  8
0
100
AcDbPolyline
 90
       25
 70
     0
 43
0.0
 10
-22.91782587228253
 20
33.33913728465831
 10
-23.18785891548253
 20
33.31251926705831
 10
-23.46566094748253
 20
33.28820428625831
 10
-23.75180204508252
 20
33.26627939185832
 10
-24.04684631388252
 20
33.24684706705832
 10
-24.35145057788253
 20
33.23001910865832
 10
-24.66645146428253
 20
33.21591695825832
 10
-24.99226673628253
 20
33.20469244785831
 10
-25.33451201148253
 20
33.19640006385831
 10
-25.71078995548252
 20
33.19105401425832
 10
-26.13462997148252
 20
33.18902733745832
 10
-26.61289874108253
 20
33.19045207185832
 10
-27.14746800348253
 20
33.19487284465831
 10
-27.74218376348253
 20
33.20127664145831
 10
-28.40554303868252
 20
33.20805735985832
 10
-29.14804388668253
 20
33.21375575345832
 10
-29.97985936028253
 20
33.21812057745831
 10
-30.91206453308252
 20
33.22100573265831
 10
-31.95732396828252
 20
33.22221713905832
 10
-33.12962247708253
 20
33.22156153265832
 10
-34.44347207868253
 20
33.21893665585832
 10
-35.91416794908252
 20
33.21452469905832
 10
-37.56787074908253
 20
33.20903592465831
 10
-39.42403393468252
 20
33.20406463025832
 10
-41.18333369948253
 20
33.20213421905831
  0
LWPOLYLINE
  5
87
330
2
100
AcDbEntity
  8
0
100
AcDbPolyline
 90
        4
 70
     0
 43
0.0
 10
-41.18333369948253
 20
28.65049541745832
 10
-35.71116114268253
 20
28.65039099185832
 10
-30.37546264028253
 20
28.65018053585831
 10
-25.18061856348252
 20
28.65054524465832
  0
LWPOLYLINE
  5
88
330
2
100
AcDbEntity
  8
0
100
AcDbPolyline
 90
       22
 70
     0
 43
0.0
 10
-35.91348169468253
 20
35.60544517425831
 10
-35.79677455068253
 20
35.57997484145831
 10
-35.67880343868253
 20
35.54803568145832
 10
-35.56264681308252
 20
35.51024911825832
 10
-35.44864797628253
 20
35.46673064145831
 10
-35.33714354588252
 20
35.41761376945832
 10
-35.22846260828252
 20
35.36304958705832
 10
-35.12292588348252
 20
35.30320630225832
 10
-35.02084473148252
 20
35.23826866385831
 10
-34.92252046428252
 20
35.16843754385832
 10
-34.82824324668253
 20
35.09392922225831
 10
-34.73829085308253
 20
35.01497441105832
 10
-34.65292565148253
 20
34.93181518385832
 10
-34.57239441468253
 20
34.84470354225832
 10
-34.49693004508253
 20
34.75390230865832
 10
-34.42675050428252
 20
34.65968348465832
 10
-34.36205716508253
 20
34.56232505905831
 10
-34.30303632508253
 20
34.46211169105831
 10
-34.24985938268253
 20
34.35933419985831
 10
-34.20268322108252
 20
34.25428992785831
 10
-34.16164984988252
 20
34.14728217105831
 10
-34.13269696188253
 20
34.05835823025831
  0
LWPOLYLINE
  5
89
330
2
100
AcDbEntity
  8
0
100
AcDbPolyline
 90
       20
 70
     0
 43
0.0
 10
-39.99583369948253
 20
33.93993883825832
 10
-40.00008181788253
 20
33.94824800625832
 10
-40.01315990748253
 20
33.95668363025832
 10
-40.03517776668252
 20
33.96511221585832
 10
-40.06574960508253
 20
33.97341751985832
 10
-40.10482623068253
 20
33.98163909265832
 10
-40.15118641628252
 20
33.98958337585832
 10
-40.20227361148252
 20
33.99695230225831
 10
-40.25671824188252
 20
34.00370637265832
 10
-40.31337312508253
 20
34.00983126705832
 10
-40.37398825148253
 20
34.01557298385832
 10
-40.44097065148252
 20
34.02111228305832
 10
-40.51484382748252
 20
34.02639138065831
 10
-40.59594363388252
 20
34.03132193265832
 10
-40.68450370748253
 20
34.03579768785831
 10
-40.77894612028252
 20
34.03963566065832
 10
-40.87740505788253
 20
34.04269891665832
 10
-40.97819723868252
 20
34.04491053265831
 10
-41.08044231548253
 20
34.04624505745831
 10
-41.18333369948253
 20
34.04669073585832
  0
LWPOLYLINE
  5
8A
330
2
100
AcDbEntity
  8
0
100
AcDbPolyline
 90
       13
 70
     0
 43
0.0
 10
-40.24839780028253
 20
33.87817267985831
 10
-40.25888447068253
 20
33.87947006065831
 10
-40.31602375068253
 20
33.88563485425832
 10
-40.37666658428253
 20
33.89136402705832
 10
-40.44255699068253
 20
33.89680189265832
 10
-40.51517464028252
 20
33.90199054225832
 10
-40.59552396828253
 20
33.90688297425831
 10
-40.68358546108252
 20
33.91134527825832
 10
-40.77799889148252
 20
33.91519466225832
 10
-40.87637808348254
 20
33.91826694865832
 10
-40.97733485788253
 20
33.92049215345831
 10
-41.07997949788253
 20
33.92183851505832
 10
-41.18333369948253
 20
33.92228846385831
  0
LWPOLYLINE
  5
8B
330
2
100
AcDbEntity
  8
0
100
AcDbPolyline
 90
       21
 70
     0
 43
0.0
 10
-41.18333369948253
 20
33.83821283505832
 10
-41.08311271548252
 20
33.83858834545832
 10
-40.98343408988253
 20
33.83971407505832
 10
-40.88489304988253
 20
33.84158701265831
 10
-40.78852255708253
 20
33.84418828625832
 10
-40.69644434268252
 20
33.84743874385832
 10
-40.60982267708253
 20
33.85124718705832
 10
-40.52941583708252
 20
33.85551407665831
 10
-40.45587020188253
 20
33.86012442065831
 10
-40.38884320348252
 20
33.86501547665832
 10
-40.32765276668253
 20
33.87016713265831
 10
-40.27159789628252
 20
33.87559102225832
 10
-40.22030502428252
 20
33.88129878545832
 10
-40.17353560668253
 20
33.88731466705833
 10
-40.13112370428252
 20
33.89368797105832
 10
-40.09323516508253
 20
33.90046101265832
 10
-40.06020905468253
 20
33.90769500945831
 10
-40.03297000508253
 20
33.91536915185832
 10
-40.01265565148253
 20
33.92337263665832
 10
-40.00010995388253
 20
33.93158281425832
 10
-39.99583369948253
 20
33.93993883825832
  0
LWPOLYLINE
  5
8C
330
2
100
AcDbEntity
  8
0
100
AcDbPolyline
 90
       21
 70
     0
 43
0.0
 10
-30.23186809948252
 20
34.06734225425831
 10
-30.33687075868252
 20
34.22488648945832
 10
-30.48341076508252
 20
34.42854769425832
 10
-30.63867837148253
 20
34.62683106705832
 10
-30.80241070748252
 20
34.81934689905832
 10
-30.97432637948253
 20
35.00571590225832
 10
-31.15412696188252
 20
35.18557112785831
 10
-31.34149778268252
 20
35.35855879825832
 10
-31.53610856988253
 20
35.52433898705832
 10
-31.73761441468252
 20
35.68258655505831
 10
-31.94565625788253
 20
35.83299164465831
 10
-32.15986163228253
 20
35.97526041905832
 10
-32.37984620988253
 20
36.10911624465831
 10
-32.60521394748252
 20
36.23429984625831
 10
-32.83555756348252
 20
36.35056981905831
 10
-33.07046073628252
 20
36.45770393425832
 10
-33.30949856988253
 20
36.55549935505832
 10
-33.55223695388252
 20
36.64377256305831
 10
-33.79823180828252
 20
36.72235959505831
 10
-34.04703971548252
 20
36.79111959505832
 10
-34.29532416348253
 20
36.84931544785832
  0
LWPOLYLINE
  5
8D
330
2
100
AcDbEntity
  8
0
100
AcDbPolyline
 90
        4
 70
     0
 43
0.0
 10
-30.70327115708252
 20
34.01872212465832
 10
-31.58946842588253
 20
34.00636543025832
 10
-32.47700035868253
 20
33.99510291665832
 10
-33.36573466108252
 20
33.98493558705832
  0
LWPOLYLINE
  5
8E
330
2
100
AcDbEntity
  8
0
100
AcDbPolyline
 90
        3
 70
     0
 43
0.0
 10
-34.13269623388252
 20
34.05835823185831
 10
-34.13236952348252
 20
34.05756909905832
 10
-34.12934887868253
 20
34.05447170065832
  0
LWPOLYLINE
  5
8F
330
2
100
AcDbEntity
  8
0
100
AcDbPolyline
 90
        3
 70
     0
 43
0.0
 10
-34.11637101148253
 20
34.04489036465832
 10
-34.12272572828253
 20
34.04969464625832
 10
-34.12934887868253
 20
34.05447170065832
  0
LWPOLYLINE
  5
90
330
2
100
AcDbEntity
  8
0
100
AcDbPolyline
 90
       23
 70
     0
 43
0.0
 10
-34.11637101148253
 20
34.04489036465832
 10
-34.10804904348252
 20
34.03998230545831
 10
-34.09562320828253
 20
34.03503569265831
 10
-34.07916434428253
 20
34.03012133585832
 10
-34.05883288828252
 20
34.02529953585831
 10
-34.03476946268253
 20
34.02060750065832
 10
-34.00730316188253
 20
34.01610597265831
 10
-33.97686950748253
 20
34.01185075505832
 10
-33.94375708188252
 20
34.00786307985832
 10
-33.90830138908252
 20
34.00416571825831
 10
-33.87093035228252
 20
34.00078379665831
 10
-33.83198403868253
 20
33.99772716785832
 10
-33.79163535548252
 20
33.99499137905833
 10
-33.75028166108252
 20
33.99258646385832
 10
-33.70832555708253
 20
33.99051634545832
 10
-33.66589590428253
 20
33.98876883505831
 10
-33.62307304828253
 20
33.98733287185832
 10
-33.58009385308253
 20
33.98620409745832
 10
-33.53716689628253
 20
33.98537587345831
 10
-33.49426843228252
 20
33.98483821905832
 10
-33.45139754588252
 20
33.98458591185832
 10
-33.40854541788253
 20
33.98461759025831
 10
-33.36573466108252
 20
33.98493558705832
  0
LINE
  5
91
330
2
100
AcDbEntity
  8
0
100
AcDbLine
 10
-30.65711426908253
 20
34.64824734865831
 30
0.0
 11
-30.03833369948253
 21
34.64824734865831
 31
0.0
  0
LWPOLYLINE
  5
92
330
2
100
AcDbEntity
  8
0
100
AcDbPolyline
 90
       21
 70
     0
 43
0.0
 10
-30.70327115708252
 20
34.01872212465832
 10
-30.65573692828253
 20
34.01956128465831
 10
-30.61083334588252
 20
34.02064173585833
 10
-30.56856223068253
 20
34.02194425905832
 10
-30.52884792988253
 20
34.02345370225831
 10
-30.49173311228253
 20
34.02515199665831
 10
-30.45709388348253
 20
34.02702989745832
 10
-30.42495182108253
 20
34.02907310385831
 10
-30.39524201468252
 20
34.03127382545832
 10
-30.36792517948252
 20
34.03362548305832
 10
-30.34303789468252
 20
34.03611658065832
 10
-30.32051939868253
 20
34.03874705585831
 10
-30.30041146588253
 20
34.04150886065831
 10
-30.28273807388252
 20
34.04439746065832
 10
-30.26751854428252
 20
34.04741284785831
 10
-30.25483363548252
 20
34.05054652465832
 10
-30.24473736028252
 20
34.05379875025831
 10
-30.23732202268253
 20
34.05716466225832
 10
-30.23269348348253
 20
34.06063645265832
 10
-30.23096000828252
 20
34.06421161585832
 10
-30.23186598428253
 20
34.06734226545831
  0
LWPOLYLINE
  5
93
330
2
100
AcDbEntity
  8
0
100
AcDbPolyline
 90
        4
 70
     0
 43
0.0
 10
-34.29532416188253
 20
36.84931545425832
 10
-34.44828482588252
 20
36.88019980305832
 10
-34.60499616028252
 20
36.90809691985831
 10
-34.75930656188252
 20
36.93190389585832
  0
LWPOLYLINE
  5
94
330
2
100
AcDbEntity
  8
0
100
AcDbPolyline
 90
        4
 70
     0
 43
0.0
 10
-25.18061856348252
 20
28.65054524465832
 10
-24.88061535548253
 20
28.65297634385832
 10
-24.58078001788253
 20
28.66009850225831
 10
-24.28114587228253
 20
28.67190981425832
  0
LWPOLYLINE
  5
95
330
2
100
AcDbEntity
  8
0
100
AcDbPolyline
 90
       33
 70
     0
 43
0.0
 10
-24.55271180348252
 20
34.86352156625832
 10
-24.37126567228253
 20
34.87923478225831
 10
-24.18945552028253
 20
34.89789747345832
 10
-24.00731725468253
 20
34.91953768465831
 10
-23.82489464988252
 20
34.94418179185831
 10
-23.64226296508252
 20
34.97184951025831
 10
-23.45950532988253
 20
35.00255888625832
 10
-23.27670129948252
 20
35.03632739185831
 10
-23.09391614108253
 20
35.07317020305832
 10
-22.91121154908252
 20
35.11310191985831
 10
-22.72865003068253
 20
35.15613675345832
 10
-22.54629735388252
 20
35.20228734865832
 10
-22.36422010108252
 20
35.25156595665832
 10
-22.18251140828252
 20
35.30397357425831
 10
-22.00137061788252
 20
35.35946618865832
 10
-21.82102362428253
 20
35.41798852625832
 10
-21.64169320988253
 20
35.47947975665831
 10
-21.46358972188252
 20
35.54385680305832
 10
-21.28692040028252
 20
35.61103103185832
 10
-21.11191034588253
 20
35.68089771185831
 10
-20.93885611388252
 20
35.75328773585831
 10
-20.76807212508252
 20
35.82801590865832
 10
-20.59986048188253
 20
35.90489260465832
 10
-20.43447401148253
 20
35.98371050705832
 10
-20.27215322588253
 20
36.06425787665832
 10
-20.15257764828253
 20
36.12566625905831
 10
-20.03501411228252
 20
36.18778064785832
 10
-19.91961492988252
 20
36.25045332625831
 10
-19.80653241148253
 20
36.31353658065831
 10
-19.69588068028252
 20
36.37690234065832
 10
-19.58762112188253
 20
36.44050111345832
 10
-19.48167693628252
 20
36.50430305105832
 10
-19.37797132668252
 20
36.56827830705831
  0
LWPOLYLINE
  5
96
330
2
100
AcDbEntity
  8
0
100
AcDbPolyline
 90
       51
 70
     0
 43
0.0
 10
-33.69195069468253
 20
37.94115651025832
 10
-33.32161874588253
 20
37.87109560625831
 10
-32.95100084668253
 20
37.80482292145832
 10
-32.57986479228253
 20
37.74311763985831
 10
-32.20806109948253
 20
37.68660765745831
 10
-31.83577118108253
 20
37.63531573105832
 10
-31.46325916508253
 20
37.58911333585832
 10
-31.18400585308252
 20
37.55774474705831
 10
-30.90559296668253
 20
37.52923562865832
 10
-30.62883728988252
 20
37.50365488785832
 10
-30.35455560188252
 20
37.48107142705832
 10
-30.13743666908253
 20
37.46519838225831
 10
-29.92269962908252
 20
37.45125922865832
 10
-29.71062028188253
 20
37.43922549905831
 10
-29.50147442588253
 20
37.42906872305831
 10
-29.29553785948253
 20
37.42076043505832
 10
-29.09307218588253
 20
37.41426687665832
 10
-28.89428223228253
 20
37.40953314065832
 10
-28.69935862428252
 20
37.40649903345832
 10
-28.50849199228253
 20
37.40510435825832
 10
-28.32187296508253
 20
37.40528892145831
 10
-28.13963953948253
 20
37.40699162545832
 10
-27.96171919548253
 20
37.41014776625832
 10
-27.78798677948252
 20
37.41469174225832
 10
-27.61831714268252
 20
37.42055794865832
 10
-27.45258512988253
 20
37.42768077905831
 10
-27.29066407868252
 20
37.43599871345832
 10
-27.13242126908252
 20
37.44546656785832
 10
-26.97772247068252
 20
37.45604323985832
 10
-26.82643345308253
 20
37.46768762545832
 10
-26.67841998428253
 20
37.48035862225831
 10
-26.49778571228253
 20
37.49758458065832
 10
-26.32168247228253
 20
37.51630706385831
 10
-26.14973298268253
 20
37.53648273425832
 10
-25.98155996828252
 20
37.55806825585832
 10
-25.81677377148253
 20
37.58103564465832
 10
-25.65493523868252
 20
37.60541831665832
 10
-25.49559283708252
 20
37.63126504305831
 10
-25.33829503548253
 20
37.65862458705832
 10
-25.13105866268253
 20
37.69754154065831
 10
-24.92614791228253
 20
37.73935020785831
 10
-24.72305628028253
 20
37.78416614865832
 10
-24.52134150268253
 20
37.83209326705831
 10
-24.32081826428253
 20
37.88318884945831
 10
-24.12136548668253
 20
37.93749852945831
 10
-23.92290017468252
 20
37.99505356625831
 10
-23.72549168508253
 20
38.05582771985832
 10
-23.52924746108253
 20
38.11978037265832
 10
-23.33425032348253
 20
38.18687803665832
 10
-23.14048463068253
 20
38.25711571985833
 10
-22.94791011868253
 20
38.33049555665831
  0
LWPOLYLINE
  5
97
330
2
100
AcDbEntity
  8
0
100
AcDbPolyline
 90
       22
 70
     0
 43
0.0
 10
-28.04153207068253
 20
37.41175063825831
 10
-28.31868241308253
 20
37.40885114545832
 10
-28.60294734108252
 20
37.40951431345832
 10
-28.89367374908252
 20
37.41386535825831
 10
-29.19084911868253
 20
37.42202320305832
 10
-29.49407819868253
 20
37.43409558865831
 10
-29.80242509468253
 20
37.45014937585832
 10
-30.11518687548253
 20
37.47023288785832
 10
-30.43160906748252
 20
37.49436757425832
 10
-30.75072267868253
 20
37.52253291825831
 10
-31.07116057788252
 20
37.55464230225832
 10
-31.39158041148253
 20
37.59056747505831
 10
-31.71129982588253
 20
37.63021964625831
 10
-32.02968803388253
 20
37.67350266705832
 10
-32.34564654268253
 20
37.72023625745831
 10
-32.65791308188252
 20
37.77017561265831
 10
-32.96883797148252
 20
37.82368246225832
 10
-33.29161143388252
 20
37.88320089905831
 10
-33.64661650108253
 20
37.95244002545832
 10
-34.04220791228253
 20
38.03241702545832
 10
-34.48395730268252
 20
38.12268297105831
 10
-34.96688874908253
 20
38.21936907665831
  0
LINE
  5
98
330
2
100
AcDbEntity
  8
CENTER
100
AcDbLine
 10
-41.18333369948252
 20
38.91025146886601
 30
0.0
 11
-41.18333369948252
 21
45.38624322845062
 31
0.0
  0
LWPOLYLINE
  5
99
330
2
100
AcDbEntity
  8
0
100
AcDbPolyline
 90
       45
 70
     0
 43
0.0
 10
-41.18333369948253
 20
43.94864631665831
 10
-41.04658853468253
 20
43.94340877745832
 10
-40.90928919708253
 20
43.92755364145832
 10
-40.77270240508252
 20
43.90101577585832
 10
-40.63809635548253
 20
43.86392879345832
 10
-40.50650644188253
 20
43.81654221265832
 10
-40.37870442268252
 20
43.75911792945831
 10
-40.25547492188252
 20
43.69198279345831
 10
-40.13766545148253
 20
43.61557965105832
 10
-40.02613418268253
 20
43.53047409105831
 10
-39.92164458908253
 20
43.43728953265832
 10
-39.82485330588252
 20
43.33666949905832
 10
-39.73642495548253
 20
43.22938658865832
 10
-39.65693016028252
 20
43.11625535665831
 10
-39.58685394428252
 20
42.99813003025831
 10
-39.52655195708253
 20
42.87579839025831
 10
-39.47637822108252
 20
42.75022797745831
 10
-39.43657196828253
 20
42.62240150225832
 10
-39.40725545948252
 20
42.49326298065832
 10
-39.38846273468253
 20
42.36375780625831
 10
-39.38013869788253
 20
42.23498648305831
 10
-39.38215672348252
 20
42.10688602225832
 10
-39.39458790588253
 20
41.97753505905832
 10
-39.41777179548252
 20
41.84597648305831
 10
-39.45200361308252
 20
41.71281170545831
 10
-39.49646067708252
 20
41.58154194865832
 10
-39.54851056988252
 20
41.45755572145833
 10
-39.60596406748253
 20
41.34256776465831
 10
-39.66780748028253
 20
41.23579366545832
 10
-39.73328905468253
 20
41.13662773425832
 10
-39.80193548668252
 20
41.04445313265832
 10
-39.87362673628253
 20
40.95851547985831
 10
-39.94837349628252
 20
40.87822664465831
 10
-40.02639667548253
 20
40.80304549585831
 10
-40.10796307708253
 20
40.73263749105832
 10
-40.19351664508252
 20
40.66673881105831
 10
-40.28345385148253
 20
40.60533880785832
 10
-40.37823438268254
 20
40.54857211025832
 10
-40.47828609308253
 20
40.49677847025831
 10
-40.58401664988252
 20
40.45048392945832
 10
-40.69540322588252
 20
40.41053239345831
 10
-40.81200650748253
 20
40.37793107665832
 10
-40.93314016028253
 20
40.35367833905833
 10
-41.05759908508253
 20
40.33869619345832
 10
-41.18333369948253
 20
40.33364357585832
  0
LINE
  5
9A
330
2
100
AcDbEntity
  8
0
100
AcDbLine
 10
-35.87775419388252
 20
38.39652347025831
 30
0.0
 11
-35.49222256348253
 21
38.31422492145831
 31
0.0
  0
LINE
  5
9B
330
2
100
AcDbEntity
  8
0
100
AcDbLine
 10
-35.38129466908253
 20
38.30131819505831
 30
0.0
 11
-35.51286152188252
 21
38.32768242065831
 31
0.0
  0
LWPOLYLINE
  5
9C
330
2
100
AcDbEntity
  8
0
100
AcDbPolyline
 90
       17
 70
     0
 43
0.0
 10
-35.23194556508252
 20
39.59614851345832
 10
-35.28659145308253
 20
39.48351134545831
 10
-35.34996667068253
 20
39.37554605105831
 10
-35.42166609308253
 20
39.27294279665832
 10
-35.50123137148253
 20
39.17635748625832
 10
-35.58815387228253
 20
39.08640755985832
 10
-35.68187793308253
 20
39.00366803185832
 10
-35.78180440988252
 20
38.92866782705832
 10
-35.88729450748252
 20
38.86188639505831
 10
-35.99767386748253
 20
38.80375064305831
 10
-36.11223687548252
 20
38.75463221265831
 10
-36.23025117308253
 20
38.71484509905831
 10
-36.35096233308253
 20
38.68464364945831
 10
-36.47359869788252
 20
38.66422092785832
 10
-36.59737629628253
 20
38.65370749105832
 10
-36.72150386108252
 20
38.65317054545831
 10
-36.84518789948252
 20
38.66261352945832
  0
LWPOLYLINE
  5
9D
330
2
100
AcDbEntity
  8
0
100
AcDbPolyline
 90
       58
 70
     0
 43
0.0
 10
-35.29414029948253
 20
39.60974783825832
 10
-35.30975411228253
 20
39.57560518065832
 10
-35.32605787868253
 20
39.54211074385832
 10
-35.34302541308253
 20
39.50927030705832
 10
-35.36063228988253
 20
39.47708684465832
 10
-35.37885484188253
 20
39.44556264145831
 10
-35.39767052668253
 20
39.41469875825831
 10
-35.41705757148253
 20
39.38449578065831
 10
-35.43699529308253
 20
39.35495336785832
 10
-35.45746369148253
 20
39.32607096625832
 10
-35.47844451228253
 20
39.29784639665832
 10
-35.49991816028253
 20
39.27028004145831
 10
-35.52187148988252
 20
39.24336490385831
 10
-35.54429438268252
 20
39.21709210225831
 10
-35.56716408828252
 20
39.19146848465832
 10
-35.59045882268253
 20
39.16649906225831
 10
-35.61416334108253
 20
39.14218168145831
 10
-35.63826184828252
 20
39.11851523985832
 10
-35.66273941148253
 20
39.09549815825831
 10
-35.68758181148253
 20
39.07312858225831
 10
-35.71277539388252
 20
39.05140455825831
 10
-35.73830794908252
 20
39.03032333745832
 10
-35.76416651068253
 20
39.00988324465831
 10
-35.79034324028252
 20
38.99007911505831
 10
-35.81683396668252
 20
38.97090407825832
 10
-35.84362580828252
 20
38.95235840145831
 10
-35.87070733468253
 20
38.93444147665831
 10
-35.89807296348253
 20
38.91714928785831
 10
-35.92571753148253
 20
38.90047839505832
 10
-35.95363708508253
 20
38.88442546545831
 10
-35.98183019868253
 20
38.86898667505831
 10
-36.01029313948252
 20
38.85416041425832
 10
-36.03903506108252
 20
38.83993960465831
 10
-36.06802806588253
 20
38.82633607185831
 10
-36.09726146588252
 20
38.81335242065832
 10
-36.12682036988252
 20
38.80095217425832
 10
-36.15674707388253
 20
38.78912444785832
 10
-36.18704265308252
 20
38.77787796465832
 10
-36.21772277308252
 20
38.76721735025831
 10
-36.24879906428252
 20
38.75715066225831
 10
-36.28028533788253
 20
38.74768711985831
 10
-36.31219552828253
 20
38.73883791505832
 10
-36.34454426588253
 20
38.73061611025832
 10
-36.37734656828253
 20
38.72303682385831
 10
-36.41061792188253
 20
38.71611730225831
 10
-36.44437404348252
 20
38.70987709105832
 10
-36.47863046908253
 20
38.70433820305832
 10
-36.51340991068252
 20
38.69952426065831
 10
-36.54873072028253
 20
38.69546266545831
 10
-36.58460218268253
 20
38.69218460145831
 10
-36.62104114268252
 20
38.68972320945831
 10
-36.65806815228252
 20
38.68811480785831
 10
-36.69566943228252
 20
38.68739983505832
 10
-36.73359576668252
 20
38.68761520465832
 10
-36.77154112668253
 20
38.68877267185832
 10
-36.80943215228252
 20
38.69087111505832
 10
-36.84725779068253
 20
38.69390959665832
 10
-36.88499186748252
 20
38.69788601425832
  0
LWPOLYLINE
  5
9E
330
2
100
AcDbEntity
  8
0
100
AcDbPolyline
 90
       32
 70
     0
 43
0.0
 10
-40.29304012828252
 20
38.85552298545831
 10
-40.19553265308252
 20
38.85203567505832
 10
-40.14411062908253
 20
38.85009753905832
 10
-40.09090529148252
 20
38.84802204785831
 10
-40.03591310908253
 20
38.84580329745832
 10
-39.97911797308252
 20
38.84343455025831
 10
-39.92050063228252
 20
38.84090885905832
 10
-39.86004145948253
 20
38.83821912305831
 10
-39.79771933468252
 20
38.83535761425832
 10
-39.73351276188252
 20
38.83231645105832
 10
-39.66739216668253
 20
38.82908709745832
 10
-39.59929567388252
 20
38.82565841905832
 10
-39.52915332828253
 20
38.82201862865832
 10
-39.45689539388253
 20
38.81815552785831
 10
-39.38245300828252
 20
38.81405525745831
 10
-39.30575752668252
 20
38.80970354385832
 10
-39.24671535868253
 20
38.80626590545832
 10
-39.18633424668253
 20
38.80267122545832
 10
-39.12458122588252
 20
38.79891192785832
 10
-39.06142333308253
 20
38.79498043345831
 10
-38.99682883548253
 20
38.79086897425832
 10
-38.93077093788253
 20
38.78656900625832
 10
-38.86322407548253
 20
38.78207179505832
 10
-38.79416268348252
 20
38.77736860465831
 10
-38.72355856348253
 20
38.77245008465832
 10
-38.65137297468253
 20
38.76730443505831
 10
-38.57756454588252
 20
38.76191923825832
 10
-38.50209189948252
 20
38.75628207985831
 10
-38.42492306908252
 20
38.75038074065832
 10
-38.34606371388252
 20
38.74420377585831
 10
-38.26552890108253
 20
38.73773994225832
 10
-38.18333369948253
 20
38.73097799185831
  0
LWPOLYLINE
  5
9F
330
2
100
AcDbEntity
  8
0
100
AcDbPolyline
 90
       24
 70
     0
 43
0.0
 10
-36.88499186588252
 20
38.69788601265832
 10
-36.97670956188253
 20
38.70855939185832
 10
-37.07849753308252
 20
38.72001494865832
 10
-37.19154444028252
 20
38.73228794865831
 10
-37.31701694428252
 20
38.74539169745832
 10
-37.45613993148252
 20
38.75932545905832
 10
-37.61199931068253
 20
38.77424107345832
 10
-37.79019285788253
 20
38.79045970705832
 10
-37.99104446428252
 20
38.80775399025832
 10
-38.20558487388252
 20
38.82516179985831
 10
-38.42780473148252
 20
38.84212327185831
 10
-38.66058434588252
 20
38.85879555345831
 10
-38.91529130908253
 20
38.87580344465832
 10
-39.19248006268253
 20
38.89286121585832
 10
-39.48034004668253
 20
38.90892616625832
 10
-39.74165290748253
 20
38.92197683025832
 10
-39.97059061788253
 20
38.93215185585831
 10
-40.17814941948252
 20
38.94031382385832
 10
-40.37226135068253
 20
38.94697666705831
 10
-40.55474362908252
 20
38.95231306385832
 10
-40.72670629148253
 20
38.95642601105832
 10
-40.89023929148253
 20
38.95939119505832
 10
-41.04363735068253
 20
38.96117579505832
 10
-41.18333369948253
 20
38.96176292945832
  0
LINE
  5
A0
330
2
100
AcDbEntity
  8
0
100
AcDbLine
 10
-40.38371420988252
 20
38.8585370798583
 30
0.0
 11
-40.29304012828252
 21
38.8555229854583
 31
0.0
  0
LINE
  5
A1
330
2
100
AcDbEntity
  8
0
100
AcDbLine
 10
-40.46827587068253
 20
38.86114055185831
 30
0.0
 11
-40.38371420988252
 21
38.8585370798583
 31
0.0
  0
LINE
  5
A2
330
2
100
AcDbEntity
  8
0
100
AcDbLine
 10
-40.56749269468252
 20
38.86392541585832
 30
0.0
 11
-40.46827587068253
 21
38.86114055185831
 31
0.0
  0
LWPOLYLINE
  5
A3
330
2
100
AcDbEntity
  8
0
100
AcDbPolyline
 90
        8
 70
     0
 43
0.0
 10
-41.18333369948253
 20
38.87305544465832
 10
-41.07174852188252
 20
38.87268436785832
 10
-40.95957830748253
 20
38.87164518545832
 10
-40.84748170108253
 20
38.87003462705832
 10
-40.73615096668253
 20
38.86793736785832
 10
-40.68063205468253
 20
38.86672287825832
 10
-40.62462044828253
 20
38.86539006065832
 10
-40.56749269468252
 20
38.86392541585832
  0
LINE
  5
A4
330
2
100
AcDbEntity
  8
0
100
AcDbLine
 10
-35.92610724028253
 20
38.41228074705831
 30
0.0
 11
-36.00349176028252
 21
38.42859455185831
 31
0.0
  0
LINE
  5
A5
330
2
100
AcDbEntity
  8
0
100
AcDbLine
 10
-35.84682350428252
 20
38.39576154705831
 30
0.0
 11
-35.92610724028253
 21
38.41228074705831
 31
0.0
  0
LINE
  5
A6
330
2
100
AcDbEntity
  8
0
100
AcDbLine
 10
-35.76576596668252
 20
38.37904127665831
 30
0.0
 11
-35.84682350428252
 21
38.39576154705831
 31
0.0
  0
LINE
  5
A7
330
2
100
AcDbEntity
  8
0
100
AcDbLine
 10
-35.68303640028253
 20
38.36212171985831
 30
0.0
 11
-35.76576596668252
 21
38.37904127665831
 31
0.0
  0
LINE
  5
A8
330
2
100
AcDbEntity
  8
0
100
AcDbLine
 10
-35.59871495868253
 20
38.34500268785831
 30
0.0
 11
-35.68303640028253
 21
38.36212171985831
 31
0.0
  0
LINE
  5
A9
330
2
100
AcDbEntity
  8
0
100
AcDbLine
 10
-35.51286152188252
 20
38.32768242065831
 30
0.0
 11
-35.59871495868253
 21
38.34500268785831
 31
0.0
  0
LWPOLYLINE
  5
AA
330
2
100
AcDbEntity
  8
0
100
AcDbPolyline
 90
       36
 70
     0
 43
0.0
 10
-36.00349176028252
 20
38.42859455185831
 10
-36.07868083228253
 20
38.44466416305831
 10
-36.11531449628252
 20
38.45258548465832
 10
-36.15127785468253
 20
38.46042865745831
 10
-36.18654601468253
 20
38.46819124145832
 10
-36.22109907228252
 20
38.47587189585832
 10
-36.25492130428253
 20
38.48347019665832
 10
-36.28799390748253
 20
38.49098502065832
 10
-36.32029702908252
 20
38.49841497425831
 10
-36.35181214108253
 20
38.50575891345831
 10
-36.38252096188253
 20
38.51301569265832
 10
-36.41240534908253
 20
38.52018412465832
 10
-36.44144721948253
 20
38.52726294545832
 10
-36.46962976828253
 20
38.53425109585831
 10
-36.49693715868252
 20
38.54114764945832
 10
-36.52335352828252
 20
38.54795154705832
 10
-36.54886342588253
 20
38.55466170385832
 10
-36.57345210268252
 20
38.56127706225832
 10
-36.59710539708253
 20
38.56779655985831
 10
-36.61980980028252
 20
38.57421914225832
 10
-36.64155247068253
 20
38.58054375185832
 10
-36.66232116828253
 20
38.58676931505832
 10
-36.68210429628253
 20
38.59289472945831
 10
-36.70089087388253
 20
38.59891887185832
 10
-36.71867057308253
 20
38.60484058545832
 10
-36.73543365148252
 20
38.61065865905832
 10
-36.75117113468252
 20
38.61637189105831
 10
-36.76587415068253
 20
38.62197882865832
 10
-36.77953642428252
 20
38.62747874865832
 10
-36.79214309788253
 20
38.63286696305832
 10
-36.80366326428253
 20
38.63812987025831
 10
-36.81409126748252
 20
38.64326236785831
 10
-36.82344536668253
 20
38.64827063345831
 10
-36.83174096028253
 20
38.65316143185831
 10
-36.83898806748253
 20
38.65794119025832
 10
-36.84518788348252
 20
38.66261351825832
  0
LWPOLYLINE
  5
AB
330
2
100
AcDbEntity
  8
0
100
AcDbPolyline
 90
       31
 70
     0
 43
0.0
 10
-38.18333369948253
 20
38.73097799185831
 10
-38.10256486588253
 20
38.72410137905831
 10
-38.02171574428253
 20
38.71691644785832
 10
-37.94080779388252
 20
38.70942069265831
 10
-37.85987052988252
 20
38.70161254545832
 10
-37.77896571548252
 20
38.69349417745832
 10
-37.69816317628253
 20
38.68506869265832
 10
-37.61752128988253
 20
38.67633796945832
 10
-37.53705267868252
 20
38.66729896945832
 10
-37.45675851548253
 20
38.65794743185832
 10
-37.37665124188252
 20
38.64828050385832
 10
-37.29678837468253
 20
38.63830098705832
 10
-37.21723868988253
 20
38.62801309745831
 10
-37.13806372828253
 20
38.61741999985832
 10
-37.05929606108253
 20
38.60652066705832
 10
-36.98096101308253
 20
38.59531302065832
 10
-36.90308374748252
 20
38.58379636625832
 10
-36.82568875388253
 20
38.57197553105832
 10
-36.74880036028253
 20
38.55985672305832
 10
-36.67244763228252
 20
38.54744831345832
 10
-36.59667860988253
 20
38.53476730705832
 10
-36.52154608028253
 20
38.52183287025831
 10
-36.44709337308252
 20
38.50866264945832
 10
-36.37332602428253
 20
38.49526820465832
 10
-36.30024011868252
 20
38.48165957905832
 10
-36.22784137948253
 20
38.46784898225832
 10
-36.15617408668252
 20
38.45385731825832
 10
-36.08529216348253
 20
38.43970766065832
 10
-36.01524420828252
 20
38.42542241745831
 10
-35.94605754908252
 20
38.41102132945831
 10
-35.87775419388252
 20
38.39652347025832
  0
LINE
  5
AC
330
2
100
AcDbEntity
  8
0
100
AcDbLine
 10
-34.53546683068252
 20
38.11192124305831
 30
0.0
 11
-34.40833470588252
 21
38.08547091505831
 31
0.0
  0
LINE
  5
AD
330
2
100
AcDbEntity
  8
0
100
AcDbLine
 10
-34.40833470588252
 20
38.08547091505831
 30
0.0
 11
-34.28001056028253
 21
38.0589647230583
 31
0.0
  0
LINE
  5
AE
330
2
100
AcDbEntity
  8
0
100
AcDbLine
 10
-34.28001056028253
 20
38.0589647230583
 30
0.0
 11
-34.15057648028252
 21
38.03246480305832
 31
0.0
  0
LWPOLYLINE
  5
AF
330
2
100
AcDbEntity
  8
0
100
AcDbPolyline
 90
        8
 70
     0
 43
0.0
 10
-34.15057648028252
 20
38.03246480305832
 10
-34.08549527708252
 20
38.01924311185832
 10
-34.02022033628253
 20
38.00605921265832
 10
-33.95478964348253
 20
37.99292761105831
 10
-33.88923621308252
 20
37.97986190865831
 10
-33.82357315388253
 20
37.96687209585831
 10
-33.75780860188253
 20
37.95396726705832
 10
-33.69195069468253
 20
37.94115651025832
  0
LINE
  5
B0
330
2
100
AcDbEntity
  8
0
100
AcDbLine
 10
-35.49222256348253
 20
38.31422492145831
 30
0.0
 11
-35.28272091708252
 21
38.2696626302583
 31
0.0
  0
LINE
  5
B1
330
2
100
AcDbEntity
  8
0
100
AcDbLine
 10
-35.28272091708252
 20
38.2696626302583
 30
0.0
 11
-34.96784512348253
 21
38.2028732526583
 31
0.0
  0
LINE
  5
B2
330
2
100
AcDbEntity
  8
0
100
AcDbLine
 10
-34.96784512348253
 20
38.2028732526583
 30
0.0
 11
-34.72345087228252
 21
38.15130808785831
 31
0.0
  0
LINE
  5
B3
330
2
100
AcDbEntity
  8
0
100
AcDbLine
 10
-35.24644214748252
 20
38.27448278065832
 30
0.0
 11
-35.38129466908253
 21
38.30131819505831
 31
0.0
  0
LINE
  5
B4
330
2
100
AcDbEntity
  8
0
100
AcDbLine
 10
-35.10831134268252
 20
38.2471659598583
 30
0.0
 11
-35.24644214748252
 21
38.27448278065832
 31
0.0
  0
LINE
  5
B5
330
2
100
AcDbEntity
  8
0
100
AcDbLine
 10
-34.96688760188253
 20
38.21936882545831
 30
0.0
 11
-35.10831134268252
 21
38.2471659598583
 31
0.0
  0
LINE
  5
B6
330
2
100
AcDbEntity
  8
0
100
AcDbLine
 10
-34.72345087228252
 20
38.15130808785831
 30
0.0
 11
-34.53546683068252
 21
38.11192124305831
 31
0.0
  0
LWPOLYLINE
  5
B7
330
2
100
AcDbEntity
  8
0
100
AcDbPolyline
 90
       31
 70
     0
 43
0.0
 10
-19.12670517308252
 20
40.59691882705832
 10
-19.06802106108253
 20
40.64509255985831
 10
-19.01077029788253
 20
40.69272444945831
 10
-18.95498092188252
 20
40.73977069745832
 10
-18.90068097628253
 20
40.78618750065832
 10
-18.84787371228253
 20
40.83195278705832
 10
-18.79646324028253
 20
40.87713140785832
 10
-18.74632888188253
 20
40.92180993905831
 10
-18.69734996188252
 20
40.96607495985832
 10
-18.63365289148252
 20
41.02458969265831
 10
-18.57162568508252
 20
41.08265824625832
 10
-18.51109863388252
 20
41.14041565745832
 10
-18.45189703068253
 20
41.19800692145832
 10
-18.39382618268253
 20
41.25561688945832
 10
-18.33668639868253
 20
41.31344037905831
 10
-18.25237089148252
 20
41.40093354545832
 10
-18.16953852508253
 20
41.48959152465831
 10
-18.08807009788253
 20
41.57960805105832
 10
-18.00801938908253
 20
41.67096759505832
 10
-17.92946381788253
 20
41.76360712145831
 10
-17.85240236348252
 20
41.85748284785831
 10
-17.77682322428252
 20
41.95254698225832
 10
-17.70274992828253
 20
42.04871641425831
 10
-17.63019080828253
 20
42.14593252625831
 10
-17.55905808188252
 20
42.24426995345832
 10
-17.48924416988252
 20
42.34383733105832
 10
-17.42065838908253
 20
42.44474603025832
 10
-17.35320958428252
 20
42.54712276465832
 10
-17.28678778908252
 20
42.65115287505832
 10
-17.22130737948252
 20
42.75699402065831
 10
-17.15679889628252
 20
42.86463448945831
  0
LWPOLYLINE
  5
B8
330
2
100
AcDbEntity
  8
0
100
AcDbPolyline
 90
       35
 70
     0
 43
0.0
 10
-22.94791011388253
 20
38.33049556465831
 10
-22.75845942588253
 20
38.40621999345831
 10
-22.57015111388253
 20
38.48501354225832
 10
-22.38313462908253
 20
38.56679539985831
 10
-22.19745764668252
 20
38.65153312145832
 10
-22.01276068828252
 20
38.73938772785832
 10
-21.82858249468253
 20
38.83056860625831
 10
-21.69051907868252
 20
38.90126821265831
 10
-21.55233702908252
 20
38.97407568305832
 10
-21.41388536508253
 20
39.04911007185831
 10
-21.27501310748253
 20
39.12649043345832
 10
-21.13561885148253
 20
39.20631091665832
 10
-20.99579949148253
 20
39.28856603185831
 10
-20.90234594588253
 20
39.34478794865831
 10
-20.80835116828252
 20
39.40235507025832
 10
-20.71339776508253
 20
39.46154404465831
 10
-20.61721909148252
 20
39.52253589265831
 10
-20.52015149148252
 20
39.58512908145833
 10
-20.42268205788252
 20
39.64902645265832
 10
-20.34966847228253
 20
39.69758053745831
 10
-20.27726338588253
 20
39.74629942545832
 10
-20.20586996188252
 20
39.79488843345832
 10
-20.13526186748252
 20
39.84348073265831
 10
-20.04187612668252
 20
39.90855409265831
 10
-19.94949460668253
 20
39.97381021745831
 10
-19.85840754108252
 20
40.03899911345832
 10
-19.76890515868253
 20
40.10387079505831
 10
-19.68127768988253
 20
40.16817527025832
 10
-19.59581536508252
 20
40.23166255185831
 10
-19.51271521788252
 20
40.29416240785831
 10
-19.43180150908253
 20
40.35582364625832
 10
-19.35280529788252
 20
40.41687483505831
 10
-19.27553441948252
 20
40.47748028305831
 10
-19.20010378748253
 20
40.53754728145832
 10
-19.12670508508253
 20
40.59691886385831
  0
LWPOLYLINE
  5
B9
330
2
100
AcDbEntity
  8
0
100
AcDbPolyline
 90
        8
 70
     0
 43
0.0
 10
-26.31847574268252
 20
37.51814701585832
 10
-26.54265720988253
 20
37.49477409265832
 10
-26.77306901628253
 20
37.47395173585831
 10
-27.01078785948253
 20
37.45573559825832
 10
-27.25655631868252
 20
37.44022965745832
 10
-27.51038861468252
 20
37.42760981905832
 10
-27.77207517628252
 20
37.41805933745832
 10
-28.04153207068253
 20
37.41175063825831
  0
LWPOLYLINE
  5
BA
330
2
100
AcDbEntity
  8
0
100
AcDbPolyline
 90
       22
 70
     0
 43
0.0
 10
-66.93984098588252
 20
51.98871909745832
 10
-66.97032865948253
 20
51.93221095345831
 10
-66.99993775228254
 20
51.8762244750583
 10
-67.02843999548253
 20
51.82073549585831
 10
-67.05564165788253
 20
51.76566531825833
 10
-67.07509053148253
 20
51.72454683825833
 10
-67.09372316508254
 20
51.68332639185831
 10
-67.11155589628254
 20
51.64176867345833
 10
-67.12857318908253
 20
51.59987026225832
 10
-67.14478118108252
 20
51.55762832145831
 10
-67.16030457148253
 20
51.51481046225831
 10
-67.17035331868252
 20
51.48577510865831
 10
-67.18023574908253
 20
51.45610678225833
 10
-67.19002121308253
 20
51.42555726225831
 10
-67.19975534588252
 20
51.39395723985831
 10
-67.20938887548253
 20
51.36145304945833
 10
-67.21884881628253
 20
51.32826993745831
 10
-67.23259496988252
 20
51.27762325105831
 10
-67.24578830588253
 20
51.22616542065833
 10
-67.26255738108253
 20
51.15654341425832
 10
-67.27855867708253
 20
51.08567624625831
 10
-67.29400366108253
 20
51.01338811345832
  0
LWPOLYLINE
  5
BB
330
2
100
AcDbEntity
  8
0
100
AcDbPolyline
 90
       23
 70
     0
 43
0.0
 10
-67.29400381628252
 20
48.28739478865833
 10
-67.27847541148253
 20
48.21472856465831
 10
-67.26240046268253
 20
48.14356815505831
 10
-67.24557098428252
 20
48.07374585905833
 10
-67.23234237788253
 20
48.02220019505833
 10
-67.21856725788253
 20
47.97150494705832
 10
-67.20909083388253
 20
47.93830528305832
 10
-67.19944650748252
 20
47.90580507665831
 10
-67.18971154108253
 20
47.87424046705831
 10
-67.17993794268252
 20
47.84376382065832
 10
-67.17007669628253
 20
47.81419244625832
 10
-67.16005353468253
 20
47.78525988305832
 10
-67.14456201628252
 20
47.74256356145833
 10
-67.12834410428252
 20
47.7003315230583
 10
-67.11124547868251
 20
47.65827439985833
 10
-67.09327447228253
 20
47.61643935025833
 10
-67.07446469148253
 20
47.57488118065831
 10
-67.05478818268253
 20
47.53334874865831
 10
-67.02719127708252
 20
47.47758268625832
 10
-66.99824331068254
 20
47.41918007665833
 10
-66.96821112668252
 20
47.36247226225833
 10
-66.93738588508253
 20
47.30539464945831
 10
-66.87493422108253
 20
47.19104602545831
  0
LWPOLYLINE
  5
BC
330
2
100
AcDbEntity
  8
0
100
AcDbPolyline
 90
       53
 70
     0
 43
0.0
 10
-69.70071162908252
 20
49.6503910814583
 10
-69.69885000828253
 20
49.75407951825832
 10
-69.69343478108253
 20
49.85365212465831
 10
-69.68479666268253
 20
49.94763492625833
 10
-69.67312029948252
 20
50.03641527025831
 10
-69.65811616028253
 20
50.12280772785832
 10
-69.63950621948253
 20
50.20808091825833
 10
-69.61751343388252
 20
50.29057838065833
 10
-69.59209087868252
 20
50.36991208145832
 10
-69.56266613788253
 20
50.44706037265831
 10
-69.52883745628253
 20
50.52199971665832
 10
-69.49067929148253
 20
50.59347891665831
 10
-69.45150525628253
 20
50.65541110865831
 10
-69.41544274268252
 20
50.70324108945832
 10
-69.38149552508253
 20
50.73931284625832
 10
-69.34588544668253
 20
50.76759410065832
 10
-69.30555063068253
 20
50.78995437585831
 10
-69.25983823548254
 20
50.80700432465832
 10
-69.20942456348253
 20
50.82122657905833
 10
-69.15431934748252
 20
50.83376572625832
 10
-69.09434684988252
 20
50.84590224465833
 10
-69.02904242428252
 20
50.85851151825832
 10
-68.95782735388252
 20
50.8721481118583
 10
-68.88003103068253
 20
50.88779592465832
 10
-68.79491520188253
 20
50.90682915345832
 10
-68.70159753628252
 20
50.93073859025833
 10
-68.59892809308252
 20
50.96128467825832
 10
-68.48531051228253
 20
51.00023146385831
 10
-68.35928315548253
 20
51.04973027345832
 10
-68.22067474428251
 20
51.11222292465831
 10
-68.07948690108253
 20
51.18492560465833
 10
-67.94633411548253
 20
51.26270538545833
 10
-67.82254731868253
 20
51.34365625265832
 10
-67.70345232988254
 20
51.43039262865833
 10
-67.58012875548252
 20
51.53111102545833
 10
-67.44760449628254
 20
51.65384273425832
 10
-67.31946199548253
 20
51.78919930545831
 10
-67.20677653308253
 20
51.92349631185831
 10
-67.11228005308253
 20
52.04823457425831
 10
-67.03110251228252
 20
52.16468222545831
 10
-66.95947962908253
 20
52.27425666225832
 10
-66.89550992508253
 20
52.37706838545832
 10
-66.83788801468253
 20
52.47311471345833
 10
-66.78594156828253
 20
52.5619890910583
 10
-66.73933237308253
 20
52.64323690545831
 10
-66.69778121308252
 20
52.71678958865831
 10
-66.66042168348252
 20
52.78380168305833
 10
-66.62592704828253
 20
52.84639601745832
 10
-66.59294564988252
 20
52.90691013585831
 10
-66.56019929148252
 20
52.96783370705833
 10
-66.52729220508253
 20
53.03015724785831
 10
-66.49429405628253
 20
53.09401809425833
 10
-66.46125970428252
 20
53.15955146225832
  0
LWPOLYLINE
  5
BD
330
2
100
AcDbEntity
  8
0
100
AcDbPolyline
 90
       26
 70
     0
 43
0.0
 10
-58.08552152668252
 20
70.62892451665831
 10
-58.94100020828253
 20
70.56925235185833
 10
-59.79119182108252
 20
70.4715156526583
 10
-60.63537292028253
 20
70.33589194865832
 10
-61.47313986268253
 20
70.16237641905831
 10
-62.30525883708253
 20
69.95069366225831
 10
-63.13099268828253
 20
69.7008181950583
 10
-63.94786611228252
 20
69.4131868814583
 10
-64.75353498268254
 20
69.0883729374583
 10
-65.54621526108252
 20
68.7269217742583
 10
-66.32458108348252
 20
68.32918373905832
 10
-67.08735142588253
 20
67.89554613105829
 10
-67.83302720988253
 20
67.42660992945832
 10
-68.56000340348254
 20
66.92305322545831
 10
-69.26705966428253
 20
66.38536904145832
 10
-69.95283328988254
 20
65.8142624094583
 10
-70.61584096028252
 20
65.21054752145833
 10
-71.25481481788253
 20
64.57490658705831
 10
-71.86826992348253
 20
63.9084019278583
 10
-72.45462884668254
 20
63.21225215825831
 10
-73.01254405148253
 20
62.48750880785832
 10
-73.54064972188253
 20
61.73549386385833
 10
-74.03757559868253
 20
60.9576150942583
 10
-74.50204678268253
 20
60.15524307505831
 10
-74.93284077148253
 20
59.3300061870583
 10
-75.32875089148252
 20
58.48365557745831
  0
LWPOLYLINE
  5
BE
330
2
100
AcDbEntity
  8
0
100
AcDbPolyline
 90
       75
 70
     0
 43
0.0
 10
-59.44884152668253
 20
65.96169704625831
 10
-59.72286991868252
 20
65.9313637982583
 10
-59.99713999548252
 20
65.89801682865831
 10
-60.26627872828253
 20
65.86243872465832
 10
-60.52799237468253
 20
65.8249861390583
 10
-60.78322042108253
 20
65.78562829585831
 10
-61.03261958428253
 20
65.74434583505831
 10
-61.27637253148253
 20
65.7011849838583
 10
-61.51492331388253
 20
65.65613904785831
 10
-61.74893404188253
 20
65.60914846065831
 10
-61.97900513148253
 20
65.56015247825832
 10
-62.20539930268253
 20
65.50914587505832
 10
-62.42822644348253
 20
65.4561514206583
 10
-62.64763581788253
 20
65.4011786062583
 10
-62.86382758428253
 20
65.34421785425831
 10
-63.07696043548252
 20
65.28526452785832
 10
-63.28712109628252
 20
65.2243299886583
 10
-63.49459324668252
 20
65.16136279185833
 10
-63.69996371708253
 20
65.09620663665831
 10
-63.90373591708253
 20
65.02871319825832
 10
-64.10609670268252
 20
64.95882207185832
 10
-64.30709121148253
 20
64.8865148238583
 10
-64.50677248508253
 20
64.81176857905831
 10
-64.70530837308253
 20
64.73451348785832
 10
-64.90286816348254
 20
64.6546700590583
 10
-65.09948536668253
 20
64.57220671665831
 10
-65.29511367068252
 20
64.48712515505832
 10
-65.49023874428252
 20
64.3991869438583
 10
-65.68562406588253
 20
64.3080073934583
 10
-65.88147190588253
 20
64.21343980945832
 10
-66.07779275388253
 20
64.1154163278583
 10
-66.27464080348253
 20
64.0138450798583
 10
-66.47206187708253
 20
63.90863420145831
 10
-66.67006983388254
 20
63.79970551025832
 10
-66.86868081948253
 20
63.6869766542583
 10
-67.06787747708253
 20
63.57038259185831
 10
-67.26755753308253
 20
63.4499057918583
 10
-67.46747805308253
 20
63.32561596145831
 10
-67.66734367068252
 20
63.19763167345832
 10
-67.86704589788252
 20
63.06596755985831
 10
-68.06659011548252
 20
62.93056676465832
 10
-68.26603239228254
 20
62.7913347742583
 10
-68.46538287228253
 20
62.64820116945831
 10
-68.66420961628254
 20
62.50142472145831
 10
-68.86155813308253
 20
62.3516840350583
 10
-69.05615035068253
 20
62.19994309265832
 10
-69.24767838588252
 20
62.04647065905831
 10
-69.43619363388254
 20
61.89125985745832
 10
-69.62161753948253
 20
61.73441071985831
 10
-69.80397232348252
 20
61.57594176785829
 10
-69.98324592828253
 20
61.41590004465832
 10
-70.15946040668253
 20
61.25430315345832
 10
-70.33262809468252
 20
61.09117667665831
 10
-70.50275844828252
 20
60.92654845425832
 10
-70.66986444188254
 20
60.7604424078583
 10
-70.83385178748253
 20
60.59299148305831
 10
-70.99462099708254
 20
60.4243401822583
 10
-71.15214970588252
 20
60.25455838865832
 10
-71.30646332348253
 20
60.08366631825831
 10
-71.45760659868253
 20
59.91166090865831
 10
-71.60562959068252
 20
59.73853008785832
 10
-71.75053974908252
 20
59.56430867505829
 10
-71.89234287548252
 20
59.3890340110583
 10
-72.03104819228252
 20
59.21273926865831
 10
-72.16669701148252
 20
59.0354155022583
 10
-72.29937618428252
 20
58.8569895870583
 10
-72.42911567228254
 20
58.6774577902583
 10
-72.55593835708253
 20
58.4968237294583
 10
-72.67980996188253
 20
58.31517410865831
 10
-72.80064972508253
 20
58.13266869105831
 10
-72.91841279868254
 20
57.9494194222583
 10
-73.03310596348253
 20
57.76546524785832
 10
-73.14476826428253
 20
57.58079289585831
 10
-73.25347573788253
 20
57.39532171665832
 10
-73.35929831708253
 20
57.20897164945831
  0
LWPOLYLINE
  5
BF
330
2
100
AcDbEntity
  8
0
100
AcDbPolyline
 90
        5
 70
     0
 43
0.0
 10
-75.32875089148252
 20
58.48365557745831
 10
-75.64227981148253
 20
57.7357202958583
 10
-75.92856781308253
 20
56.97355898065831
 10
-76.18673766108253
 20
56.19890196465831
 10
-76.29408552508252
 20
55.8448480862583
  0
LWPOLYLINE
  5
C0
330
2
100
AcDbEntity
  8
0
100
AcDbPolyline
 90
       18
 70
     0
 43
0.0
 10
-73.35929831708253
 20
57.20897164945831
 10
-73.46045684828253
 20
57.02581804145831
 10
-73.55908993468253
 20
56.8428031822583
 10
-73.65525497948252
 20
56.6598284174583
 10
-73.74898560508253
 20
56.4768297374583
 10
-73.84031881628252
 20
56.2937262238583
 10
-73.92932553468253
 20
56.1103548398583
 10
-74.01607176028253
 20
55.9265420222583
 10
-74.10058420988253
 20
55.74217778385833
 10
-74.18287343548252
 20
55.5571741198583
 10
-74.26291710268253
 20
55.3715184046583
 10
-74.34065098908252
 20
55.18530473585832
 10
-74.41613239068252
 20
54.99833033425829
 10
-74.48952954268253
 20
54.81007084145829
 10
-74.56059048668253
 20
54.61886082705831
 10
-74.62928734748253
 20
54.42906936145831
 10
-74.69562669948253
 20
54.23836425425832
 10
-74.75950510428254
 20
54.04693933105832
  0
LWPOLYLINE
  5
C1
330
2
100
AcDbEntity
  8
0
100
AcDbPolyline
 90
       24
 70
     0
 43
0.0
 10
-74.75950510428254
 20
54.04693933105832
 10
-74.81800958908252
 20
53.86365800625833
 10
-74.87490844508252
 20
53.67676259185831
 10
-74.92976859708253
 20
53.48737122545833
 10
-74.98211425468253
 20
53.29691875505833
 10
-75.03145110908253
 20
53.10725607025833
 10
-75.07803463388253
 20
52.91753876465833
 10
-75.12192010588254
 20
52.7275906542583
 10
-75.16308535548254
 20
52.53755313585833
 10
-75.20155856828253
 20
52.34734723505832
 10
-75.23735925148253
 20
52.15691324305831
 10
-75.27049251708253
 20
51.96625385745832
 10
-75.30096406748254
 20
51.77536543025832
 10
-75.32878525308253
 20
51.58419879985832
 10
-75.35396201468254
 20
51.39272418865832
 10
-75.37649746588252
 20
51.20091920945833
 10
-75.39639273628253
 20
51.00876564465832
 10
-75.41364772348252
 20
50.81624645585833
 10
-75.42826523228253
 20
50.62328894225831
 10
-75.44024763708254
 20
50.4297552446583
 10
-75.44957708028253
 20
50.23581738225832
 10
-75.45624514908252
 20
50.04165013105833
 10
-75.46026494748253
 20
49.84658455185831
 10
-75.46161358908253
 20
49.6503910814583
  0
LWPOLYLINE
  5
C2
330
2
100
AcDbEntity
  8
0
100
AcDbPolyline
 90
        7
 70
     0
 43
0.0
 10
-76.61662982108253
 20
54.6145772494583
 10
-76.76526150588253
 20
53.92253368625834
 10
-76.89532444028253
 20
53.20228179505832
 10
-77.00279851548254
 20
52.46642136145831
 10
-77.08640432988253
 20
51.71584071985833
 10
-77.14493157468253
 20
50.95112148625833
 10
-77.15553474428253
 20
50.75713759505831
  0
LWPOLYLINE
  5
C3
330
2
100
AcDbEntity
  8
0
100
AcDbPolyline
 90
        3
 70
     0
 43
0.0
 10
-77.18332751228253
 20
49.6503910814583
 10
-77.16748477628252
 20
48.81472351505832
 10
-77.15553474428253
 20
48.5436445662583
  0
LWPOLYLINE
  5
C4
330
2
100
AcDbEntity
  8
0
100
AcDbPolyline
 90
        3
 70
     0
 43
0.0
 10
-77.15553474428253
 20
50.75713759505831
 10
-77.16748477628252
 20
50.48605864625833
 10
-77.18332751228253
 20
49.6503910814583
  0
LWPOLYLINE
  5
C5
330
2
100
AcDbEntity
  8
0
100
AcDbPolyline
 90
       22
 70
     0
 43
0.0
 10
-67.44316676508254
 20
49.6503910814583
 10
-67.44275255388252
 20
49.58282834065832
 10
-67.44153232828253
 20
49.51561856945833
 10
-67.43953740828253
 20
49.44876858545831
 10
-67.43679796828252
 20
49.38228064945832
 10
-67.43333962268252
 20
49.31613878225832
 10
-67.42918684188253
 20
49.25032244785831
 10
-67.42436285628253
 20
49.18481000145831
 10
-67.41888592028252
 20
49.11957540145832
 10
-67.41277304668253
 20
49.05459149585832
 10
-67.40604033148253
 20
48.98983183825831
 10
-67.39870019068253
 20
48.92527276465833
 10
-67.39076412668253
 20
48.86089131345833
 10
-67.38224318428253
 20
48.79666679185831
 10
-67.37314658268252
 20
48.73258757105833
 10
-67.36348309148252
 20
48.66864429585831
 10
-67.35326112508253
 20
48.60482763345832
 10
-67.34248768988253
 20
48.54112835665834
 10
-67.33116944028253
 20
48.47753726545832
 10
-67.31931271388254
 20
48.41404788945832
 10
-67.30692258748253
 20
48.35066467185831
 10
-67.29400381628252
 20
48.28739478865833
  0
LWPOLYLINE
  5
C6
330
2
100
AcDbEntity
  8
0
100
AcDbPolyline
 90
       22
 70
     0
 43
0.0
 10
-67.29400366108253
 20
51.01338811345832
 10
-67.30678808348253
 20
50.95078929425833
 10
-67.31906166908252
 20
50.88804518705831
 10
-67.33081703388254
 20
50.82517547985833
 10
-67.34204778588253
 20
50.76218862385832
 10
-67.35275149308254
 20
50.69904812785833
 10
-67.36292671388253
 20
50.63570627505831
 10
-67.37257043228253
 20
50.57211909745831
 10
-67.38167332508253
 20
50.50825766545833
 10
-67.39022448988253
 20
50.44409680305832
 10
-67.39821171708253
 20
50.37961678065832
 10
-67.40561755068253
 20
50.31481963985831
 10
-67.41242322748252
 20
50.24971287345832
 10
-67.41860965628252
 20
50.18430208145833
 10
-67.42415644988253
 20
50.11858531985831
 10
-67.42904289308254
 20
50.05255876145833
 10
-67.43324755228252
 20
49.98622240465832
 10
-67.43674609628252
 20
49.91959155665833
 10
-67.43951346748253
 20
49.85268535665833
 10
-67.44152419708253
 20
49.78551868305832
 10
-67.44275114748254
 20
49.71808939185831
 10
-67.44316676508254
 20
49.6503910814583
  0
LWPOLYLINE
  5
C7
330
2
100
AcDbEntity
  8
0
100
AcDbPolyline
 90
        4
 70
     0
 43
0.0
 10
-76.29408552508252
 20
55.8448480862583
 10
-76.38211459068253
 20
55.5370615150583
 10
-76.50759083708253
 20
55.0655535342583
 10
-76.61663000508252
 20
54.61457645425833
  0
LINE
  5
C8
330
2
100
AcDbEntity
  8
0
100
AcDbLine
 10
-41.79912690428253
 20
60.43690764625829
 30
0.0
 11
-41.89833984988253
 21
60.43969225265831
 31
0.0
  0
LWPOLYLINE
  5
C9
330
2
100
AcDbEntity
  8
0
100
AcDbPolyline
 90
       21
 70
     0
 43
0.0
 10
-45.51025792028252
 20
60.6287708302583
 10
-45.27919170108252
 20
60.6027853934583
 10
-45.03718756188253
 20
60.57776042065831
 10
-44.78309677468253
 20
60.55358811985832
 10
-44.52246081948253
 20
60.53076913265832
 10
-44.27475575548252
 20
60.51074369425831
 10
-44.05383841468252
 20
60.49412977585831
 10
-43.85431700988253
 20
60.48006218545831
 10
-43.66179056028252
 20
60.4672836894583
 10
-43.46866336668253
 20
60.45521712625831
 10
-43.27472734588252
 20
60.44383347825831
 10
-43.07059719548253
 20
60.43262942705831
 10
-42.84300168668252
 20
60.42107329265832
 10
-42.60276330428253
 20
60.40996282865831
 10
-42.36911917148252
 20
60.40026996785832
 10
-42.14419525468253
 20
60.39203685905832
 10
-41.92590781468253
 20
60.3851695822583
 10
-41.71782259868253
 20
60.37978671665832
 10
-41.52306393308252
 20
60.3759541198583
 10
-41.34387625468252
 20
60.3736810350583
 10
-41.18333369948253
 20
60.37293974065829
  0
LWPOLYLINE
  5
CA
330
2
100
AcDbEntity
  8
0
100
AcDbPolyline
 90
       17
 70
     0
 43
0.0
 10
-47.60736083548252
 20
62.3689304350583
 10
-46.80862588188253
 20
62.26220503505832
 10
-46.00615321948253
 20
62.16935580945833
 10
-45.20315086428253
 20
62.09081401265831
 10
-44.39971325788252
 20
62.02656861425831
 10
-43.59593579868253
 20
61.97661034545831
 10
-42.79191220028252
 20
61.94093148305831
 10
-41.98772794588252
 20
61.9195258542583
 10
-41.18346340348253
 20
61.9123895470583
 10
-40.37919881148252
 20
61.91952125425832
 10
-39.57501444508253
 20
61.94092228305831
 10
-38.77099073308253
 20
61.9765965454583
 10
-37.96721317468252
 20
62.02655021105832
 10
-37.16377545308253
 20
62.09079100145832
 10
-36.36077291548252
 20
62.16932819025831
 10
-35.55829997308252
 20
62.26217281425832
 10
-34.75930656348252
 20
62.3689304350583
  0
LWPOLYLINE
  5
CB
330
2
100
AcDbEntity
  8
0
100
AcDbPolyline
 90
       18
 70
     0
 43
0.0
 10
-35.91348169308253
 20
63.69538914385831
 10
-36.52715855068253
 20
63.58417282545833
 10
-37.14510700828252
 20
63.48635389425831
 10
-37.76430045308252
 20
63.4024894462583
 10
-38.38454598588252
 20
63.33258886385832
 10
-39.00564773948252
 20
63.2766602302583
 10
-39.62741110588252
 20
63.2347096878583
 10
-40.24964411548253
 20
63.20674148145832
 10
-40.87215872828252
 20
63.1927581870583
 10
-41.49476718748252
 20
63.19276109105832
 10
-42.11728175228252
 20
63.20675019345831
 10
-42.73951468828252
 20
63.2347242126583
 10
-43.36127796988253
 20
63.27668057265831
 10
-43.98237959708253
 20
63.3326150350583
 10
-44.60262490108253
 20
63.4025214494583
 10
-45.22181794588253
 20
63.48639171825832
 10
-45.83976578748253
 20
63.58421644785832
 10
-46.45318570588253
 20
63.69538914225831
  0
LWPOLYLINE
  5
CC
330
2
100
AcDbEntity
  8
0
100
AcDbPolyline
 90
       24
 70
     0
 43
0.0
 10
-41.18333369948253
 20
66.0987000446583
 10
-43.01953743868253
 20
66.0966111950583
 10
-44.93139578908253
 20
66.09137476145829
 10
-46.63015569788252
 20
66.08572778225831
 10
-48.13807989628253
 20
66.08136113585832
 10
-49.47870898268253
 20
66.0789883358583
 10
-50.66927191068252
 20
66.07874323185831
 10
-51.72663061308253
 20
66.08047723345831
 10
-52.66515345308253
 20
66.08396698865831
 10
-53.49942451708253
 20
66.08900957905831
 10
-54.24136876508253
 20
66.09546480785832
 10
-54.90375223228252
 20
66.10264136305829
 10
-55.50008462108253
 20
66.10854390705831
 10
-56.03074268508253
 20
66.1116001262583
 10
-56.49914213788253
 20
66.1109686078583
 10
-56.90778824668253
 20
66.10661722385831
 10
-57.27141106908253
 20
66.0990041134583
 10
-57.61600252828253
 20
66.08813952305832
 10
-57.94738013148253
 20
66.07413031505831
 10
-58.26740197308253
 20
66.05711314385832
 10
-58.57676747548253
 20
66.03724243025832
 10
-58.87636371868253
 20
66.01464092945832
 10
-59.16693203388253
 20
65.98941734705832
 10
-59.44884152668253
 20
65.96169704625831
  0
LWPOLYLINE
  5
CD
330
2
100
AcDbEntity
  8
0
100
AcDbPolyline
 90
       43
 70
     0
 43
0.0
 10
-41.18333369948253
 20
61.4084266174583
 10
-41.36747544988253
 20
61.4089490702583
 10
-41.55382474748252
 20
61.41054822545831
 10
-41.74254477948252
 20
61.4132634878583
 10
-41.93244187708252
 20
61.41710108785829
 10
-42.12204668988252
 20
61.42204921265832
 10
-42.31014401948253
 20
61.42805701585832
 10
-42.49566598748252
 20
61.4350588062583
 10
-42.67787984508252
 20
61.44296852305831
 10
-42.85668462428254
 20
61.45172861585831
 10
-43.03417137148253
 20
61.4614159214583
 10
-43.15303840828252
 20
61.46844755985831
 10
-43.27310380028253
 20
61.47599578225831
 10
-43.39497878428253
 20
61.48411599665831
 10
-43.51931699708252
 20
61.49287263345832
 10
-43.64694166588252
 20
61.5023662206583
 10
-43.77871841308253
 20
61.51270630865832
 10
-43.91533366428252
 20
61.52399305745831
 10
-44.05675703708253
 20
61.5362890622583
 10
-44.20277895068252
 20
61.54964752785829
 10
-44.35295626108252
 20
61.5640906398583
 10
-44.50591158428252
 20
61.57951649265831
 10
-44.66003397628253
 20
61.59579215985832
 10
-44.89061896988252
 20
61.6215530590583
 10
-45.11919085308252
 20
61.64874694705829
 10
-45.34510530588252
 20
61.6772437582583
 10
-45.56919831228252
 20
61.7071132030583
 10
-45.79270713308253
 20
61.73849160785832
 10
-46.01699384988252
 20
61.77158198385831
 10
-46.16766328828252
 20
61.79471051665831
 10
-46.31985905788252
 20
61.8188148542583
 10
-46.47414251868252
 20
61.8440122862583
 10
-46.63105799548254
 20
61.87042253745833
 10
-46.79108164028252
 20
61.8981750494583
 10
-46.95467256828253
 20
61.92740169425832
 10
-47.08000084508252
 20
61.9503750462583
 10
-47.20789485628253
 20
61.9743472494583
 10
-47.33865548828252
 20
61.9994137806583
 10
-47.47258362588254
 20
62.02567011185831
 10
-47.60991070428253
 20
62.05320003665829
 10
-47.75059035708252
 20
62.08204060785831
 10
-47.89450676508252
 20
62.11221719985832
 10
-48.04154411228252
 20
62.1437551822583
  0
LINE
  5
CE
330
2
100
AcDbEntity
  8
0
100
AcDbLine
 10
-47.94762374588252
 20
64.6525869838583
 30
0.0
 11
-34.41900708988252
 21
64.6525869838583
 31
0.0
  0
LWPOLYLINE
  5
CF
330
2
100
AcDbEntity
  8
0
100
AcDbPolyline
 90
       36
 70
     0
 43
0.0
 10
-49.00423624508253
 20
49.6503910814583
 10
-49.00370395548254
 20
49.89338463825831
 10
-49.00072892828252
 20
50.16783740945832
 10
-48.99426377468252
 20
50.48071279185831
 10
-48.98354377468253
 20
50.82021955505831
 10
-48.96878141788253
 20
51.1632394990583
 10
-48.95018436188253
 20
51.50389780145832
 10
-48.92776373948253
 20
51.84271988625832
 10
-48.90152475068252
 20
52.18001628945831
 10
-48.87150730908253
 20
52.51561513745833
 10
-48.83777656828254
 20
52.84911906225833
 10
-48.80041740028253
 20
53.18005730545832
 10
-48.75952716028253
 20
53.50797644625831
 10
-48.71519875868253
 20
53.83255544305831
 10
-48.66754833148253
 20
54.15337842385833
 10
-48.61669172988253
 20
54.47011268625832
 10
-48.56277372988252
 20
54.7845162174583
 10
-48.50591295868253
 20
55.09197927665832
 10
-48.44625816668252
 20
55.39436023185832
 10
-48.38392758748253
 20
55.6915198622583
 10
-48.31895730748254
 20
55.98370553585832
 10
-48.25133585948252
 20
56.27135395665831
 10
-48.18120680348252
 20
56.55420464785831
 10
-48.10868583868253
 20
56.83213719985833
 10
-48.03392891228253
 20
57.1048978718583
 10
-47.95708469468253
 20
57.37229311345831
 10
-47.87830075388252
 20
57.63415872945831
 10
-47.79772565468252
 20
57.8903489198583
 10
-47.71547947868252
 20
58.1408220254583
 10
-47.63172859388252
 20
58.38540723185833
 10
-47.54660692828252
 20
58.62404767345831
 10
-47.46026128508252
 20
58.85666049585831
 10
-47.37287262588253
 20
59.08309028465831
 10
-47.28427648828253
 20
59.30404868945831
 10
-47.19620504828253
 20
59.51569607025831
 10
-47.11678314748254
 20
59.7001293998583
  0
LWPOLYLINE
  5
D0
330
2
100
AcDbEntity
  8
0
100
AcDbPolyline
 90
       35
 70
     0
 43
0.0
 10
-47.13472177148253
 20
59.70468596305832
 10
-47.22478994108253
 20
59.49286262705832
 10
-47.31388004348253
 20
59.2755469438583
 10
-47.40197936348252
 20
59.05248792785832
 10
-47.48908397788253
 20
58.82339757585831
 10
-47.57516177148253
 20
58.58802984625831
 10
-47.66003333948252
 20
58.34652793425831
 10
-47.74352677788253
 20
58.09903833105832
 10
-47.82547729148252
 20
57.8457104734583
 10
-47.90569924348253
 20
57.58678750385832
 10
-47.98412445628253
 20
57.32214827985831
 10
-48.06060304508253
 20
57.05193795345832
 10
-48.13495834908252
 20
56.7764249950583
 10
-48.20708837788252
 20
56.49562585265832
 10
-48.27682573788253
 20
56.20982370225831
 10
-48.34401652188252
 20
55.9192916382583
 10
-48.40859818748253
 20
55.62392058065831
 10
-48.47055307388252
 20
55.32336669425831
 10
-48.52979820508252
 20
55.01759261425831
 10
-48.58621587868253
 20
54.70673351185832
 10
-48.63966674268254
 20
54.38887494545832
 10
-48.69000940348254
 20
54.0687619646583
 10
-48.73711242268253
 20
53.74456433265831
 10
-48.78087777628252
 20
53.4164773758583
 10
-48.82118376988252
 20
53.08492841905831
 10
-48.85792991388253
 20
52.75027251345832
 10
-48.89101439868253
 20
52.41298615025832
 10
-48.92034694268253
 20
52.07359110385832
 10
-48.94587243388253
 20
51.73234569425833
 10
-48.96756171068253
 20
51.3891866126583
 10
-48.98539729948253
 20
51.04385936145831
 10
-48.99931846268252
 20
50.69691618545832
 10
-49.00928477468252
 20
50.34879394225831
 10
-49.01526902108253
 20
49.99983667665834
 10
-49.01725172828253
 20
49.6503910814583
  0
LWPOLYLINE
  5
D1
330
2
100
AcDbEntity
  8
0
100
AcDbPolyline
 90
       31
 70
     0
 43
0.0
 10
-63.24142656988253
 20
58.70272122705831
 10
-63.29992441788252
 20
58.6546854926583
 10
-63.35700515068253
 20
58.60718174705832
 10
-63.41264100988253
 20
58.56025312465831
 10
-63.46680423228253
 20
58.51394276145831
 10
-63.51949152508253
 20
58.4682723374583
 10
-63.57079745148253
 20
58.4231777246583
 10
-63.62084104508253
 20
58.3785733342583
 10
-63.66974133628253
 20
58.33437358225831
 10
-63.73334985148253
 20
58.27593365585832
 10
-63.79530476508253
 20
58.2179274542583
 10
-63.85577340028253
 20
58.16022149905831
 10
-63.91492800828252
 20
58.10267249105831
 10
-63.97296055388252
 20
58.0450978318583
 10
-64.03006792508254
 20
57.98730510865832
 10
-64.11434038588253
 20
57.89985448145831
 10
-64.19713114428254
 20
57.81124033745832
 10
-64.27855541308253
 20
57.72127340785832
 10
-64.35856153948254
 20
57.62996706225831
 10
-64.43707505148253
 20
57.53738122865832
 10
-64.51409706108254
 20
57.44355940625831
 10
-64.58963881308253
 20
57.34854978705832
 10
-64.66367651388253
 20
57.25243572145831
 10
-64.73620181148253
 20
57.15527577265831
 10
-64.80730320348252
 20
57.0569941790583
 10
-64.87708909948253
 20
56.95748096785831
 10
-64.94565072188253
 20
56.8566236734583
 10
-65.01307973788252
 20
56.75429444305831
 10
-65.07948676508252
 20
56.65030640785833
 10
-65.14495789628253
 20
56.54450060625831
 10
-65.20946217948253
 20
56.4368887278583
  0
LWPOLYLINE
  5
D2
330
2
100
AcDbEntity
  8
0
100
AcDbPolyline
 90
       93
 70
     0
 43
0.0
 10
-55.82379715228253
 20
61.8060813614583
 10
-56.04799265308253
 20
61.78270984145831
 10
-56.26645449948253
 20
61.75687217105831
 10
-56.47916637148253
 20
61.72869894225832
 10
-56.68610135868253
 20
61.69832358705829
 10
-56.88723617308252
 20
61.66588121265832
 10
-57.08261048668252
 20
61.63149975665831
 10
-57.27297286748252
 20
61.59516355985832
 10
-57.45978398108253
 20
61.5566898318583
 10
-57.64403269308253
 20
61.51594338705831
 10
-57.82604068828253
 20
61.47290260145831
 10
-58.00610474108253
 20
61.42753764625831
 10
-58.18452420028253
 20
61.37980525105831
 10
-58.36159127228253
 20
61.32965107345831
 10
-58.53762545308253
 20
61.27699939665831
 10
-58.71289248828253
 20
61.2217767070583
 10
-58.88739866428252
 20
61.16398505425832
 10
-59.06106847708253
 20
61.10364983505832
 10
-59.23395904988253
 20
61.0407490974583
 10
-59.40618821148253
 20
60.97523438545832
 10
-59.57785151388253
 20
60.90705894065831
 10
-59.74901430588253
 20
60.83618197105832
 10
-59.91969726428252
 20
60.76257673265832
 10
-60.08997337308253
 20
60.68618941905831
 10
-60.26013751228252
 20
60.60685358225831
 10
-60.43052177788253
 20
60.5243756654583
 10
-60.60122945468253
 20
60.43866131025831
 10
-60.77215300028253
 20
60.34971618865831
 10
-60.94310777468253
 20
60.25759033105831
 10
-61.11391082108252
 20
60.1623388462583
 10
-61.28403434588253
 20
60.0642286350583
 10
-61.45493818908253
 20
59.96234644785833
 10
-61.62700867548252
 20
59.8563822606583
 10
-61.79103222108253
 20
59.75224382225832
 10
-61.93947103708253
 20
59.65541054065832
 10
-62.07418575868253
 20
59.56543583345831
 10
-62.19817865628253
 20
59.48089025425829
 10
-62.31309805948253
 20
59.4010739534583
 10
-62.42029244988253
 20
59.32537929105831
 10
-62.52080569788253
 20
59.2533300510583
 10
-62.61493064668253
 20
59.18493123345831
 10
-62.70461875548253
 20
59.11893337585832
 10
-62.79540221788253
 20
59.05126260305832
 10
-62.89200475868253
 20
58.97818947185831
 10
-62.99656994748253
 20
58.89771344305831
 10
-63.11292183548253
 20
58.8062836830583
 10
-63.24136863548253
 20
58.7027692638583
 10
-63.37160440508252
 20
58.59470958065831
 10
-63.49451635708253
 20
58.4895207870583
 10
-63.60989890748253
 20
58.3876284510583
 10
-63.71931400668253
 20
58.2878962398583
 10
-63.82344476508253
 20
58.1898923134583
 10
-63.92296585148253
 20
58.09315262545831
 10
-64.01855662588253
 20
57.9971577390583
 10
-64.11036774268253
 20
57.9018838494583
 10
-64.19594731708253
 20
57.8101464126583
 10
-64.27257293948253
 20
57.72542805425832
 10
-64.34201216348253
 20
57.64640266225831
 10
-64.40883533788252
 20
57.56823000785832
 10
-64.47551068828253
 20
57.48808061585831
 10
-64.54207668988252
 20
57.40584812785832
 10
-64.60844969148252
 20
57.3215703918583
 10
-64.67479647228254
 20
57.2349607630583
 10
-64.74117649788252
 20
57.14584633425833
 10
-64.80769871868253
 20
57.05396723665831
 10
-64.87447066748252
 20
56.9590371470583
 10
-64.94162369948253
 20
56.86070283185831
 10
-65.00931362908253
 20
56.75853323345831
 10
-65.07772474588254
 20
56.65200126385832
 10
-65.14712080188252
 20
56.54038467345831
 10
-65.21783213468253
 20
56.42275372945832
 10
-65.28965949308252
 20
56.29897798705832
 10
-65.36146209308253
 20
56.1706282030583
 10
-65.43218483068253
 20
56.03937103665831
 10
-65.50163067228253
 20
55.90546393425831
 10
-65.56983955708253
 20
55.76872542385832
 10
-65.63677000348253
 20
55.62912098705831
 10
-65.70239859548252
 20
55.4865749518583
 10
-65.76670719708253
 20
55.34099132465832
 10
-65.82967356988253
 20
55.19227294705832
 10
-65.89106336188253
 20
55.04084682385832
 10
-65.95039609468253
 20
54.88787518545831
 10
-66.00737650588252
 20
54.7342322686583
 10
-66.06206859068253
 20
54.57771968465832
 10
-66.11465797468253
 20
54.42235920145833
 10
-66.16525268828252
 20
54.26577775025831
 10
-66.21382359388253
 20
54.10821584465833
 10
-66.26031163868254
 20
53.95004642225831
 10
-66.30468511708253
 20
53.79159833265831
 10
-66.34694310748253
 20
53.63312827985831
 10
-66.38710817468254
 20
53.47482851185834
 10
-66.42520395708253
 20
53.31690342545832
 10
-66.46125965148252
 20
53.15955156945832
  0
LWPOLYLINE
  5
D3
330
2
100
AcDbEntity
  8
0
100
AcDbPolyline
 90
       25
 70
     0
 43
0.0
 10
-66.43657390908252
 20
53.20467514065831
 10
-66.45209404508253
 20
53.13804498865832
 10
-66.46904030268252
 20
53.07124337905833
 10
-66.48746256188252
 20
53.00423188785831
 10
-66.50729516828253
 20
52.93734258865831
 10
-66.52843300028253
 20
52.87099406225832
 10
-66.55072857948252
 20
52.80558040785831
 10
-66.57405349468253
 20
52.74138191985833
 10
-66.59839796348252
 20
52.67824817425832
 10
-66.61523164188253
 20
52.63656775985831
 10
-66.63269999548254
 20
52.59483750065832
 10
-66.65097572988253
 20
52.55264904625832
 10
-66.66531957308253
 20
52.52046286385831
 10
-66.68030740028253
 20
52.48762595025832
 10
-66.69603189308253
 20
52.45397500305833
 10
-66.71258573788254
 20
52.41934672465831
 10
-66.73005051228253
 20
52.38360035825832
 10
-66.74846338588253
 20
52.34668534065832
 10
-66.76785041948253
 20
52.30857365265831
 10
-66.78823767868252
 20
52.26923727665831
 10
-66.80961091388252
 20
52.22870109105833
 10
-66.83179462268253
 20
52.18720157105832
 10
-66.85457298428253
 20
52.14502809265832
 10
-66.87773018428252
 20
52.10247003025833
 10
-66.93984098588252
 20
51.98871909745832
  0
LWPOLYLINE
  5
D4
330
2
100
AcDbEntity
  8
0
100
AcDbPolyline
 90
       33
 70
     0
 43
0.0
 10
-65.20946217468253
 20
56.4368887502583
 10
-65.25757528188254
 20
56.35432339665832
 10
-65.30389173948254
 20
56.27288976625831
 10
-65.34845543068252
 20
56.19264844785831
 10
-65.39131024508254
 20
56.1136600254583
 10
-65.43250006908252
 20
56.03598508945831
 10
-65.47207565308252
 20
55.95966502865832
 10
-65.51011520668253
 20
55.88466444945831
 10
-65.54670380188253
 20
55.81092875985831
 10
-65.58192651068253
 20
55.7384033710583
 10
-65.61586840668252
 20
55.66703368945832
 10
-65.65661538748253
 20
55.57936630865831
 10
-65.69560708348253
 20
55.49332882225832
 10
-65.73295655068253
 20
55.4088306302583
 10
-65.76877684668253
 20
55.32578113265831
 10
-65.80317760508254
 20
55.24408691985832
 10
-65.83625475548252
 20
55.1636433550583
 10
-65.86810080348252
 20
55.08434298705831
 10
-65.89880825468253
 20
55.00607837105832
 10
-65.93813223068252
 20
54.90314817905832
 10
-65.97576762268253
 20
54.8015966590583
 10
-66.01188556508254
 20
54.70115215985831
 10
-66.04665130908253
 20
54.59934374385833
 10
-66.08020657468253
 20
54.50027462705833
 10
-66.11268720028252
 20
54.40145692625833
 10
-66.15963066588253
 20
54.25320952465833
 10
-66.20456228828253
 20
54.10476408945831
 10
-66.24757868348253
 20
53.95601949425833
 10
-66.28876105308254
 20
53.80689719025832
 10
-66.32818586748253
 20
53.65731242065831
 10
-66.36592607068251
 20
53.50713299505833
 10
-66.40204535228253
 20
53.35624750545832
 10
-66.43657390908252
 20
53.20467514065831
  0
LWPOLYLINE
  5
D5
330
2
100
AcDbEntity
  8
0
100
AcDbPolyline
 90
       31
 70
     0
 43
0.0
 10
-57.81395559548252
 20
64.43731276465832
 10
-57.33846681308254
 20
64.4730608158583
 10
-56.86128752028253
 20
64.50566371985832
 10
-56.38410549468253
 20
64.5349933182583
 10
-55.90863968988253
 20
64.5609656590583
 10
-55.75029372508253
 20
64.56889787985829
 10
-55.59123152508253
 20
64.57650131985833
 10
-55.43063889948253
 20
64.58380821105831
 10
-55.30870699868252
 20
64.58911124945831
 10
-55.18515295548254
 20
64.59426773265832
 10
-55.05967347228253
 20
64.59927978545832
 10
-54.93196525628253
 20
64.60414952945831
 10
-54.80172153148252
 20
64.60887747185831
 10
-54.66862160508253
 20
64.6134576638583
 10
-54.53234130748253
 20
64.61788254065831
 10
-54.39255646748254
 20
64.62214453745829
 10
-54.27799091868253
 20
64.62543068945831
 10
-54.16082964028253
 20
64.6285973534583
 10
-54.04092727708253
 20
64.63163412625831
 10
-53.91813847868253
 20
64.63453060305832
 10
-53.79231788828253
 20
64.6372763822583
 10
-53.66330692028252
 20
64.63985970545832
 10
-53.53089404988253
 20
64.64226339665831
 10
-53.39485451708253
 20
64.64446893105829
 10
-53.25496356348253
 20
64.64645777745833
 10
-53.11099642908253
 20
64.64821141105829
 10
-52.96277781148252
 20
64.64970957425831
 10
-52.81033024348253
 20
64.65092510385829
 10
-52.65372571068252
 20
64.65182911025832
 10
-52.49303620028253
 20
64.65239269905831
 10
-52.32833369948252
 20
64.6525869838583
  0
LWPOLYLINE
  5
D6
330
2
100
AcDbEntity
  8
0
100
AcDbPolyline
 90
       71
 70
     0
 43
0.0
 10
-48.04154411228252
 20
62.1437551822583
 10
-48.24364200668253
 20
62.18676122705829
 10
-48.44676795228252
 20
62.2283050974583
 10
-48.65097561148252
 20
62.2683807054583
 10
-48.85583592668253
 20
62.3068937950583
 10
-49.06080599388253
 20
62.34373558385832
 10
-49.26537021788253
 20
62.37882732945831
 10
-49.46912958108253
 20
62.4121193518583
 10
-49.67212408508252
 20
62.44364813745829
 10
-49.87491111068253
 20
62.47351883985832
 10
-50.07967856828253
 20
62.5020251230583
 10
-50.21857279068253
 20
62.52042991185831
 10
-50.36027339708252
 20
62.53842264945831
 10
-50.50555300988254
 20
62.55604623185831
 10
-50.65499971548253
 20
62.57331790385831
 10
-50.80846347868252
 20
62.59015231025831
 10
-50.96560973148253
 20
62.60643844625832
 10
-51.12603638748253
 20
62.6220666014583
 10
-51.28907126908252
 20
62.63693224145831
 10
-51.45397467388253
 20
62.65093212945831
 10
-51.62024859868252
 20
62.6639831054583
 10
-51.78836182268253
 20
62.67608231665832
 10
-51.95902481788253
 20
62.6872469838583
 10
-52.08914566908252
 20
62.69501339185831
 10
-52.22153765788253
 20
62.7022461038583
 10
-52.35663803548253
 20
62.70892741905831
 10
-52.49488405148253
 20
62.7150396334583
 10
-52.63671927708253
 20
62.72055751825831
 10
-52.78261256028253
 20
62.72542573425832
 10
-52.93303907068253
 20
62.72958141745831
 10
-53.08847397948253
 20
62.7329617038583
 10
-53.21671922428253
 20
62.73506101265832
 10
-53.34854899548253
 20
62.7365653214583
 10
-53.48403833468252
 20
62.73741611825832
 10
-53.62326228668253
 20
62.73755488625832
 10
-53.76629589468253
 20
62.73692311665832
 10
-53.91317244348252
 20
62.73546175505831
 10
-54.06375818268253
 20
62.73310959665832
 10
-54.21787760508253
 20
62.7298048958583
 10
-54.37535520188252
 20
62.7254859054583
 10
-54.53601546748252
 20
62.7200908830583
 10
-54.74095415548252
 20
62.71175625425832
 10
-54.94967938588253
 20
62.70162158385829
 10
-55.16127901628253
 20
62.6896646046583
 10
-55.37484090108254
 20
62.67586305585831
 10
-55.58953621788252
 20
62.6602001982583
 10
-55.80486942268253
 20
62.6426813886583
 10
-56.02010677628253
 20
62.6233667742583
 10
-56.23322849628253
 20
62.60251353585832
 10
-56.44256270588252
 20
62.58034777585831
 10
-56.64911521788252
 20
62.55677421905829
 10
-56.85456126908253
 20
62.53161724625832
 10
-57.06057608988253
 20
62.50470123985832
 10
-57.26822060028253
 20
62.4759197534583
 10
-57.47609843548253
 20
62.4454430238583
 10
-57.68256442108253
 20
62.4134713486583
 10
-57.88743541148253
 20
62.3800485902583
 10
-58.09072317788253
 20
62.3452151998583
 10
-58.29175716508252
 20
62.3091544302583
 10
-58.48969623548253
 20
62.27208523665831
 10
-58.68369925148253
 20
62.23422656945832
 10
-58.83554264028252
 20
62.2035170910583
 10
-58.98413904508252
 20
62.17254702065829
 10
-59.12929888508252
 20
62.14142089905831
 10
-59.27083257468253
 20
62.11024326545831
 10
-59.40855053628252
 20
62.07911866385831
 10
-59.54230716348252
 20
62.04814105425831
 10
-59.67213274748253
 20
62.01736207185831
 10
-59.79810155708253
 20
61.98682277585831
 10
-59.92028786268253
 20
61.95656422545832
 10
-60.03876593148253
 20
61.9266274766583
  0
LWPOLYLINE
  5
D7
330
2
100
AcDbEntity
  8
0
100
AcDbPolyline
 90
       11
 70
     0
 43
0.0
 10
-53.17548762908252
 20
61.87880048465832
 10
-53.47267577468253
 20
61.8869627006583
 10
-53.76340186428253
 20
61.89131772785831
 10
-54.04768028028254
 20
61.89198488465831
 10
-54.32484616668253
 20
61.8890890430583
 10
-54.59431451868252
 20
61.88278375665831
 10
-54.85601558748253
 20
61.8732362910583
 10
-55.10986099868254
 20
61.86061919985831
 10
-55.35564262268252
 20
61.84511569425831
 10
-55.59337131068253
 20
61.82690195505831
 10
-55.82379715228253
 20
61.8060813614583
  0
LWPOLYLINE
  5
D8
330
2
100
AcDbEntity
  8
0
100
AcDbPolyline
 90
       73
 70
     0
 43
0.0
 10
-48.67471670428253
 20
61.3596778206583
 10
-48.88047805948253
 20
61.39912014225831
 10
-49.08709579548252
 20
61.43772496465832
 10
-49.29387396508253
 20
61.4750641966583
 10
-49.50013497788252
 20
61.51076533425831
 10
-49.60328041948253
 20
61.52801579345831
 10
-49.70742063388254
 20
61.54502343025831
 10
-49.81361738748252
 20
61.5619515294583
 10
-49.92283811868253
 20
61.57892403345832
 10
-49.99780576988253
 20
61.59031943345832
 10
-50.07486302108254
 20
61.60181535345831
 10
-50.15433598748252
 20
61.6134418654583
 10
-50.23651868828252
 20
61.62522258385831
 10
-50.32157674108252
 20
61.63715529905832
 10
-50.40964366108252
 20
61.6492313406583
 10
-50.50083316348253
 20
61.6614384478583
 10
-50.59517974908253
 20
61.6737499742583
 10
-50.69269811548252
 20
61.68613568145829
 10
-50.79340498268253
 20
61.69856488305831
 10
-50.89732515868253
 20
61.7110051182583
 10
-51.00448547388253
 20
61.72342348305829
 10
-51.11492425148253
 20
61.7357872350583
 10
-51.22872580028253
 20
61.74806427985831
 10
-51.34598591708253
 20
61.76022268305832
 10
-51.46681458588253
 20
61.7722297166583
 10
-51.59137851548253
 20
61.78404946065831
 10
-51.71985859708254
 20
61.79564520625831
 10
-51.85242505468252
 20
61.80697641105831
 10
-51.98920542588253
 20
61.81798721265832
 10
-52.13031658428253
 20
61.82861791825832
 10
-52.27591221468253
 20
61.8388071710583
 10
-52.42629327708254
 20
61.84848692785831
 10
-52.58179754588252
 20
61.85758748305829
 10
-52.70201276828252
 20
61.86398794865832
 10
-52.82557264508253
 20
61.86997651025831
 10
-52.95275002268252
 20
61.87550628145832
 10
-53.08381775548252
 20
61.88053036945831
 10
-53.21903542588252
 20
61.8849947006583
 10
-53.35860955548253
 20
61.88881646385832
 10
-53.50273340028252
 20
61.89190566385832
 10
-53.65160021628253
 20
61.89417230385831
 10
-53.80533780668253
 20
61.89552013905831
 10
-53.96381216188252
 20
61.89582790705831
 10
-54.12682382428252
 20
61.8949680974583
 10
-54.29417332988252
 20
61.89281319665832
 10
-54.46553973948252
 20
61.8892436398583
 10
-54.64011618428253
 20
61.88417164305832
 10
-54.81719070268252
 20
61.8775008718583
 10
-54.99691687708253
 20
61.86906898705831
 10
-55.17929813948253
 20
61.8587417966583
 10
-55.36287175388252
 20
61.84656369105832
 10
-55.54580844828253
 20
61.8326237118583
 10
-55.72627894748253
 20
61.81701089425832
 10
-55.90292720508253
 20
61.79979721905832
 10
-56.07629009788253
 20
61.78098643985831
 10
-56.24702313148254
 20
61.76060270225829
 10
-56.41436342268253
 20
61.73881995505832
 10
-56.57752858908253
 20
61.71579613585831
 10
-56.73707662428252
 20
61.69147535345832
 10
-56.89390061468253
 20
61.66574825745832
 10
-57.04889364988253
 20
61.63850549745831
 10
-57.25389924988252
 20
61.59966962865832
 10
-57.45727106108252
 20
61.5578926990583
 10
-57.65904261468254
 20
61.51312256305832
 10
-57.85926753308253
 20
61.4653106126583
 10
-58.05807980828253
 20
61.41442237905832
 10
-58.25563351868253
 20
61.3604269310583
 10
-58.45205280508253
 20
61.30330099025832
 10
-58.64734203708253
 20
61.24305188145831
 10
-58.84147563868253
 20
61.17969458225832
 10
-59.03443439068253
 20
61.11324246225831
 10
-59.22622448508253
 20
61.04370245265832
 10
-59.41685846908253
 20
60.97107987185831
  0
LWPOLYLINE
  5
D9
330
2
100
AcDbEntity
  8
0
100
AcDbPolyline
 90
       49
 70
     0
 43
0.0
 10
-65.95666454908253
 20
58.50955429265832
 10
-65.93740550428254
 20
58.59602870385831
 10
-65.91672634268253
 20
58.68332532145831
 10
-65.89458205788253
 20
58.77143024305832
 10
-65.87093198908252
 20
58.86031615185832
 10
-65.84575287228253
 20
58.94990206705831
 10
-65.81902579228253
 20
59.04009359025832
 10
-65.79072909788251
 20
59.13080769745832
 10
-65.76083022268253
 20
59.2220068574583
 10
-65.72929386108254
 20
59.3136649102583
 10
-65.69609026268253
 20
59.40574301265832
 10
-65.66121187228254
 20
59.49815156305831
 10
-65.62465667868252
 20
59.59078827185831
 10
-65.58641659708253
 20
59.6835677422583
 10
-65.54645922908253
 20
59.77647213905831
 10
-65.50474609628253
 20
59.86950052145832
 10
-65.46123951868253
 20
59.96264784945831
 10
-65.41590499388252
 20
60.05589269905832
 10
-65.36870881468252
 20
60.14920955345832
 10
-65.31961329148254
 20
60.2425780334583
 10
-65.26856479228253
 20
60.33599833745831
 10
-65.21550570268252
 20
60.42947579825832
 10
-65.16038094908253
 20
60.52300853105831
 10
-65.10314560508253
 20
60.6165657454583
 10
-65.04375728828254
 20
60.71010942865831
 10
-64.98217364828253
 20
60.8036003246583
 10
-64.91835248508252
 20
60.89699420785831
 10
-64.85225163228253
 20
60.9902456174583
 10
-64.78383578428253
 20
61.08329976465831
 10
-64.71309707708252
 20
61.1760645822583
 10
-64.64003450748254
 20
61.26843867985832
 10
-64.56465901788252
 20
61.3603115310583
 10
-64.48702934908252
 20
61.45153604305829
 10
-64.40721618908253
 20
61.54195598385832
 10
-64.32528299068252
 20
61.63142773425832
 10
-64.24126428988254
 20
61.71985812145831
 10
-64.15518739228253
 20
61.8071665870583
 10
-64.06709170588253
 20
61.89326502385831
 10
-63.97706505788253
 20
61.97803513585831
 10
-63.88520737948253
 20
62.06135107985829
 10
-63.79160976828252
 20
62.14309888785831
 10
-63.69632799228252
 20
62.22321210705832
 10
-63.59940898268252
 20
62.3016361598583
 10
-63.50091401308253
 20
62.37830925265831
 10
-63.40096169788253
 20
62.45314072465831
 10
-63.29968499228253
 20
62.5260326990583
 10
-63.19719677468253
 20
62.59690445105832
 10
-63.09352963068253
 20
62.6657438766583
 10
-62.98869607228253
 20
62.7325560238583
  0
LWPOLYLINE
  5
DA
330
2
100
AcDbEntity
  8
0
100
AcDbPolyline
 90
       59
 70
     0
 43
0.0
 10
-60.03876593148253
 20
61.9266274766583
 10
-60.22957981308253
 20
61.87635335185831
 10
-60.41784506108253
 20
61.8236073854583
 10
-60.60356427708253
 20
61.76847334865832
 10
-60.78671553308253
 20
61.71104439505831
 10
-60.96717881148252
 20
61.65145118065831
 10
-61.14480957148253
 20
61.58983374065832
 10
-61.31947438268253
 20
61.5263318446583
 10
-61.49108428028252
 20
61.4610841774583
 10
-61.65956141468253
 20
61.3942291598583
 10
-61.82482732988253
 20
61.32590697265832
 10
-61.98680113308252
 20
61.25626486385832
 10
-62.14540132668253
 20
61.1854518446583
 10
-62.30049896508253
 20
61.1136456062583
 10
-62.45177531388253
 20
61.04113856785829
 10
-62.59886419068252
 20
60.96825183345831
 10
-62.70621678588253
 20
60.91353367185831
 10
-62.81087895228253
 20
60.8589354334583
 10
-62.91272169308253
 20
60.80461000305831
 10
-63.01161600828253
 20
60.75071026385831
 10
-63.10746892508253
 20
60.69736928945832
 10
-63.20033156348253
 20
60.64464091825832
 10
-63.29029106268253
 20
60.59255917585829
 10
-63.37743456828253
 20
60.54115808785832
 10
-63.48939750268253
 20
60.47373173585831
 10
-63.59672418428253
 20
60.4076015342583
 10
-63.69962965788253
 20
60.3427930862583
 10
-63.79832164508253
 20
60.27933068785831
 10
-63.89297860028253
 20
60.21723339025832
 10
-63.98377165788253
 20
60.15651893745832
 10
-64.07086756988253
 20
60.09720329585832
 10
-64.15441555548253
 20
60.0392953390583
 10
-64.23456044508253
 20
59.98280216145833
 10
-64.31145338428253
 20
59.9277219182583
 10
-64.38527075708254
 20
59.8740169822583
 10
-64.45619526428252
 20
59.8216407870583
 10
-64.52441230588252
 20
59.77054006705831
 10
-64.59011811388254
 20
59.72063478065831
 10
-64.65351162428253
 20
59.67183819345831
 10
-64.71479411068253
 20
59.62405738065831
 10
-64.77417616508254
 20
59.5771746670583
 10
-64.83187071868252
 20
59.53106619185831
 10
-64.91571830428253
 20
59.4630664782583
 10
-64.99699098748251
 20
59.39600557905831
 10
-65.07639069308253
 20
59.32938153585832
 10
-65.15445549948253
 20
59.2627826910583
 10
-65.23167580828253
 20
59.19581715665831
 10
-65.30851517308253
 20
59.12808183505831
 10
-65.38542329628254
 20
59.05916791985831
 10
-65.46282135228253
 20
58.98865497745831
 10
-65.51489016188253
 20
58.94055268785831
 10
-65.56744416828252
 20
58.8914485966583
 10
-65.62056680508253
 20
58.84123973105833
 10
-65.67435005148252
 20
58.78981152625832
 10
-65.72892008508254
 20
58.73700304945831
 10
-65.78441163228252
 20
58.68264177265832
 10
-65.84091875068253
 20
58.6265936286583
 10
-65.89837281948253
 20
58.5688783918583
 10
-65.95666454908253
 20
58.50955429265832
  0
LWPOLYLINE
  5
DB
330
2
100
AcDbEntity
  8
0
100
AcDbPolyline
 90
       35
 70
     0
 43
0.0
 10
-59.41685847388253
 20
60.97107986385831
 10
-59.60647880988253
 20
60.89532142865832
 10
-59.79495320188252
 20
60.81648935025831
 10
-59.98213184348252
 20
60.7346647358583
 10
-60.16796697148253
 20
60.6498801918583
 10
-60.35281900188253
 20
60.56197433585831
 10
-60.53715039548253
 20
60.4707372846583
 10
-60.67532808988253
 20
60.39999207345832
 10
-60.81362385948253
 20
60.32713604465832
 10
-60.95218850108253
 20
60.2520502414583
 10
-61.09117281308253
 20
60.1746157022583
 10
-61.23067839388252
 20
60.09473814065831
 10
-61.37061002748253
 20
60.0124219646583
 10
-61.46414004188253
 20
59.95615641425832
 10
-61.55821370428252
 20
59.89854252145832
 10
-61.65324949148253
 20
59.83930284465831
 10
-61.74951479708253
 20
59.7782557966583
 10
-61.84667269628253
 20
59.71560317905832
 10
-61.94423517628253
 20
59.65164264145832
 10
-62.01731973948253
 20
59.60303908145831
 10
-62.08979609148252
 20
59.55426945745831
 10
-62.16126083388253
 20
59.50562865425832
 10
-62.23194212348253
 20
59.45698223345832
 10
-62.32543092988253
 20
59.39183130865831
 10
-62.41791959068253
 20
59.32649299665832
 10
-62.50911445788253
 20
59.2612197022583
 10
-62.59872188508253
 20
59.19626383665832
 10
-62.68644822428253
 20
59.1318778046583
 10
-62.77199982908253
 20
59.0683140158583
 10
-62.85517706428253
 20
59.0057445550583
 10
-62.93615635868253
 20
58.9440202078583
 10
-63.01520815228253
 20
58.8829114366583
 10
-63.09252598588253
 20
58.82225307665831
 10
-63.16799580668252
 20
58.76213743505832
 10
-63.24142665948253
 20
58.7027211902583
  0
LWPOLYLINE
  5
DC
330
2
100
AcDbEntity
  8
0
100
AcDbPolyline
 90
       33
 70
     0
 43
0.0
 10
-62.98869607228253
 20
62.7325560238583
 10
-62.88499036028253
 20
62.79653134225831
 10
-62.77904609148253
 20
62.86033332785831
 10
-62.67078646748252
 20
62.92393213585831
 10
-62.56013469308253
 20
62.98729791665832
 10
-62.44705215068253
 20
63.05038117905832
 10
-62.33165296508253
 20
63.11305385585831
 10
-62.21408944028253
 20
63.17516823345832
 10
-62.09451388028252
 20
63.23657660145832
 10
-61.93219312508253
 20
63.31712395025832
 10
-61.76680669308253
 20
63.39594183025832
 10
-61.59859509628253
 20
63.47281850225832
 10
-61.42781115868253
 20
63.54754664945829
 10
-61.25475697948253
 20
63.61993665105831
 10
-61.07974696508253
 20
63.6898033118583
 10
-60.90307766908253
 20
63.75697752945831
 10
-60.72497419388253
 20
63.82135457425832
 10
-60.54564377948253
 20
63.8828458030583
 10
-60.36529678108252
 20
63.94136814225831
 10
-60.18415598268252
 20
63.99686075825832
 10
-60.00244728348253
 20
64.0492683790583
 10
-59.82037002748253
 20
64.09854698705832
 10
-59.63801735068253
 20
64.14469758225831
 10
-59.45545583228253
 20
64.18773241585831
 10
-59.27275124188253
 20
64.2276641326583
 10
-59.08996608828253
 20
64.26450694065832
 10
-58.90716206268253
 20
64.29827544465831
 10
-58.72440443228253
 20
64.32898482065832
 10
-58.54177275068252
 20
64.3566525390583
 10
-58.35935014908253
 20
64.3812966462583
 10
-58.17721188188253
 20
64.40293685745832
 10
-57.99540172988253
 20
64.42159954705832
 10
-57.81395559548252
 20
64.43731276465832
  0
LWPOLYLINE
  5
DD
330
2
100
AcDbEntity
  8
0
100
AcDbPolyline
 90
       18
 70
     0
 43
0.0
 10
-47.39977849628253
 20
61.08146521585831
 10
-47.88268248828252
 20
61.1781458238583
 10
-48.32525720508254
 20
61.26858040625831
 10
-48.72061849148252
 20
61.3485077118583
 10
-49.07489523388253
 20
61.41760322545832
 10
-49.39714826748254
 20
61.47703086865831
 10
-49.70801214748253
 20
61.5305359390583
 10
-50.02043712508252
 20
61.58050866225829
 10
-50.33646599708252
 20
61.62725925745832
 10
-50.65489100188253
 20
61.67055320625832
 10
-50.97461105628252
 20
61.71021113905831
 10
-51.29503860188252
 20
61.74614280465831
 10
-51.61548085468253
 20
61.7782581902583
 10
-51.93463785468253
 20
61.80643265425832
 10
-52.25110073468252
 20
61.83057525425832
 10
-52.56387676028253
 20
61.85066418865829
 10
-52.87223745948253
 20
61.8667230670583
 10
-53.17548762908252
 20
61.87880048465832
  0
LINE
  5
DE
330
2
100
AcDbEntity
  8
0
100
AcDbLine
 10
-48.08665683228253
 20
61.24186960625831
 30
0.0
 11
-48.21609091388252
 21
61.2683695262583
 31
0.0
  0
LWPOLYLINE
  5
DF
330
2
100
AcDbEntity
  8
0
100
AcDbPolyline
 90
        8
 70
     0
 43
0.0
 10
-48.21609091388252
 20
61.26836952625831
 10
-48.28117211868253
 20
61.2815912190583
 10
-48.34644706108253
 20
61.29477511825832
 10
-48.41187775388253
 20
61.30790671985832
 10
-48.47743118428252
 20
61.32097242225831
 10
-48.54309424508253
 20
61.33396223505832
 10
-48.60885879708253
 20
61.3468670654583
 10
-48.67471670428253
 20
61.3596778206583
  0
LWPOLYLINE
  5
E0
330
2
100
AcDbEntity
  8
0
100
AcDbPolyline
 90
       31
 70
     0
 43
0.0
 10
-44.18333369948252
 20
60.56985633905831
 10
-44.26410252988254
 20
60.5767329518583
 10
-44.34495164668253
 20
60.58391788305832
 10
-44.42585959388253
 20
60.5914136382583
 10
-44.50679685628253
 20
60.59922178385829
 10
-44.58770166908253
 20
60.60734015185833
 10
-44.66850420988253
 20
60.61576563665832
 10
-44.74914609308252
 20
60.62449635985831
 10
-44.82961470428253
 20
60.63353535985831
 10
-44.90990886588252
 20
60.64288689745831
 10
-44.99001613788253
 20
60.65255382545831
 10
-45.06987900508252
 20
60.66253334065831
 10
-45.14942868988252
 20
60.6728212302583
 10
-45.22860365308253
 20
60.68341432785832
 10
-45.30737132508252
 20
60.69431366225831
 10
-45.38570637468253
 20
60.70552130865832
 10
-45.46358364028253
 20
60.71703796305832
 10
-45.54097863228252
 20
60.7288587982583
 10
-45.61786702428253
 20
60.74097760465829
 10
-45.69421975388253
 20
60.7533860158583
 10
-45.76998877788253
 20
60.76606702225831
 10
-45.84512131068253
 20
60.77900145905832
 10
-45.91957401948252
 20
60.79217168145831
 10
-45.99334136988253
 20
60.8055661246583
 10
-46.06642727548252
 20
60.8191747518583
 10
-46.13882601628254
 20
60.83298534865829
 10
-46.21049330748252
 20
60.8469770110583
 10
-46.28137523228253
 20
60.8611266686583
 10
-46.35142318748252
 20
60.87541191345832
 10
-46.42060984828252
 20
60.88981300145832
 10
-46.48891320508252
 20
60.90431086225831
  0
LINE
  5
E1
330
2
100
AcDbEntity
  8
0
100
AcDbLine
 10
-46.48891320508252
 20
60.9043108622583
 30
0.0
 11
-46.59704767068252
 21
60.92745047665832
 31
0.0
  0
LINE
  5
E2
330
2
100
AcDbEntity
  8
0
100
AcDbLine
 10
-46.59704767068252
 20
60.92745047665832
 30
0.0
 11
-47.08394647708253
 21
61.03117169905831
 31
0.0
  0
LINE
  5
E3
330
2
100
AcDbEntity
  8
0
100
AcDbLine
 10
-47.08394647708253
 20
61.03117169905831
 30
0.0
 11
-47.39882225948252
 21
61.09796107505832
 31
0.0
  0
LINE
  5
E4
330
2
100
AcDbEntity
  8
0
100
AcDbLine
 10
-47.39882225948252
 20
61.09796107505832
 30
0.0
 11
-47.64321651388253
 21
61.14952623985831
 31
0.0
  0
LINE
  5
E5
330
2
100
AcDbEntity
  8
0
100
AcDbLine
 10
-46.44036378748253
 20
60.8885220270583
 30
0.0
 11
-46.36298714108252
 21
60.87221087985829
 31
0.0
  0
LINE
  5
E6
330
2
100
AcDbEntity
  8
0
100
AcDbLine
 10
-46.51964218268253
 20
60.9050391230583
 30
0.0
 11
-46.44036378748253
 21
60.8885220270583
 31
0.0
  0
LINE
  5
E7
330
2
100
AcDbEntity
  8
0
100
AcDbLine
 10
-46.60069747068253
 20
60.92175795825829
 30
0.0
 11
-46.51964218268253
 21
60.9050391230583
 31
0.0
  0
LINE
  5
E8
330
2
100
AcDbEntity
  8
0
100
AcDbLine
 10
-46.68342829628253
 20
60.9386768382583
 30
0.0
 11
-46.60069747068253
 21
60.92175795825829
 31
0.0
  0
LINE
  5
E9
330
2
100
AcDbEntity
  8
0
100
AcDbLine
 10
-46.76775493948253
 20
60.9557960382583
 30
0.0
 11
-46.68342829628253
 21
60.9386768382583
 31
0.0
  0
LINE
  5
EA
330
2
100
AcDbEntity
  8
0
100
AcDbLine
 10
-46.85361799388252
 20
60.97311742065829
 30
0.0
 11
-46.76775493948253
 21
60.9557960382583
 31
0.0
  0
LINE
  5
EB
330
2
100
AcDbEntity
  8
0
100
AcDbLine
 10
-46.98520869468253
 20
60.99948534065831
 30
0.0
 11
-46.85361799388252
 21
60.97311742065829
 31
0.0
  0
LINE
  5
EC
330
2
100
AcDbEntity
  8
0
100
AcDbLine
 10
-47.12009814908252
 20
61.02632725585831
 30
0.0
 11
-46.98520869468253
 21
60.99948534065831
 31
0.0
  0
LINE
  5
ED
330
2
100
AcDbEntity
  8
0
100
AcDbLine
 10
-47.25828132988254
 20
61.0536538814583
 30
0.0
 11
-47.12009814908252
 21
61.02632725585831
 31
0.0
  0
LINE
  5
EE
330
2
100
AcDbEntity
  8
0
100
AcDbLine
 10
-47.39977978268252
 20
61.0814654974583
 30
0.0
 11
-47.25828132988254
 21
61.0536538814583
 31
0.0
  0
LWPOLYLINE
  5
EF
330
2
100
AcDbEntity
  8
0
100
AcDbPolyline
 90
       17
 70
     0
 43
0.0
 10
-45.52147964828253
 20
60.63822082865832
 10
-45.64517002268253
 20
60.64766847985831
 10
-45.76930331708253
 20
60.6471356110583
 10
-45.89308595068253
 20
60.63662562705832
 10
-46.01572659868253
 20
60.6162057134583
 10
-46.13644123388254
 20
60.58600641265832
 10
-46.25445814268252
 20
60.5462207870583
 10
-46.36902285468252
 20
60.49710317905831
 10
-46.47940297468252
 20
60.4389675918583
 10
-46.58489285468253
 20
60.37218568145831
 10
-46.68481811068253
 20
60.29718437265831
 10
-46.77853993308253
 20
60.21444314385831
 10
-46.86545916988253
 20
60.12449094705832
 10
-46.94502015548252
 20
60.02790283665831
 10
-47.01671426588252
 20
59.92529629105831
 10
-47.08008317148252
 20
59.81732726225832
 10
-47.13472175388253
 20
59.7046860046583
  0
LWPOLYLINE
  5
F0
330
2
100
AcDbEntity
  8
0
100
AcDbPolyline
 90
       36
 70
     0
 43
0.0
 10
-46.36298714108252
 20
60.8722108798583
 10
-46.28780760348253
 20
60.85614430545831
 10
-46.25117957788252
 20
60.8482246942583
 10
-46.21522227228253
 20
60.84038332945832
 10
-46.17996052828253
 20
60.8326226398583
 10
-46.14541424188253
 20
60.8249439662583
 10
-46.11159910748253
 20
60.8173477294583
 10
-46.07853385948253
 20
60.80983503665831
 10
-46.04623824668253
 20
60.8024072622583
 10
-46.01473083868252
 20
60.7950655630583
 10
-45.98403012988252
 20
60.7878111342583
 10
-45.95415397308252
 20
60.78064510065832
 10
-45.92511998588252
 20
60.77356861585832
 10
-45.89694553628253
 20
60.7665828798583
 10
-45.86964682428252
 20
60.75968891345832
 10
-45.84323902588252
 20
60.7528876046583
 10
-45.81773749468253
 20
60.7461800206583
 10
-45.79315731068253
 20
60.7395673086583
 10
-45.76951258908252
 20
60.73305052145832
 10
-45.74681673788252
 20
60.72663069265832
 10
-45.72508261788253
 20
60.72030888945832
 10
-45.70432246268253
 20
60.71408619185831
 10
-45.68454785788254
 20
60.7079637022583
 10
-45.66576976188253
 20
60.70194254865831
 10
-45.64799850588252
 20
60.6960238958583
 10
-45.63124378588253
 20
60.69020894385833
 10
-45.61551466748253
 20
60.6844989422583
 10
-45.60081961468253
 20
60.67889519825832
 10
-45.58716634908252
 20
60.67339902705831
 10
-45.57456288988253
 20
60.66801220785831
 10
-45.56302962428254
 20
60.66274283985831
 10
-45.55258607068252
 20
60.6576011710583
 10
-45.54322207548253
 20
60.65258467825831
 10
-45.53492121628252
 20
60.64768606065832
 10
-45.52767416028252
 20
60.64289930065831
 10
-45.52147964828253
 20
60.63822082865832
  0
LWPOLYLINE
  5
F1
330
2
100
AcDbEntity
  8
0
100
AcDbPolyline
 90
       57
 70
     0
 43
0.0
 10
-47.11678305308253
 20
59.70012936305832
 10
-47.10102170908252
 20
59.7350985694583
 10
-47.08442163548252
 20
59.7696581886583
 10
-47.06708929148253
 20
59.8036057486583
 10
-47.04909569468253
 20
59.83684472465831
 10
-47.03045982748252
 20
59.86938598705831
 10
-47.01120870108252
 20
59.90122419185832
 10
-46.99136556508253
 20
59.9323598942583
 10
-46.97095291228253
 20
59.96279388625831
 10
-46.94999169948252
 20
59.99252830065831
 10
-46.92850158428252
 20
60.0215660462583
 10
-46.90650083068253
 20
60.04991081745831
 10
-46.88400625628253
 20
60.0775669998583
 10
-46.86103333948253
 20
60.10453941585831
 10
-46.83759621468253
 20
60.1308332254583
 10
-46.81370668668253
 20
60.1564548750583
 10
-46.78937980828253
 20
60.18140618545832
 10
-46.76463840348254
 20
60.20568094385831
 10
-46.73950003388253
 20
60.22927862065831
 10
-46.71397620828253
 20
60.25220396785832
 10
-46.68807919388252
 20
60.27446020625831
 10
-46.66181955068252
 20
60.29605128945831
 10
-46.63520697308253
 20
60.31698106545832
 10
-46.60824996028253
 20
60.3372534782583
 10
-46.58095588508253
 20
60.3568724318583
 10
-46.55333095228253
 20
60.37584175025831
 10
-46.52538019548252
 20
60.39416508625831
 10
-46.49710745948254
 20
60.4118458606583
 10
-46.46851540188253
 20
60.42888717265831
 10
-46.43960548028252
 20
60.44529172625832
 10
-46.41037802908252
 20
60.46106170865832
 10
-46.38083201948252
 20
60.47619882705831
 10
-46.35096582268253
 20
60.4907038398583
 10
-46.32077512188253
 20
60.50457747825831
 10
-46.29025791708253
 20
60.5178180446583
 10
-46.25940655228252
 20
60.53042492625832
 10
-46.22817645628252
 20
60.54240953425829
 10
-46.19652440348253
 20
60.5537775678583
 10
-46.16443868668253
 20
60.56451954705829
 10
-46.13190931708253
 20
60.57462356945831
 10
-46.09892430748253
 20
60.58407653265831
 10
-46.06547257468252
 20
60.59286311985832
 10
-46.03154287708252
 20
60.6009661214583
 10
-45.99712444348253
 20
60.6083662206583
 10
-45.96220693948253
 20
60.6150419886583
 10
-45.92678079068252
 20
60.6209697998583
 10
-45.89083705628254
 20
60.62612382865831
 10
-45.85436864508253
 20
60.63047588625832
 10
-45.81736719068253
 20
60.63399575665832
 10
-45.77982860188252
 20
60.63665055825831
 10
-45.74172558588253
 20
60.63840602545832
 10
-45.70318456988252
 20
60.63922186385832
 10
-45.66450985948253
 20
60.63907130865832
 10
-45.62585440188253
 20
60.6379499406583
 10
-45.58724464028253
 20
60.63585844465831
 10
-45.54870456188253
 20
60.63279811985831
 10
-45.51025792188252
 20
60.6287708302583
  0
LINE
  5
F2
330
2
100
AcDbEntity
  8
0
100
AcDbLine
 10
-47.83120055868252
 20
61.1889130862583
 30
0.0
 11
-47.95833268508252
 21
61.21536341425831
 31
0.0
  0
LINE
  5
F3
330
2
100
AcDbEntity
  8
0
100
AcDbLine
 10
-47.95833268508252
 20
61.21536341425831
 30
0.0
 11
-48.08665683228253
 21
61.24186960625831
 31
0.0
  0
LINE
  5
F4
330
2
100
AcDbEntity
  8
0
100
AcDbLine
 10
-47.64321651388253
 20
61.14952623985831
 30
0.0
 11
-47.83120055868252
 21
61.1889130862583
 31
0.0
  0
LINE
  5
F5
330
2
100
AcDbEntity
  8
0
100
AcDbLine
 10
-41.98290004508253
 20
60.4422955518583
 30
0.0
 11
-42.07357413948253
 21
60.4453095150583
 31
0.0
  0
LINE
  5
F6
330
2
100
AcDbEntity
  8
0
100
AcDbLine
 10
-41.89833984988253
 20
60.43969225265831
 30
0.0
 11
-41.98290004508253
 21
60.4422955518583
 31
0.0
  0
LWPOLYLINE
  5
F7
330
2
100
AcDbEntity
  8
0
100
AcDbPolyline
 90
       32
 70
     0
 43
0.0
 10
-42.07357413948253
 20
60.44530951505831
 10
-42.17108216028252
 20
60.44879670705831
 10
-42.22250446588252
 20
60.4507347870583
 10
-42.27571012508252
 20
60.45281022065831
 10
-42.33070269468252
 20
60.4550289182583
 10
-42.38749827708253
 20
60.4573976142583
 10
-42.44611611228252
 20
60.45992325425832
 10
-42.50657582588253
 20
60.46261294385832
 10
-42.56889858908253
 20
60.46547440945833
 10
-42.63310595708253
 20
60.4685155390583
 10
-42.69922755868252
 20
60.47174487025831
 10
-42.76732529788254
 20
60.47517353905831
 10
-42.83746914908252
 20
60.47881333585832
 10
-42.90972886268252
 20
60.4826764622583
 10
-42.98417328828253
 20
60.48677677745832
 10
-43.06087104988253
 20
60.49112855185831
 10
-43.11991507388252
 20
60.4945662494583
 10
-43.18029815868253
 20
60.4981609982583
 10
-43.24205326108253
 20
60.5019203774583
 10
-43.30521334108254
 20
60.50585196305831
 10
-43.36981012028252
 20
60.5099635262583
 10
-43.43587038428252
 20
60.51426360785831
 10
-43.50341968668253
 20
60.51876094385829
 10
-43.57248357948252
 20
60.5234642702583
 10
-43.64309024668253
 20
60.5283829358583
 10
-43.71527842108252
 20
60.53352874225831
 10
-43.78908946908253
 20
60.5389141054583
 10
-43.86456475708253
 20
60.54455143825831
 10
-43.94173624508252
 20
60.55045296465832
 10
-44.02059827548252
 20
60.55663012625831
 10
-44.10113578108253
 20
60.56309416785831
 10
-44.18333369948252
 20
60.56985633905831
  0
LWPOLYLINE
  5
F8
330
2
100
AcDbEntity
  8
0
100
AcDbPolyline
 90
       21
 70
     0
 43
0.0
 10
-52.13479929948253
 20
65.2334920766583
 10
-52.02979664028252
 20
65.07594784145831
 10
-51.88325663388252
 20
64.87228663665831
 10
-51.72798902748254
 20
64.67400326385831
 10
-51.56425669148252
 20
64.48148743185831
 10
-51.39234101948253
 20
64.2951184286583
 10
-51.21254043708252
 20
64.11526320305831
 10
-51.02516961628253
 20
63.9422755326583
 10
-50.83055882908253
 20
63.7764953438583
 10
-50.62905298428252
 20
63.61824777585832
 10
-50.42101114108253
 20
63.46784268785831
 10
-50.20680576668254
 20
63.32557391185829
 10
-49.98682118908253
 20
63.19171808625831
 10
-49.76145345148252
 20
63.06653448465832
 10
-49.53110983548253
 20
62.9502645118583
 10
-49.29620666268253
 20
62.84313039665832
 10
-49.05716882908253
 20
62.7453349758583
 10
-48.81443044348253
 20
62.65706176785832
 10
-48.56843559068252
 20
62.57847473585832
 10
-48.31962768348252
 20
62.50971473585832
 10
-48.07134323548253
 20
62.4515188830583
  0
LWPOLYLINE
  5
F9
330
2
100
AcDbEntity
  8
0
100
AcDbPolyline
 90
       22
 70
     0
 43
0.0
 10
-46.45318570428253
 20
63.69538915665831
 10
-46.56989284668253
 20
63.72085948945832
 10
-46.68786396028252
 20
63.7527986494583
 10
-46.80402058588252
 20
63.7905852126583
 10
-46.91801942268253
 20
63.83410368945831
 10
-47.02952385308252
 20
63.8832205614583
 10
-47.13820479068253
 20
63.93778474385832
 10
-47.24374151548253
 20
63.99762802865831
 10
-47.34582266748252
 20
64.06256566705832
 10
-47.44414693468253
 20
64.1323967870583
 10
-47.53842415228253
 20
64.2069051086583
 10
-47.62837654588253
 20
64.2858599198583
 10
-47.71374174588252
 20
64.36901914865831
 10
-47.79427298428252
 20
64.4561307886583
 10
-47.86973735388253
 20
64.54693202225832
 10
-47.93991689468252
 20
64.64115084625831
 10
-48.00461023388253
 20
64.7385092718583
 10
-48.06363107388254
 20
64.8387226398583
 10
-48.11680801628253
 20
64.94150013105832
 10
-48.16398417788253
 20
65.04654440305831
 10
-48.20501754748253
 20
65.15355215985832
 10
-48.23397043708253
 20
65.24247610065831
  0
LWPOLYLINE
  5
FA
330
2
100
AcDbEntity
  8
0
100
AcDbPolyline
 90
        4
 70
     0
 43
0.0
 10
-51.66339624188252
 20
65.28211220625832
 10
-50.77719897308253
 20
65.2944689006583
 10
-49.88966704028253
 20
65.3057314142583
 10
-49.00093273788254
 20
65.31589874385829
  0
LINE
  5
FB
330
2
100
AcDbEntity
  8
0
100
AcDbLine
 10
-52.32833369948252
 20
64.6525869838583
 30
0.0
 11
-51.70988439068253
 21
64.6525869838583
 31
0.0
  0
LWPOLYLINE
  5
FC
330
2
100
AcDbEntity
  8
0
100
AcDbPolyline
 90
       21
 70
     0
 43
0.0
 10
-51.66339624188252
 20
65.28211220625832
 10
-51.71093047068253
 20
65.28127304625832
 10
-51.75583405308252
 20
65.28019259505831
 10
-51.79810516828253
 20
65.27889007185831
 10
-51.83781946748253
 20
65.27738062865831
 10
-51.87493428668253
 20
65.27568233425831
 10
-51.90957351548253
 20
65.27380443345831
 10
-51.94171557788253
 20
65.27176122705831
 10
-51.97142538428252
 20
65.26956050545831
 10
-51.99874221948252
 20
65.26720884785831
 10
-52.02362950428252
 20
65.26471775025831
 10
-52.04614800028252
 20
65.26208727665832
 10
-52.06625593308253
 20
65.25932547025831
 10
-52.08392932508253
 20
65.25643687025831
 10
-52.09914885468252
 20
65.2534214830583
 10
-52.11183376348252
 20
65.25028780625831
 10
-52.12193003868254
 20
65.24703558065832
 10
-52.12934537628253
 20
65.2436696702583
 10
-52.13397391548252
 20
65.2401978782583
 10
-52.13570739068252
 20
65.23662271505831
 10
-52.13480141468252
 20
65.2334920670583
  0
LWPOLYLINE
  5
FD
330
2
100
AcDbEntity
  8
0
100
AcDbPolyline
 90
        3
 70
     0
 43
0.0
 10
-48.25029638748254
 20
65.25594396785831
 10
-48.24394167068253
 20
65.25113968465831
 10
-48.23731852028252
 20
65.24636263025832
  0
LWPOLYLINE
  5
FE
330
2
100
AcDbEntity
  8
0
100
AcDbPolyline
 90
       23
 70
     0
 43
0.0
 10
-48.25029638748254
 20
65.25594396785831
 10
-48.25861835548252
 20
65.26085202545832
 10
-48.27104419068253
 20
65.2657986398583
 10
-48.28750305468253
 20
65.27071299505831
 10
-48.30783451068253
 20
65.27553479505832
 10
-48.33189793468253
 20
65.2802268302583
 10
-48.35936423708253
 20
65.28472835825832
 10
-48.38979789148253
 20
65.28898357585831
 10
-48.42291031708253
 20
65.29297125105831
 10
-48.45836600828253
 20
65.29666861265832
 10
-48.49573704668253
 20
65.3000505342583
 10
-48.53468336028253
 20
65.30310716465831
 10
-48.57503204348252
 20
65.30584295185832
 10
-48.61638573788252
 20
65.3082478670583
 10
-48.65834184188253
 20
65.31031798545831
 10
-48.70077149468253
 20
65.31206549745832
 10
-48.74359435068253
 20
65.3135014590583
 10
-48.78657354588253
 20
65.3146302334583
 10
-48.82950050268253
 20
65.31545845745831
 10
-48.87239896668252
 20
65.31599611185831
 10
-48.91526985148253
 20
65.3162484190583
 10
-48.95812198108252
 20
65.31621674065831
 10
-49.00093273788254
 20
65.31589874385829
  0
LWPOLYLINE
  5
FF
330
2
100
AcDbEntity
  8
0
100
AcDbPolyline
 90
        3
 70
     0
 43
0.0
 10
-48.23397116508252
 20
65.24247609905831
 10
-48.23429787548253
 20
65.24326523345831
 10
-48.23731852028252
 20
65.24636263025832
  0
LWPOLYLINE
  5
100
330
2
100
AcDbEntity
  8
0
100
AcDbPolyline
 90
        4
 70
     0
 43
0.0
 10
-48.07134323708253
 20
62.4515188782583
 10
-47.91838257308252
 20
62.42063452785831
 10
-47.76167123868252
 20
62.3927374126583
 10
-47.60736083548252
 20
62.3689304350583
  0
LWPOLYLINE
  5
101
330
2
100
AcDbEntity
  8
0
100
AcDbPolyline
 90
       31
 70
     0
 43
0.0
 10
-17.15720521948253
 20
56.4368887278583
 10
-17.22199846588253
 20
56.5449763294583
 10
-17.28801632028252
 20
56.6516354622583
 10
-17.35525982748252
 20
56.75686868945831
 10
-17.42371940028253
 20
56.86065940625832
 10
-17.49338120348252
 20
56.96298415825831
 10
-17.56422502428253
 20
57.0638113022583
 10
-17.63623446748252
 20
57.1631144334583
 10
-17.70941480828253
 20
57.26089630385832
 10
-17.78379937628253
 20
57.35719231345831
 10
-17.85951205788252
 20
57.4521392830583
 10
-17.93669247868253
 20
57.54587980945832
 10
-18.01545266428253
 20
57.63847814865832
 10
-18.09582876828253
 20
57.7299223198583
 10
-18.17758105308253
 20
57.8199737374583
 10
-18.26047214268253
 20
57.90842498225831
 10
-18.34455001148252
 20
57.9954199182583
 10
-18.40135061308252
 20
58.05274690865832
 10
-18.45894976028253
 20
58.10974837105831
 10
-18.51756551228253
 20
58.16664305905831
 10
-18.57740981308252
 20
58.22363805745832
 10
-18.63867011548252
 20
58.28089379345832
 10
-18.70152775708253
 20
58.33855903185832
 10
-18.74983728988253
 20
58.3821715662583
 10
-18.79927759708253
 20
58.42619316625832
 10
-18.84997895228252
 20
58.47071887505831
 10
-18.90207162908252
 20
58.51584373265831
 10
-18.95565901788252
 20
58.56163912145831
 10
-19.01073700828253
 20
58.60808178065832
 10
-19.06727460988253
 20
58.6551247886583
 10
-19.12524082908253
 20
58.70272122705831
  0
LWPOLYLINE
  5
102
330
2
100
AcDbEntity
  8
0
100
AcDbPolyline
 90
       35
 70
     0
 43
0.0
 10
-35.24988441308252
 20
59.7001297710583
 10
-35.17013421468253
 20
59.51491981265832
 10
-35.08035280348252
 20
59.2990591134583
 10
-34.99106421148252
 20
59.07614563185831
 10
-34.90263537308253
 20
58.84669144785831
 10
-34.81528792188253
 20
58.61091947025832
 10
-34.72921512668253
 20
58.36901007345829
 10
-34.64455301948253
 20
58.1210058462583
 10
-34.56145780828252
 20
57.8670194686583
 10
-34.48006925148253
 20
57.60712847505832
 10
-34.40052889468252
 20
57.34142728625832
 10
-34.32300392508253
 20
57.07011504145831
 10
-34.24763324988252
 20
56.79331726225831
 10
-34.17458180828252
 20
56.51127924305831
 10
-34.10398589148252
 20
56.22416783505832
 10
-34.03600014268252
 20
55.93225363025831
 10
-33.97073984188253
 20
55.6356697678583
 10
-33.90818150428252
 20
55.33390487345832
 10
-33.84837264188253
 20
55.02673942545832
 10
-33.79146050428252
 20
54.71444406065831
 10
-33.73759546908253
 20
54.39516643025831
 10
-33.68690020348252
 20
54.07353650705832
 10
-33.63951913148253
 20
53.74779494865831
 10
-33.59557186268253
 20
53.41830075185831
 10
-33.55517878268253
 20
53.08551164785831
 10
-33.51843102588253
 20
52.74974627025833
 10
-33.48542734908253
 20
52.41149109265831
 10
-33.45625220348253
 20
52.07124480945831
 10
-33.43096937948253
 20
51.72943140145832
 10
-33.40959693468252
 20
51.38592744145831
 10
-33.39214784028253
 20
51.04049056305831
 10
-33.37867377148252
 20
50.69359246865833
 10
-33.36921085948253
 20
50.34562787345831
 10
-33.36380548988252
 20
49.99856889265831
 10
-33.36243115388252
 20
49.6503910814583
  0
LWPOLYLINE
  5
103
330
2
100
AcDbEntity
  8
0
100
AcDbPolyline
 90
       35
 70
     0
 43
0.0
 10
-33.34941567068253
 20
49.6503910814583
 10
-33.35139837788253
 20
49.99983667665834
 10
-33.35738262428253
 20
50.34879394225831
 10
-33.36734893628252
 20
50.69691618545832
 10
-33.38127009948253
 20
51.04385936145831
 10
-33.39910568828253
 20
51.3891866126583
 10
-33.42079496508253
 20
51.73234569425833
 10
-33.44632045468253
 20
52.07359110385832
 10
-33.47565300028253
 20
52.41298615025832
 10
-33.50873748508253
 20
52.75027251345832
 10
-33.54548362908252
 20
53.08492841905831
 10
-33.58578962268252
 20
53.4164773758583
 10
-33.62955497628253
 20
53.74456433265831
 10
-33.67665799388253
 20
54.0687619646583
 10
-33.72700065628253
 20
54.38887494545832
 10
-33.78045152028252
 20
54.70673351185832
 10
-33.83686919388253
 20
55.01759261425831
 10
-33.89611432508253
 20
55.32336669425831
 10
-33.95806921148252
 20
55.62392058065831
 10
-34.02265087708252
 20
55.9192916382583
 10
-34.08984166108253
 20
56.20982370225831
 10
-34.15957902108253
 20
56.49562585265832
 10
-34.23170904988252
 20
56.7764249950583
 10
-34.30606435388253
 20
57.05193795345832
 10
-34.38254294268253
 20
57.32214827985831
 10
-34.46096815548253
 20
57.58678750385832
 10
-34.54119010748253
 20
57.8457104734583
 10
-34.62314062108252
 20
58.09903833105832
 10
-34.70663405948252
 20
58.34652793425831
 10
-34.79150562748253
 20
58.58802984625831
 10
-34.87758342108253
 20
58.82339757585831
 10
-34.96468803548252
 20
59.05248792785832
 10
-35.05278735548253
 20
59.2755469438583
 10
-35.14187745788253
 20
59.49286262705832
 10
-35.23194562748253
 20
59.70468596305832
  0
LWPOLYLINE
  5
104
330
2
100
AcDbEntity
  8
0
100
AcDbPolyline
 90
       73
 70
     0
 43
0.0
 10
-22.94980892988253
 20
60.97107987185831
 10
-23.14058772348252
 20
61.04375636625832
 10
-23.33251988508253
 20
61.1133440126583
 10
-23.52561885628253
 20
61.17983780785832
 10
-23.71989107548253
 20
61.2432310558583
 10
-23.91531497628253
 20
61.3035103102583
 10
-24.11186199548252
 20
61.36066043825832
 10
-24.30953473308253
 20
61.41467400945831
 10
-24.50846047708252
 20
61.4655744158583
 10
-24.70879768188253
 20
61.5133927534583
 10
-24.91067604828252
 20
61.55816297265833
 10
-25.11411025948253
 20
61.5999304382583
 10
-25.31908623708253
 20
61.6387433742583
 10
-25.47398628348253
 20
61.66595985905832
 10
-25.63072819388253
 20
61.6916620126583
 10
-25.79029450268253
 20
61.71597029745831
 10
-25.95366774748252
 20
61.73900517905832
 10
-26.12146092028253
 20
61.76082792305831
 10
-26.29280883708253
 20
61.78126297425831
 10
-26.46684068508253
 20
61.80011628785831
 10
-26.64414129468252
 20
61.8173566398583
 10
-26.82519787068253
 20
61.83297764305831
 10
-27.00865146908252
 20
61.84690942705831
 10
-27.19268160828252
 20
61.85906624625832
 10
-27.37546780668253
 20
61.86936235985831
 10
-27.55555267708253
 20
61.87775627345832
 10
-27.73293121308252
 20
61.88438351665832
 10
-27.90774922908252
 20
61.88940748465831
 10
-28.07930343388253
 20
61.89292604145831
 10
-28.24679413148253
 20
61.89502866865831
 10
-28.40988508028253
 20
61.8958368350583
 10
-28.56835590108252
 20
61.89548000785831
 10
-28.72198621788253
 20
61.8940876542583
 10
-28.87063097308253
 20
61.89178260145832
 10
-29.01444639868252
 20
61.88866111345831
 10
-29.15366404988253
 20
61.88481281585831
 10
-29.28851547708252
 20
61.88032733745831
 10
-29.41923925308252
 20
61.8752869998583
 10
-29.54610200668253
 20
61.86974493105831
 10
-29.66937738428253
 20
61.8637469518583
 10
-29.78933903548252
 20
61.8573388894583
 10
-29.94455214748252
 20
61.84822963825832
 10
-30.09468508508253
 20
61.8385426654583
 10
-30.24006226748253
 20
61.82834782385831
 10
-30.38097336828252
 20
61.81771322065831
 10
-30.51756911868253
 20
61.80669999185832
 10
-30.64996550428253
 20
61.7953675246583
 10
-30.77828903068253
 20
61.7837714190583
 10
-30.90270825788252
 20
61.77195210545829
 10
-31.02340226108252
 20
61.75994622705832
 10
-31.14053636828252
 20
61.74778959665832
 10
-31.25422091228253
 20
61.73551471665831
 10
-31.36455247868252
 20
61.72315326385831
 10
-31.47161586588252
 20
61.71073711185832
 10
-31.57544874588252
 20
61.69829894065831
 10
-31.67607699868253
 20
61.6858716270583
 10
-31.77352465628253
 20
61.67348758865831
 10
-31.86780832828253
 20
61.6611774062583
 10
-31.95894276668252
 20
61.64897119985832
 10
-32.04696162268253
 20
61.63689563665832
 10
-32.13197413468252
 20
61.62496357105831
 10
-32.21410844028253
 20
61.61318440305831
 10
-32.29352582588252
 20
61.60156094065832
 10
-32.37052019868253
 20
61.59006960625831
 10
-32.44541861628252
 20
61.5786802238583
 10
-32.55452542268253
 20
61.56171921585832
 10
-32.66059796668253
 20
61.54480533585831
 10
-32.76460584028253
 20
61.52781431665832
 10
-32.86761399868252
 20
61.51058233745832
 10
-33.07359816828252
 20
61.47492175505831
 10
-33.28010810748253
 20
61.43762627665831
 10
-33.48645973628253
 20
61.3990688974583
 10
-33.69195069468253
 20
61.3596778206583
  0
LWPOLYLINE
  5
105
330
2
100
AcDbEntity
  8
0
100
AcDbPolyline
 90
       72
 70
     0
 43
0.0
 10
-22.32790146748253
 20
61.9266274766583
 10
-22.43111260188253
 20
61.95273571665831
 10
-22.53749576668252
 20
61.9791792542583
 10
-22.64683220828253
 20
62.00586746705832
 10
-22.75900821148252
 20
62.03273310545831
 10
-22.87433022748253
 20
62.05980238705831
 10
-22.99320974588252
 20
62.08712489745832
 10
-23.11592405628252
 20
62.11471847185831
 10
-23.24221366588253
 20
62.1424739390583
 10
-23.37168488508253
 20
62.1702503774583
 10
-23.47055341468252
 20
62.19099690385831
 10
-23.57030813948253
 20
62.21152776145832
 10
-23.77141531548252
 20
62.25168599985832
 10
-23.97683225308253
 20
62.2910108046583
 10
-24.18583590108252
 20
62.32928307345829
 10
-24.39658355228253
 20
62.3660889278583
 10
-24.60696997628252
 20
62.40107653745832
 10
-24.81543653148253
 20
62.4340094430583
 10
-25.02287348508252
 20
62.4650506126583
 10
-25.23026243868253
 20
62.49438641105832
 10
-25.43650142108252
 20
62.52189737265831
 10
-25.64047793628252
 20
62.5474594622583
 10
-25.84312095548253
 20
62.5712361870583
 10
-26.04608239868253
 20
62.59345736465832
 10
-26.25186449788253
 20
62.61433049265829
 10
-26.46222478428252
 20
62.6339670110583
 10
-26.67509164828253
 20
62.6521164462583
 10
-26.88781454588253
 20
62.66849388305832
 10
-27.09925631708253
 20
62.68303857265832
 10
-27.30872744668252
 20
62.69575206385832
 10
-27.51581561308252
 20
62.7066609118583
 10
-27.72000969308253
 20
62.7158001374583
 10
-27.92012617148253
 20
62.7232135998583
 10
-28.11510951388253
 20
62.72896004785832
 10
-28.30508851708252
 20
62.73314894865831
 10
-28.42909100508252
 20
62.73513590225832
 10
-28.55070523548252
 20
62.73651712145832
 10
-28.66957826428253
 20
62.7373248270583
 10
-28.78546498748253
 20
62.73759162065832
 10
-28.89855165468253
 20
62.7373516206583
 10
-29.00913235068253
 20
62.73663932945831
 10
-29.17074868828253
 20
62.73475831505831
 10
-29.32718488988253
 20
62.73199373425831
 10
-29.47836305468253
 20
62.72843931345832
 10
-29.62470724188253
 20
62.72415780625832
 10
-29.76676700508253
 20
62.7192042286583
 10
-29.90509189308252
 20
62.7136335934583
 10
-30.08462433148253
 20
62.70532307505831
 10
-30.25955190428253
 20
62.69603440945832
 10
-30.43093254268252
 20
62.68578863505831
 10
-30.59975191868252
 20
62.67459919025831
 10
-30.76670667548252
 20
62.6624490878583
 10
-30.93242120188253
 20
62.6493137406583
 10
-31.09726372828252
 20
62.63519185105832
 10
-31.26057784828252
 20
62.6201752894583
 10
-31.42145100508253
 20
62.6043792174583
 10
-31.57906264988253
 20
62.58791892945831
 10
-31.73296027708252
 20
62.57091024145831
 10
-31.88278339548253
 20
62.55346911025831
 10
-32.02835738268253
 20
62.5356855278583
 10
-32.17025107548252
 20
62.5175456702583
 10
-32.30921918108252
 20
62.49900975505832
 10
-32.51380161628253
 20
62.47035000785832
 10
-32.71583571868252
 20
62.4404178750583
 10
-32.91730369628253
 20
62.40896229905832
 10
-33.11877200188253
 20
62.3758949934583
 10
-33.32038412188252
 20
62.3411810670583
 10
-33.52200745628252
 20
62.30483643985832
 10
-33.72344412348252
 20
62.26689109585831
 10
-33.92451119708252
 20
62.22738049105831
 10
-34.12506742268253
 20
62.18633449585832
 10
-34.32512328668252
 20
62.1437551822583
  0
LWPOLYLINE
  5
106
330
2
100
AcDbEntity
  8
0
100
AcDbPolyline
 90
       31
 70
     0
 43
0.0
 10
-30.03833369948253
 20
64.6525869838583
 10
-29.87321004348252
 20
64.65239171025832
 10
-29.71211738268253
 20
64.65182528145831
 10
-29.55512756508253
 20
64.65091677265832
 10
-29.40231244028252
 20
64.64969526385832
 10
-29.25374385948252
 20
64.6481898366583
 10
-29.10944429468253
 20
64.64642783505832
 10
-28.96923871548253
 20
64.64442967185831
 10
-28.83290271548253
 20
64.64221402865831
 10
-28.70021188668252
 20
64.63979958225832
 10
-28.57094182108252
 20
64.63720501425831
 10
-28.44488132348253
 20
64.63444764625831
 10
-28.32187204828253
 20
64.63153936145833
 10
-28.20176886268253
 20
64.62849068625832
 10
-28.08442662908253
 20
64.62531214865831
 10
-27.96970021628253
 20
64.62201427505831
 10
-27.82974287068252
 20
64.61773801745832
 10
-27.69332217788253
 20
64.61329950065831
 10
-27.56011434108252
 20
64.60870648625832
 10
-27.42979556828252
 20
64.6039667326583
 10
-27.30204564668253
 20
64.59908638385832
 10
-27.17655869628252
 20
64.5940651342583
 10
-27.05303241948253
 20
64.58890106865831
 10
-26.93116451548253
 20
64.58359226385832
 10
-26.77071436828252
 20
64.5762808254583
 10
-26.61185760348253
 20
64.5686766734583
 10
-26.45377680188252
 20
64.56074782225832
 10
-25.97935560828253
 20
64.5348071598583
 10
-25.50327847708253
 20
64.50552732305832
 10
-25.02718970588253
 20
64.4729882702583
 10
-24.55271180348252
 20
64.43731276465832
  0
LWPOLYLINE
  5
107
330
2
100
AcDbEntity
  8
0
100
AcDbPolyline
 90
       15
 70
     0
 43
0.0
 10
-30.43202954428252
 20
61.80643265425832
 10
-30.11556666428252
 20
61.83057525425832
 10
-29.80279063868252
 20
61.85066418865829
 10
-29.49442993948252
 20
61.8667230670583
 10
-29.19117976988252
 20
61.87880048465832
 10
-28.89399162428253
 20
61.8869627006583
 10
-28.60326553468253
 20
61.89131772785831
 10
-28.31898711868253
 20
61.89198488465831
 10
-28.04182123068253
 20
61.8890890430583
 10
-27.77235288028252
 20
61.88278375665831
 10
-27.51065181148253
 20
61.8732362910583
 10
-27.25680640028253
 20
61.86061919985831
 10
-27.01102477628252
 20
61.84511569425831
 10
-26.77329608828253
 20
61.82690195505831
 10
-26.54287024668252
 20
61.8060813614583
  0
LWPOLYLINE
  5
108
330
2
100
AcDbEntity
  8
0
100
AcDbPolyline
 90
       25
 70
     0
 43
0.0
 10
-41.18333369948253
 20
66.0987000478583
 10
-39.42547269308252
 20
66.09677259025829
 10
-37.58777809468253
 20
66.0918618654583
 10
-35.93850792508253
 20
66.08638976305832
 10
-34.46815554588252
 20
66.08196166385832
 10
-33.15464628988253
 20
66.07930621585831
 10
-31.98217351068253
 20
66.07861072945832
 10
-30.93572330748253
 20
66.07977931825832
 10
-30.00223413788252
 20
66.0826212334583
 10
-29.16875499868253
 20
66.08694662705829
 10
-28.42392144668252
 20
66.09260955345831
 10
-27.75754660028252
 20
66.09938988625831
 10
-27.15655847228252
 20
66.10587020625832
 10
-26.61550020348252
 20
66.1103668590583
 10
-26.13342183388252
 20
66.1118061294583
 10
-25.70804155868252
 20
66.1097543982583
 10
-25.33369604668253
 20
66.10441862065832
 10
-24.99297682748253
 20
66.09616271825832
 10
-24.66663655868252
 20
66.08492470705832
 10
-24.35170096508253
 20
66.0708277438583
 10
-24.04698247548252
 20
66.05399551025832
 10
-23.75192697308253
 20
66.03456383985832
 10
-23.46574980668252
 20
66.0126373374583
 10
-23.18781835708253
 20
65.98831128945832
 10
-22.91782587228253
 20
65.96169704625831
  0
LWPOLYLINE
  5
109
330
2
100
AcDbEntity
  8
0
100
AcDbPolyline
 90
       42
 70
     0
 43
0.0
 10
-34.32512328668252
 20
62.1437551822583
 10
-34.47304708188252
 20
62.11202915665831
 10
-34.61785281468253
 20
62.08167234385832
 10
-34.75942928348253
 20
62.05265827825832
 10
-34.89766528988252
 20
62.02496048625832
 10
-35.03251594108253
 20
61.99854139185831
 10
-35.16420156348253
 20
61.97331898545832
 10
-35.29300878908253
 20
61.94920014865832
 10
-35.41922425308253
 20
61.92609176305831
 10
-35.58393516508253
 20
61.8967065390583
 10
-35.74498655868252
 20
61.8688219374583
 10
-35.90281692828253
 20
61.8423077646583
 10
-36.05788026588253
 20
61.81703635025832
 10
-36.21069258108252
 20
61.7928901310583
 10
-36.36178538268252
 20
61.7697540622583
 10
-36.58629305788252
 20
61.7367189326583
 10
-36.80950083708252
 20
61.70546909265832
 10
-37.03279915868253
 20
61.6757872574583
 10
-37.25764778428252
 20
61.6475018382583
 10
-37.48510779548253
 20
61.6205095422583
 10
-37.71457624988252
 20
61.5949345534583
 10
-37.86794920028252
 20
61.57877453745832
 10
-38.02014818588253
 20
61.56345759185831
 10
-38.16955947068253
 20
61.54911639665832
 10
-38.31480952988252
 20
61.53585227665832
 10
-38.45548569628252
 20
61.52364112625829
 10
-38.59141551548252
 20
61.5124274830583
 10
-38.72259775068252
 20
61.50214723025832
 10
-38.84971601628253
 20
61.49270164465829
 10
-38.97362514588252
 20
61.48398335185831
 10
-39.15520294268253
 20
61.47206443025831
 10
-39.33353632028253
 20
61.46135632145831
 10
-39.51077091868252
 20
61.45168784465832
 10
-39.68942387228253
 20
61.44293910065832
 10
-39.87155539708253
 20
61.43503638545832
 10
-40.05702655388252
 20
61.42803948305831
 10
-40.24507172508252
 20
61.42203608145831
 10
-40.43461773308253
 20
61.41709200625832
 10
-40.62444873468253
 20
61.41325788785832
 10
-40.81308575868253
 20
61.41054544305831
 10
-40.99932590748252
 20
61.40894829265832
 10
-41.18333369948253
 20
61.4084266174583
  0
LINE
  5
10A
330
2
100
AcDbEntity
  8
0
100
AcDbLine
 10
-35.55617001788253
 20
60.96443129105829
 30
0.0
 11
-35.46955514748252
 21
60.9818548366583
 31
0.0
  0
LINE
  5
10B
330
2
100
AcDbEntity
  8
0
100
AcDbLine
 10
-35.43560936188252
 20
60.99865947185829
 30
0.0
 11
-35.65979597788252
 21
60.95089918385829
 31
0.0
  0
LWPOLYLINE
  5
10C
330
2
100
AcDbEntity
  8
0
100
AcDbPolyline
 90
       17
 70
     0
 43
0.0
 10
-35.23194564508253
 20
59.7046860046583
 10
-35.28658422748253
 20
59.81732726225832
 10
-35.34995313308253
 20
59.92529629105831
 10
-35.42164724348252
 20
60.02790283665831
 10
-35.50120822908253
 20
60.12449094705832
 10
-35.58812746588253
 20
60.21444314385831
 10
-35.68184928828253
 20
60.29718437265831
 10
-35.78177454428252
 20
60.37218568145831
 10
-35.88726442428253
 20
60.4389675918583
 10
-35.99764454428252
 20
60.49710317905831
 10
-36.11220925628252
 20
60.5462207870583
 10
-36.23022616508253
 20
60.58600641265832
 10
-36.35094079868252
 20
60.6162057134583
 10
-36.47358144828253
 20
60.63662562705832
 10
-36.59736408188253
 20
60.6471356110583
 10
-36.72149737628252
 20
60.64766847985831
 10
-36.84518775068252
 20
60.63822082865832
  0
LWPOLYLINE
  5
10D
330
2
100
AcDbEntity
  8
0
100
AcDbPolyline
 90
       58
 70
     0
 43
0.0
 10
-36.85654287228253
 20
60.62865494545832
 10
-36.81875590268252
 20
60.63262184785831
 10
-36.78087791548253
 20
60.63565475345831
 10
-36.74293206908252
 20
60.63775184305831
 10
-36.70493907548252
 20
60.63891192785831
 10
-36.66693036508253
 20
60.63913423825832
 10
-36.62905983388253
 20
60.6384232190583
 10
-36.59160471068253
 20
60.63680357745832
 10
-36.55468896348253
 20
60.63431308465832
 10
-36.51829280188252
 20
60.63098478865831
 10
-36.48241043548253
 20
60.6268499422583
 10
-36.44703415868252
 20
60.6219374542583
 10
-36.41215742588252
 20
60.61627433585832
 10
-36.37777195708252
 20
60.60988539825832
 10
-36.34386879708253
 20
60.60279339345831
 10
-36.31043826908252
 20
60.5950190222583
 10
-36.27747026748252
 20
60.58658100945831
 10
-36.24495428828252
 20
60.5774961342583
 10
-36.21287972348253
 20
60.56777933105832
 10
-36.18123562108253
 20
60.55744363185832
 10
-36.15001129308252
 20
60.5465003902583
 10
-36.11919833148252
 20
60.53496009745831
 10
-36.08876816348252
 20
60.52282344785831
 10
-36.05867067068253
 20
60.5100782414583
 10
-36.02888646428253
 20
60.4967206878583
 10
-35.99941642588253
 20
60.48275404305832
 10
-35.97025505308252
 20
60.4681774718583
 10
-35.94140060828253
 20
60.45299063665831
 10
-35.91285154588253
 20
60.4371921102583
 10
-35.88460769788253
 20
60.4207800398583
 10
-35.85666989308252
 20
60.40375202065831
 10
-35.82904010268253
 20
60.3861052574583
 10
-35.80172139228253
 20
60.36783660945832
 10
-35.77471793948252
 20
60.34894268305831
 10
-35.74803502108252
 20
60.32941988785831
 10
-35.72167900668253
 20
60.30926451345831
 10
-35.69565734268252
 20
60.28847279665831
 10
-35.66997853468253
 20
60.26704096945832
 10
-35.64465213788253
 20
60.24496533105832
 10
-35.61968863548253
 20
60.2222422094583
 10
-35.59509981948252
 20
60.19886838705829
 10
-35.57089713628252
 20
60.1748395534583
 10
-35.54710001148253
 20
60.15015891345831
 10
-35.52372917788253
 20
60.1248315118583
 10
-35.50079648028253
 20
60.09885275825832
 10
-35.47831383228252
 20
60.0722169214583
 10
-35.45629500508252
 20
60.0449191758583
 10
-35.43475495708253
 20
60.01695494865831
 10
-35.41370993788253
 20
59.98832014865832
 10
-35.39317761308252
 20
59.9590114494583
 10
-35.37317658428253
 20
59.92902573585832
 10
-35.35372789148253
 20
59.8983625342583
 10
-35.33485027868252
 20
59.86701660945832
 10
-35.31657424828253
 20
59.83500182225831
 10
-35.29890295228253
 20
59.80228213265831
 10
-35.28190761628252
 20
59.76894899025831
 10
-35.26557460188253
 20
59.7349333966583
 10
-35.24988450908253
 20
59.7001297390583
  0
LWPOLYLINE
  5
10E
330
2
100
AcDbEntity
  8
0
100
AcDbPolyline
 90
       30
 70
     0
 43
0.0
 10
-38.18333369948253
 20
60.56985633905831
 10
-38.26537455388252
 20
60.56310693105832
 10
-38.34576568348252
 20
60.55665418545832
 10
-38.42449224508253
 20
60.55048693425831
 10
-38.50153939868252
 20
60.5445940046583
 10
-38.57690155868253
 20
60.53896403825831
 10
-38.65061019708253
 20
60.5335849166583
 10
-38.72270603868253
 20
60.52844433585829
 10
-38.79322981468253
 20
60.52352998705831
 10
-38.86221964988253
 20
60.51883017425831
 10
-38.92970325948252
 20
60.5143356206583
 10
-38.99570575548253
 20
60.5100376590583
 10
-39.06025224988252
 20
60.50592762065829
 10
-39.12336907228253
 20
60.50199703185831
 10
-39.18508742268253
 20
60.49823818065831
 10
-39.24543972188253
 20
60.4946435454583
 10
-39.30445838908252
 20
60.49120560785832
 10
-39.38112990748253
 20
60.48685305105832
 10
-39.45555581788252
 20
60.48275151025831
 10
-39.52780377468252
 20
60.47888679985831
 10
-39.59794157628252
 20
60.4752451438583
 10
-39.66603756828253
 20
60.47181442705832
 10
-39.73216023068252
 20
60.46858295185831
 10
-39.79637005468252
 20
60.46553965745832
 10
-39.85869555708252
 20
60.46267605745831
 10
-39.91915725948253
 20
60.4599843070583
 10
-39.97777547228253
 20
60.4574567070583
 10
-40.03456965948252
 20
60.4550861598583
 10
-40.08955906908252
 20
60.45286571185832
 10
-40.14275956348252
 20
60.4507886270583
  0
LWPOLYLINE
  5
10F
330
2
100
AcDbEntity
  8
0
100
AcDbPolyline
 90
       21
 70
     0
 43
0.0
 10
-41.18333369948253
 20
60.37293974065829
 10
-41.02300112828253
 20
60.37366721745832
 10
-40.84397855708253
 20
60.37592359185831
 10
-40.64941035228253
 20
60.37973688145831
 10
-40.44144757948252
 20
60.38510068945831
 10
-40.22320457468253
 20
60.3919511534583
 10
-39.99831818428252
 20
60.4001684318583
 10
-39.76457263388252
 20
60.40985219025831
 10
-39.52489357628252
 20
60.42092357905829
 10
-39.29850063228252
 20
60.43240371185831
 10
-39.09490472188252
 20
60.4435626590583
 10
-38.90119261948253
 20
60.45491748145832
 10
-38.70852454588252
 20
60.46693899025831
 10
-38.51628548348253
 20
60.47968093585831
 10
-38.31650765468252
 20
60.49374848305831
 10
-38.09528588828253
 20
60.51036647185831
 10
-37.84819812028253
 20
60.53031950065832
 10
-37.58785657628253
 20
60.55308454385832
 10
-37.33235639868253
 20
60.57736555825832
 10
-37.08922157788252
 20
60.60249176625831
 10
-36.85654287388253
 20
60.62865494545832
  0
LINE
  5
110
330
2
100
AcDbEntity
  8
0
100
AcDbLine
 10
-40.33778998748252
 20
60.4437956622583
 30
0.0
 11
-40.42526634588253
 21
60.44099216625829
 31
0.0
  0
LINE
  5
111
330
2
100
AcDbEntity
  8
0
100
AcDbLine
 10
-40.24379969948252
 20
60.44704124625831
 30
0.0
 11
-40.33778998748252
 21
60.4437956622583
 31
0.0
  0
LINE
  5
112
330
2
100
AcDbEntity
  8
0
100
AcDbLine
 10
-40.14275956348252
 20
60.45078862705829
 30
0.0
 11
-40.24379969948252
 21
60.44704124625831
 31
0.0
  0
LWPOLYLINE
  5
113
330
2
100
AcDbEntity
  8
0
100
AcDbPolyline
 90
        8
 70
     0
 43
0.0
 10
-41.18333369948253
 20
60.42777888785832
 10
-41.29490989468253
 20
60.4281499054583
 10
-41.40707112988252
 20
60.42918893105832
 10
-41.51915861948253
 20
60.43079925105832
 10
-41.63048004508254
 20
60.43289620305831
 10
-41.68599464668253
 20
60.43411052305831
 10
-41.74200240508253
 20
60.43544316945832
 10
-41.79912690428253
 20
60.4369076462583
  0
LWPOLYLINE
  5
114
330
2
100
AcDbEntity
  8
0
100
AcDbPolyline
 90
       10
 70
     0
 43
0.0
 10
-40.42526634588253
 20
60.4409921662583
 10
-40.50730972188254
 20
60.43856275505831
 10
-40.56617324188252
 20
60.4369439694583
 10
-40.62338097948253
 20
60.43547493265831
 10
-40.67949270108252
 20
60.43413750385832
 10
-40.73512821308253
 20
60.43291836145832
 10
-40.84671980188253
 20
60.4308124382583
 10
-40.95907440188253
 20
60.42919516625833
 10
-41.07149814428253
 20
60.42815158065832
 10
-41.18333369948253
 20
60.42777888785832
  0
LINE
  5
115
330
2
100
AcDbEntity
  8
0
100
AcDbLine
 10
-35.64127108668253
 20
60.94721131505829
 30
0.0
 11
-35.55617001788253
 21
60.96443129105829
 31
0.0
  0
LINE
  5
116
330
2
100
AcDbEntity
  8
0
100
AcDbLine
 10
-35.72480848028253
 20
60.93019241745829
 30
0.0
 11
-35.64127108668253
 21
60.94721131505829
 31
0.0
  0
LINE
  5
117
330
2
100
AcDbEntity
  8
0
100
AcDbLine
 10
-35.80671282748252
 20
60.9133734798583
 30
0.0
 11
-35.72480848028253
 21
60.93019241745829
 31
0.0
  0
LINE
  5
118
330
2
100
AcDbEntity
  8
0
100
AcDbLine
 10
-35.88689370908253
 20
60.89675516945831
 30
0.0
 11
-35.80671282748252
 21
60.9133734798583
 31
0.0
  0
LINE
  5
119
330
2
100
AcDbEntity
  8
0
100
AcDbLine
 10
-35.96523843068253
 20
60.8803403294583
 30
0.0
 11
-35.88689370908253
 21
60.89675516945831
 31
0.0
  0
LINE
  5
11A
330
2
100
AcDbEntity
  8
0
100
AcDbLine
 10
-36.04157838748253
 20
60.8641413518583
 30
0.0
 11
-35.96523843068253
 21
60.8803403294583
 31
0.0
  0
LINE
  5
11B
330
2
100
AcDbEntity
  8
0
100
AcDbLine
 10
-35.65979597788252
 20
60.95089918385829
 30
0.0
 11
-35.87775419388252
 21
60.9043108622583
 31
0.0
  0
LINE
  5
11C
330
2
100
AcDbEntity
  8
0
100
AcDbLine
 10
-36.11548782108252
 20
60.8482246942583
 30
0.0
 11
-36.04157838748253
 21
60.8641413518583
 31
0.0
  0
LWPOLYLINE
  5
11D
330
2
100
AcDbEntity
  8
0
100
AcDbPolyline
 90
       34
 70
     0
 43
0.0
 10
-36.84518775068252
 20
60.63822082865832
 10
-36.83899323868253
 20
60.64289930065831
 10
-36.83174618268252
 20
60.64768606065832
 10
-36.82344532348253
 20
60.65258467825831
 10
-36.81408132828252
 20
60.6576011710583
 10
-36.80363777468253
 20
60.66274283985831
 10
-36.79210450908253
 20
60.66801220785831
 10
-36.77950104988252
 20
60.67339902705831
 10
-36.76584778428253
 20
60.67889519825832
 10
-36.75115272988253
 20
60.6844989422583
 10
-36.73542361308253
 20
60.69020894385833
 10
-36.71866889308252
 20
60.6960238958583
 10
-36.70089763708253
 20
60.70194254865831
 10
-36.68211954108253
 20
60.7079637022583
 10
-36.66234493628252
 20
60.71408619185831
 10
-36.64158477948253
 20
60.72030888945832
 10
-36.61985066108252
 20
60.72663069265832
 10
-36.59715480828252
 20
60.73305052145832
 10
-36.57351008668253
 20
60.7395673086583
 10
-36.54892990428253
 20
60.7461800206583
 10
-36.52342837308252
 20
60.7528876046583
 10
-36.49702057308252
 20
60.75968891345832
 10
-36.46972186108253
 20
60.7665828798583
 10
-36.44154741308253
 20
60.77356861585832
 10
-36.41251342588252
 20
60.78064510065832
 10
-36.38263726908252
 20
60.7878111342583
 10
-36.35193656028252
 20
60.7950655630583
 10
-36.32042915228252
 20
60.8024072622583
 10
-36.28813353948252
 20
60.80983503665831
 10
-36.25506829148253
 20
60.8173477294583
 10
-36.22125315708252
 20
60.8249439662583
 10
-36.18670687068252
 20
60.8326226398583
 10
-36.15144512668253
 20
60.84038332945832
 10
-36.11548782108252
 20
60.8482246942583
  0
LWPOLYLINE
  5
11E
330
2
100
AcDbEntity
  8
0
100
AcDbPolyline
 90
       31
 70
     0
 43
0.0
 10
-35.87775419388252
 20
60.90431086225831
 10
-35.94605755228252
 20
60.88981300145832
 10
-36.01524421308252
 20
60.87541191185832
 10
-36.08529216988253
 20
60.8611266686583
 10
-36.15617409468252
 20
60.8469770110583
 10
-36.22784138748253
 20
60.83298534705829
 10
-36.30024012668252
 20
60.8191747518583
 10
-36.37332603388253
 20
60.8055661246583
 10
-36.44709338428252
 20
60.79217167985831
 10
-36.52154609468253
 20
60.77900145905832
 10
-36.59667863068253
 20
60.76606702065831
 10
-36.67244765628252
 20
60.7533860142583
 10
-36.74880038588253
 20
60.74097760305829
 10
-36.82568877788253
 20
60.7288587966583
 10
-36.90308376828252
 20
60.71703796145832
 10
-36.98096103388252
 20
60.70552130705832
 10
-37.05929608508253
 20
60.69431366065831
 10
-37.13806375868253
 20
60.68341432625832
 10
-37.21723872508252
 20
60.6728212286583
 10
-37.29678840988252
 20
60.66253333905831
 10
-37.37665127708253
 20
60.65255382385831
 10
-37.45675854588253
 20
60.64288689585831
 10
-37.53705270748253
 20
60.63353535825831
 10
-37.61752131708253
 20
60.62449635825831
 10
-37.69816320028253
 20
60.61576563505832
 10
-37.77896573948253
 20
60.60734015025833
 10
-37.85987055068253
 20
60.59922178385829
 10
-37.94080781148252
 20
60.5914136366583
 10
-38.02171575868253
 20
60.58391788305832
 10
-38.10256487228253
 20
60.5767329502583
 10
-38.18333369948253
 20
60.56985633905831
  0
LWPOLYLINE
  5
11F
330
2
100
AcDbEntity
  8
0
100
AcDbPolyline
 90
       14
 70
     0
 43
0.0
 10
-34.96688890268252
 20
61.08146521585831
 10
-34.48398491068252
 20
61.1781458238583
 10
-34.04141019388252
 20
61.26858040625831
 10
-33.64604890588252
 20
61.3485077118583
 10
-33.29177216348253
 20
61.41760322545832
 10
-32.96951913148252
 20
61.47703086865831
 10
-32.65865525148253
 20
61.5305359390583
 10
-32.34623027228252
 20
61.58050866225829
 10
-32.03020140188253
 20
61.62725925745832
 10
-31.71177639708253
 20
61.67055320625832
 10
-31.39205634268252
 20
61.71021113905831
 10
-31.07162879708252
 20
61.74614280465831
 10
-30.75118654428253
 20
61.7782581902583
 10
-30.43202954428252
 20
61.80643265425832
  0
LINE
  5
120
330
2
100
AcDbEntity
  8
0
100
AcDbLine
 10
-34.34431647708253
 20
61.22861339345831
 30
0.0
 11
-34.47205629468253
 21
61.20212718225832
 31
0.0
  0
LWPOLYLINE
  5
121
330
2
100
AcDbEntity
  8
0
100
AcDbPolyline
 90
       10
 70
     0
 43
0.0
 10
-33.69195069468253
 20
61.3596778206583
 10
-33.75780860188253
 20
61.3468670654583
 10
-33.82357315388253
 20
61.33396223505832
 10
-33.88923621308252
 20
61.32097242225831
 10
-33.95478964508253
 20
61.30790671985832
 10
-34.02022033788253
 20
61.29477511825832
 10
-34.08549528028252
 20
61.2815912190583
 10
-34.15057648508252
 20
61.26836952625831
 10
-34.21542596348253
 20
61.2551245422583
 10
-34.34431647708253
 20
61.22861339345831
  0
LINE
  5
122
330
2
100
AcDbEntity
  8
0
100
AcDbLine
 10
-35.06158868028252
 20
61.06287112945829
 30
0.0
 11
-34.96688761628253
 21
61.0814654974583
 31
0.0
  0
LINE
  5
123
330
2
100
AcDbEntity
  8
0
100
AcDbLine
 10
-35.20087525468253
 20
61.0353819166583
 30
0.0
 11
-35.06158868028252
 21
61.06287112945829
 31
0.0
  0
LINE
  5
124
330
2
100
AcDbEntity
  8
0
100
AcDbLine
 10
-35.33686067548252
 20
61.0083793726583
 30
0.0
 11
-35.20087525468253
 21
61.0353819166583
 31
0.0
  0
LINE
  5
125
330
2
100
AcDbEntity
  8
0
100
AcDbLine
 10
-35.46955514748252
 20
60.9818548366583
 30
0.0
 11
-35.33686067548252
 21
61.0083793726583
 31
0.0
  0
LINE
  5
126
330
2
100
AcDbEntity
  8
0
100
AcDbLine
 10
-34.59853037148252
 20
61.17573303665829
 30
0.0
 11
-34.78523351868253
 21
61.13652315345831
 31
0.0
  0
LINE
  5
127
330
2
100
AcDbEntity
  8
0
100
AcDbLine
 10
-34.78523351868253
 20
61.13652315345831
 30
0.0
 11
-35.04773076988253
 21
61.08104456305829
 31
0.0
  0
LINE
  5
128
330
2
100
AcDbEntity
  8
0
100
AcDbLine
 10
-35.04773076988253
 20
61.08104456305829
 30
0.0
 11
-35.43560936188252
 21
60.99865947185829
 31
0.0
  0
LINE
  5
129
330
2
100
AcDbEntity
  8
0
100
AcDbLine
 10
-34.47205629468253
 20
61.20212718225832
 30
0.0
 11
-34.59853037148252
 21
61.17573303665829
 31
0.0
  0
LWPOLYLINE
  5
12A
330
2
100
AcDbEntity
  8
0
100
AcDbPolyline
 90
       22
 70
     0
 43
0.0
 10
-34.13269696188253
 20
65.24247610065831
 10
-34.16172614108252
 20
65.15333513585829
 10
-34.20277206588252
 20
65.04633086225831
 10
-34.24996054428253
 20
64.9412906686583
 10
-34.30314952668253
 20
64.8385178606583
 10
-34.36218209148252
 20
64.73830978545831
 10
-34.42688679868253
 20
64.6409572686583
 10
-34.49707730428253
 20
64.5467449694583
 10
-34.57255219388253
 20
64.4559508574583
 10
-34.65309349948252
 20
64.3688468894583
 10
-34.73846831868253
 20
64.2856958318583
 10
-34.82842989628252
 20
64.20674964305831
 10
-34.92271584028253
 20
64.13225038225832
 10
-35.02104832188253
 20
64.06242876945831
 10
-35.12313712028253
 20
63.9975010862583
 10
-35.22868086428252
 20
63.93766819185831
 10
-35.33736816988252
 20
63.8831148030583
 10
-35.44887829788253
 20
63.8340090862583
 10
-35.56288214908252
 20
63.7905020894583
 10
-35.67904309468252
 20
63.7527272894583
 10
-35.79701782268253
 20
63.72080013745829
 10
-35.91348169468253
 20
63.69538915665831
  0
LWPOLYLINE
  5
12B
330
2
100
AcDbEntity
  8
0
100
AcDbPolyline
 90
       21
 70
     0
 43
0.0
 10
-34.29532416188253
 20
62.4515188814583
 10
-34.04730064668253
 20
62.5096481662583
 10
-33.79849175868253
 20
62.57839732945831
 10
-33.55249484348253
 20
62.65697372625831
 10
-33.30975320188253
 20
62.74523663825831
 10
-33.07071117948253
 20
62.84302211185831
 10
-32.83580304828253
 20
62.9501466382583
 10
-32.60545385948252
 20
63.06640737265832
 10
-32.38008008188252
 20
63.1915820574583
 10
-32.16008914268252
 20
63.32542922865832
 10
-31.94587721788252
 20
63.46768953425831
 10
-31.73782870908253
 20
63.61808627665832
 10
-31.53631597468252
 20
63.77632568625831
 10
-31.34169794108252
 20
63.9420980190583
 10
-31.15431940988253
 20
64.11507826545832
 10
-30.97451066588253
 20
64.29492654065831
 10
-30.80258645308252
 20
64.48128904785829
 10
-30.63884525788252
 20
64.67379881425831
 10
-30.48356853148253
 20
64.8720765230583
 10
-30.33701920828252
 20
65.07573240625831
 10
-30.23186810108252
 20
65.2334920782583
  0
LWPOLYLINE
  5
12C
330
2
100
AcDbEntity
  8
0
100
AcDbPolyline
 90
        4
 70
     0
 43
0.0
 10
-34.75930656188252
 20
62.3689304350583
 10
-34.60525876188252
 20
62.39269382065831
 10
-34.44854636988253
 20
62.42058482385832
 10
-34.29532416188253
 20
62.4515188782583
  0
LWPOLYLINE
  5
12D
330
2
100
AcDbEntity
  8
0
100
AcDbPolyline
 90
        4
 70
     0
 43
0.0
 10
-33.36573466108252
 20
65.31589874385829
 10
-32.47700035708253
 20
65.3057314142583
 10
-31.58946842748253
 20
65.2944689006583
 10
-30.70327115548252
 20
65.28211220625832
  0
LWPOLYLINE
  5
12E
330
2
100
AcDbEntity
  8
0
100
AcDbPolyline
 90
       23
 70
     0
 43
0.0
 10
-33.36573466108252
 20
65.31589874385829
 10
-33.40854541788253
 20
65.31621674065831
 10
-33.45139754588252
 20
65.3162484190583
 10
-33.49426843228252
 20
65.31599611185831
 10
-33.53716689628253
 20
65.31545845745831
 10
-33.58009385308253
 20
65.3146302334583
 10
-33.62307304828253
 20
65.3135014590583
 10
-33.66589590428253
 20
65.31206549745832
 10
-33.70832555708253
 20
65.31031798545831
 10
-33.75028166108252
 20
65.3082478670583
 10
-33.79163535548252
 20
65.30584295185832
 10
-33.83198403868253
 20
65.30310716465831
 10
-33.87093035228252
 20
65.3000505342583
 10
-33.90830138908252
 20
65.29666861265832
 10
-33.94375708188252
 20
65.29297125105831
 10
-33.97686950748253
 20
65.28898357585831
 10
-34.00730316188253
 20
65.28472835825832
 10
-34.03476946268253
 20
65.2802268302583
 10
-34.05883288828252
 20
65.27553479505832
 10
-34.07916434428253
 20
65.27071299505831
 10
-34.09562320828253
 20
65.2657986398583
 10
-34.10804904348252
 20
65.26085202545832
 10
-34.11637101148253
 20
65.25594396785831
  0
LWPOLYLINE
  5
12F
330
2
100
AcDbEntity
  8
0
100
AcDbPolyline
 90
        3
 70
     0
 43
0.0
 10
-34.12934887868253
 20
65.24636263025832
 10
-34.13236945148253
 20
65.2432653678583
 10
-34.13269622268252
 20
65.24247609905831
  0
LWPOLYLINE
  5
130
330
2
100
AcDbEntity
  8
0
100
AcDbPolyline
 90
        3
 70
     0
 43
0.0
 10
-34.12934887868253
 20
65.24636263025832
 10
-34.12272572828253
 20
65.25113968465831
 10
-34.11637101148253
 20
65.25594396785831
  0
LINE
  5
131
330
2
100
AcDbEntity
  8
0
100
AcDbLine
 10
-30.65710881628253
 20
64.6525869838583
 30
0.0
 11
-30.03833369948253
 21
64.6525869838583
 31
0.0
  0
LWPOLYLINE
  5
132
330
2
100
AcDbEntity
  8
0
100
AcDbPolyline
 90
       21
 70
     0
 43
0.0
 10
-30.23186598588253
 20
65.2334920670583
 10
-30.23096001148252
 20
65.23662271505831
 10
-30.23269348668253
 20
65.2401978782583
 10
-30.23732202428253
 20
65.2436696686583
 10
-30.24473736188252
 20
65.24703558065832
 10
-30.25483363708252
 20
65.25028780625831
 10
-30.26751854588252
 20
65.2534214830583
 10
-30.28273807388252
 20
65.25643687025831
 10
-30.30041146588253
 20
65.25932547025831
 10
-30.32051939868253
 20
65.26208727505832
 10
-30.34303789308252
 20
65.26471775025831
 10
-30.36792517788252
 20
65.26720884785831
 10
-30.39524201308252
 20
65.26956050545831
 10
-30.42495182108253
 20
65.27176122705831
 10
-30.45709388508253
 20
65.27380443345831
 10
-30.49173311388253
 20
65.27568233425831
 10
-30.52884793148253
 20
65.27738062865831
 10
-30.56856223228253
 20
65.27889007185831
 10
-30.61083334748252
 20
65.28019259505831
 10
-30.65573692828253
 20
65.28127304625832
 10
-30.70327115548252
 20
65.28211220625832
  0
LWPOLYLINE
  5
133
330
2
100
AcDbEntity
  8
0
100
AcDbPolyline
 90
       35
 70
     0
 43
0.0
 10
-19.12524073948253
 20
58.7027211902583
 10
-19.19869979708252
 20
58.76216007185831
 10
-19.27419559388252
 20
58.8222958958583
 10
-19.35153679068253
 20
58.8829718206583
 10
-19.43060902588253
 20
58.9440954318583
 10
-19.51160585468253
 20
59.00583203185831
 10
-19.59479781308253
 20
59.06841134865832
 10
-19.68036141628252
 20
59.13198276945831
 10
-19.76809708508253
 20
59.1963743102583
 10
-19.85771122108252
 20
59.26133364465832
 10
-19.94891022588253
 20
59.32660844305832
 10
-20.04140049628253
 20
59.39194638225831
 10
-20.13488843548252
 20
59.45709513265831
 10
-20.20556741468253
 20
59.5057387518583
 10
-20.27702811228252
 20
59.5543755854583
 10
-20.34949851388252
 20
59.60313999985832
 10
-20.42257583868253
 20
59.6517375742583
 10
-20.52012792988253
 20
59.7156898334583
 10
-20.61727570108253
 20
59.7783345406583
 10
-20.71353225788253
 20
59.83937472785831
 10
-20.80856141148252
 20
59.89860904465832
 10
-20.90262981788252
 20
59.95621859345831
 10
-20.99615484188253
 20
60.01248008785831
 10
-21.13607731228252
 20
60.09478937585831
 10
-21.27556959388252
 20
60.17465806225832
 10
-21.41453493148253
 20
60.2520810926583
 10
-21.55307616508252
 20
60.32715355985832
 10
-21.69134602908252
 20
60.39999559345829
 10
-21.82949725948252
 20
60.4707273198583
 10
-22.01379609468253
 20
60.5619491022583
 10
-22.19862410108253
 20
60.6498448046583
 10
-22.38444982108252
 20
60.73462643665831
 10
-22.57163847228253
 20
60.81645685905832
 10
-22.76014197628252
 20
60.8953023070583
 10
-22.94980892508253
 20
60.97107986385831
  0
LWPOLYLINE
  5
134
330
2
100
AcDbEntity
  8
0
100
AcDbPolyline
 90
       33
 70
     0
 43
0.0
 10
-24.55271180348252
 20
64.43731276465832
 10
-24.37126566908253
 20
64.42159954705832
 10
-24.18945551708253
 20
64.40293685745832
 10
-24.00731724988253
 20
64.3812966462583
 10
-23.82489464828252
 20
64.3566525390583
 10
-23.64226296668252
 20
64.32898482065832
 10
-23.45950533468253
 20
64.29827544465831
 10
-23.27670131068252
 20
64.26450694065832
 10
-23.09391615548253
 20
64.2276641326583
 10
-22.91121156668252
 20
64.18773241585831
 10
-22.72865004828253
 20
64.14469758225831
 10
-22.54629737148252
 20
64.09854698705832
 10
-22.36422011548252
 20
64.0492683790583
 10
-22.18251141628252
 20
63.99686075825832
 10
-22.00137061788252
 20
63.94136814225831
 10
-21.82102361948253
 20
63.8828458030583
 10
-21.64169320668253
 20
63.82135457425832
 10
-21.46358972988252
 20
63.75697753105831
 10
-21.28692043388253
 20
63.6898033118583
 10
-21.11191041948252
 20
63.61993665105831
 10
-20.93885623868253
 20
63.54754664945829
 10
-20.76807230268252
 20
63.47281850225832
 10
-20.59986070428253
 20
63.39594183025832
 10
-20.43447427228252
 20
63.31712395025832
 10
-20.27215351708253
 20
63.23657660145832
 10
-20.15257795708252
 20
63.17516823345832
 10
-20.03501443068252
 20
63.11305385425831
 10
-19.91961524508252
 20
63.05038117905832
 10
-19.80653270428253
 20
62.98729791665832
 10
-19.69588092988253
 20
62.92393213585831
 10
-19.58762130588253
 20
62.86033332785831
 10
-19.48167703708253
 20
62.79653134065831
 10
-19.37797132668252
 20
62.7325560238583
  0
LWPOLYLINE
  5
135
330
2
100
AcDbEntity
  8
0
100
AcDbPolyline
 90
        4
 70
     0
 43
0.0
 10
-41.18333369948253
 20
70.65033891345831
 10
-46.65550625468253
 20
70.65044333905831
 10
-51.99120475868252
 20
70.6506537950583
 10
-57.18604883388252
 20
70.65028908625831
  0
LWPOLYLINE
  5
136
330
2
100
AcDbEntity
  8
0
100
AcDbPolyline
 90
        4
 70
     0
 43
0.0
 10
-57.18604883388252
 20
70.65028908625831
 10
-57.48605204348253
 20
70.6478579870583
 10
-57.78588738108253
 20
70.6407358302583
 10
-58.08552152668252
 20
70.62892451665831
  0
LWPOLYLINE
  5
137
330
2
100
AcDbEntity
  8
0
100
AcDbPolyline
 90
        4
 70
     0
 43
0.0
 10
-25.18061856348252
 20
70.65028908625831
 10
-30.37842401308252
 20
70.6506537102583
 10
-35.71363055388252
 20
70.6504432494583
 10
-41.18333369948253
 20
70.65033891345831
  0
LWPOLYLINE
  5
138
330
2
100
AcDbEntity
  8
0
100
AcDbPolyline
 90
        4
 70
     0
 43
0.0
 10
-24.28114587228253
 20
70.62892451665831
 10
-24.58078001788253
 20
70.6407358302583
 10
-24.88061535548253
 20
70.6478579870583
 10
-25.18061856348252
 20
70.65028908625831
  0
LWPOLYLINE
  5
139
330
2
100
AcDbEntity
  8
0
100
AcDbPolyline
 90
        7
 70
     0
 43
0.0
 10
-5.750037577882523
 20
44.68406117905832
 10
-5.601405893082528
 20
45.37610474225831
 10
-5.471342958682527
 20
46.09635663345832
 10
-5.363868883482524
 20
46.83221706705833
 10
-5.280263069082522
 20
47.58494144145831
 10
-5.221735824282532
 20
48.34966067665831
 10
-5.211132654682529
 20
48.5436445662583
  0
LWPOLYLINE
  5
13A
330
2
100
AcDbEntity
  8
0
100
AcDbPolyline
 90
       24
 70
     0
 43
0.0
 10
-7.607162251482534
 20
45.25169908785832
 10
-7.547660326682532
 20
45.43818068625831
 10
-7.490482683482525
 20
45.62617423665832
 10
-7.435827089882522
 20
45.81506603025832
 10
-7.383783441882528
 20
46.00459859025831
 10
-7.334512947482522
 20
46.19416539025833
 10
-7.288011558682526
 20
46.38370772305831
 10
-7.244198633882533
 20
46.57350016465832
 10
-7.203084505882529
 20
46.76346198065831
 10
-7.16465991068253
 20
46.95359297905832
 10
-7.128916109082524
 20
47.14389365585833
 10
-7.095840949082528
 20
47.33438879025831
 10
-7.065419872282532
 20
47.52727550225833
 10
-7.037643667482527
 20
47.71830604305833
 10
-7.012509011482535
 20
47.90963624945831
 10
-6.990013232282535
 20
48.10128163185831
 10
-6.970153155482535
 20
48.29327525105833
 10
-6.952927432282535
 20
48.48565175825831
 10
-6.938342464282527
 20
48.67836079025832
 10
-6.926362923482528
 20
48.87206068465832
 10
-6.917033003482529
 20
49.06635688945832
 10
-6.910418435482526
 20
49.25927091345832
 10
-6.906433881882534
 20
49.45192491345832
 10
-6.905053809882531
 20
49.6503910814583
  0
LWPOLYLINE
  5
13B
330
2
100
AcDbEntity
  8
0
100
AcDbPolyline
 90
       25
 70
     0
 43
0.0
 10
-15.93009342268253
 20
46.09396256465831
 10
-15.91457338268253
 20
46.16059275665832
 10
-15.89762726268253
 20
46.22739441905832
 10
-15.87920503868252
 20
46.29440594225831
 10
-15.85937240828252
 20
46.36129526225832
 10
-15.83823457148253
 20
46.42764381585832
 10
-15.81593900188252
 20
46.49305750385831
 10
-15.79261408828253
 20
46.55725602385831
 10
-15.76826961788252
 20
46.62038979665831
 10
-15.75143593788253
 20
46.66207022545832
 10
-15.73396758588252
 20
46.70380049745832
 10
-15.71569185468253
 20
46.74598895985831
 10
-15.70134801468252
 20
46.77817514705832
 10
-15.68636019068253
 20
46.81101206385831
 10
-15.67063570108253
 20
46.84466301265831
 10
-15.65408185948253
 20
46.87929129265833
 10
-15.63661708828253
 20
46.91503765905832
 10
-15.61820421948253
 20
46.95195267825831
 10
-15.59881718748252
 20
46.99006436945833
 10
-15.57842992988253
 20
47.02940075025832
 10
-15.55705669468252
 20
47.06993694225832
 10
-15.53487298588253
 20
47.11143646865831
 10
-15.51209461948252
 20
47.15360995665832
 10
-15.48893741468252
 20
47.19616803185831
 10
-15.42682659068252
 20
47.30991900305832
  0
LWPOLYLINE
  5
13C
330
2
100
AcDbEntity
  8
0
100
AcDbPolyline
 90
       53
 70
     0
 43
0.0
 10
-12.66595576988253
 20
49.6503910814583
 10
-12.66781739068252
 20
49.54670264305832
 10
-12.67323261628253
 20
49.44713003665831
 10
-12.68187073628253
 20
49.35314723505832
 10
-12.69354709948252
 20
49.26436689105833
 10
-12.70855123868253
 20
49.17797443345833
 10
-12.72716117948253
 20
49.09270124305831
 10
-12.74915396508252
 20
49.01020378065831
 10
-12.77457652028252
 20
48.93087007985832
 10
-12.80400126108253
 20
48.85372178865833
 10
-12.83782994268253
 20
48.77878244465833
 10
-12.87598810748252
 20
48.70730324625833
 10
-12.91516214268253
 20
48.64537105425833
 10
-12.95122465468253
 20
48.59754107345833
 10
-12.98517187388253
 20
48.56146931665833
 10
-13.02078195228253
 20
48.53318806225832
 10
-13.06111676828253
 20
48.51082778545833
 10
-13.10682916348253
 20
48.49377783665833
 10
-13.15724283548253
 20
48.47955558225831
 10
-13.21234805148253
 20
48.46701643505832
 10
-13.27232054748253
 20
48.45487991665831
 10
-13.33762497468252
 20
48.44227064305832
 10
-13.40884004508252
 20
48.42863404945831
 10
-13.48663636828253
 20
48.41298623665832
 10
-13.57175219708253
 20
48.39395300785833
 10
-13.66506986268253
 20
48.37004357105832
 10
-13.76773930588252
 20
48.33949748305832
 10
-13.88135688668252
 20
48.30055069745833
 10
-14.00738424188253
 20
48.25105188785832
 10
-14.14599265468253
 20
48.18855923825831
 10
-14.28718049788253
 20
48.11585655665831
 10
-14.42033328348253
 20
48.03807677585831
 10
-14.54412008028252
 20
47.95712590865832
 10
-14.66321506908252
 20
47.87038953265832
 10
-14.78653864348252
 20
47.76967113585832
 10
-14.91906290268252
 20
47.64693942705832
 10
-15.04720540348253
 20
47.5115828558583
 10
-15.15989086588253
 20
47.37514211825833
 10
-15.25438734588253
 20
47.25040385425833
 10
-15.33556488668253
 20
47.1339562030583
 10
-15.40718776988252
 20
47.02438176625832
 10
-15.47115747388252
 20
46.92157004305832
 10
-15.52877938428252
 20
46.82552371505831
 10
-15.58072583068252
 20
46.73664933745831
 10
-15.62733502428253
 20
46.65540152305831
 10
-15.66888618588252
 20
46.58184884145833
 10
-15.70624571548252
 20
46.51483674545832
 10
-15.74074035068252
 20
46.45224241105831
 10
-15.77372174908252
 20
46.39172829425832
 10
-15.80646810748253
 20
46.33080472145831
 10
-15.83937519388253
 20
46.26848118065832
 10
-15.87237334268253
 20
46.20462033425831
 10
-15.90540769468252
 20
46.13908696625832
  0
LWPOLYLINE
  5
13D
330
2
100
AcDbEntity
  8
0
100
AcDbPolyline
 90
        5
 70
     0
 43
0.0
 10
-7.037916507482535
 20
40.81717875345831
 10
-6.724387587482524
 20
41.56511403505832
 10
-6.438099585882525
 20
42.32727535025833
 10
-6.179929737882531
 20
43.10193236785831
 10
-6.072581873882526
 20
43.45598624465832
  0
LWPOLYLINE
  5
13E
330
2
100
AcDbEntity
  8
0
100
AcDbPolyline
 90
       19
 70
     0
 43
0.0
 10
-9.007369081882529
 20
42.09186268145831
 10
-8.907665816282531
 20
42.27234959345832
 10
-8.810397542682522
 20
42.45273463985831
 10
-8.715526872282524
 20
42.63308084785832
 10
-8.623022477082528
 20
42.81344758065833
 10
-8.532849249882531
 20
42.99391118225832
 10
-8.444942784282531
 20
43.17461953585832
 10
-8.359234665882524
 20
43.35574804305831
 10
-8.275696189082523
 20
43.53740754225831
 10
-8.194328845082523
 20
43.71965531665832
 10
-8.115144656282524
 20
43.90252389585831
 10
-8.038175345882535
 20
44.08599426545832
 10
-7.963275046682525
 20
44.27049306385831
 10
-7.891049472282531
 20
44.45456047025832
 10
-7.824209437082529
 20
44.63087423985832
 10
-7.762808262682526
 20
44.79845505425831
 10
-7.706421590682523
 20
44.95760086545832
 10
-7.654636409882527
 20
45.10866805745832
 10
-7.607162251482534
 20
45.25169908785832
  0
LINE
  5
13F
330
2
100
AcDbEntity
  8
0
100
AcDbLine
 10
-5.859076561882531
 20
44.23528079665831
 30
0.0
 11
-5.750037393882536
 21
44.68406197425831
 31
0.0
  0
LWPOLYLINE
  5
140
330
2
100
AcDbEntity
  8
0
100
AcDbPolyline
 90
        3
 70
     0
 43
0.0
 10
-6.072581873882526
 20
43.45598624465832
 10
-5.984552806682529
 20
43.76377281585832
 10
-5.859076561882531
 20
44.23528079665832
  0
LINE
  5
141
330
2
100
AcDbEntity
  8
0
100
AcDbLine
 10
-5.750716976282532
 20
44.68147559185831
 30
0.0
 11
-5.750037577882523
 21
44.68406117905831
 31
0.0
  0
LWPOLYLINE
  5
142
330
2
100
AcDbEntity
  8
0
100
AcDbPolyline
 90
        5
 70
     0
 43
0.0
 10
-6.072581873882526
 20
55.8448480862583
 10
-6.179929737882531
 20
56.19890196465831
 10
-6.438099585882525
 20
56.97355898065831
 10
-6.724387587482524
 20
57.7357202958583
 10
-7.037916507482535
 20
58.48365557745831
  0
LWPOLYLINE
  5
143
330
2
100
AcDbEntity
  8
0
100
AcDbPolyline
 90
       18
 70
     0
 43
0.0
 10
-7.607162294682524
 20
54.04693933105832
 10
-7.671040699482531
 20
54.23836425425832
 10
-7.737380051482531
 20
54.42906936145831
 10
-7.806076912282534
 20
54.61886082705831
 10
-7.87713785628253
 20
54.81007084145829
 10
-7.950535008282528
 20
54.99833033425829
 10
-8.026016409882529
 20
55.18530473585832
 10
-8.103750296282527
 20
55.3715184046583
 10
-8.183793963482528
 20
55.5571741198583
 10
-8.266083189082536
 20
55.74217778385833
 10
-8.350595638682534
 20
55.9265420222583
 10
-8.437341864282529
 20
56.1103548398583
 10
-8.52634858268253
 20
56.2937262238583
 10
-8.617681793882525
 20
56.4768297374583
 10
-8.711412419482527
 20
56.6598284174583
 10
-8.80757746428253
 20
56.8428031822583
 10
-8.90621055068253
 20
57.02581804145831
 10
-9.007369081882529
 20
57.20897164945831
  0
LWPOLYLINE
  5
144
330
2
100
AcDbEntity
  8
0
100
AcDbPolyline
 90
        7
 70
     0
 43
0.0
 10
-5.211132654682529
 20
50.75713759505831
 10
-5.221735824282532
 20
50.95112148625833
 10
-5.280263069082522
 20
51.71584071985833
 10
-5.363868883482524
 20
52.46642136145831
 10
-5.471342958682527
 20
53.20228179505832
 10
-5.601405893082528
 20
53.92253368625834
 10
-5.750037577882523
 20
54.6145772494583
  0
LWPOLYLINE
  5
145
330
2
100
AcDbEntity
  8
0
100
AcDbPolyline
 90
       24
 70
     0
 43
0.0
 10
-6.905053809882531
 20
49.6503910814583
 10
-6.906402451482534
 20
49.84658455185831
 10
-6.910422249882529
 20
50.04165013105833
 10
-6.917090318682525
 20
50.23581738225832
 10
-6.926419761882527
 20
50.4297552446583
 10
-6.938402166682536
 20
50.62328894225831
 10
-6.953019675482522
 20
50.81624645585833
 10
-6.970274662682527
 20
51.00876564465832
 10
-6.990169931482526
 20
51.20091920945833
 10
-7.012705384282526
 20
51.39272418865832
 10
-7.037882145882534
 20
51.58419879985832
 10
-7.065703329882524
 20
51.77536543025832
 10
-7.096174881882532
 20
51.96625385745832
 10
-7.129308147482532
 20
52.15691324305831
 10
-7.165108830682527
 20
52.34734723505832
 10
-7.203582043482526
 20
52.53755313585833
 10
-7.244747293082525
 20
52.7275906542583
 10
-7.288632765082525
 20
52.91753876465833
 10
-7.335216289882524
 20
53.10725607025833
 10
-7.384553144282534
 20
53.29691875505833
 10
-7.436898801882534
 20
53.48737122545833
 10
-7.491758953882523
 20
53.67676259185831
 10
-7.548657809882527
 20
53.86365800625833
 10
-7.607162294682524
 20
54.04693933105832
  0
LWPOLYLINE
  5
146
330
2
100
AcDbEntity
  8
0
100
AcDbPolyline
 90
       23
 70
     0
 43
0.0
 10
-15.07266358268252
 20
51.01338737265831
 10
-15.08819198268253
 20
51.08605358225833
 10
-15.10426692988252
 20
51.15721397585833
 10
-15.12109640348252
 20
51.22703625745831
 10
-15.13432500668253
 20
51.27858191185831
 10
-15.14810012348253
 20
51.32927715185832
 10
-15.15757654588253
 20
51.36247680945832
 10
-15.16722086908252
 20
51.39497700945833
 10
-15.17695583228253
 20
51.42654161425832
 10
-15.18672942748253
 20
51.45701825425831
 10
-15.19659067228252
 20
51.48658962385832
 10
-15.20661383068252
 20
51.5155221822583
 10
-15.22210534428252
 20
51.55821849745831
 10
-15.23832325148252
 20
51.60045052625832
 10
-15.25542187068252
 20
51.64250764145831
 10
-15.27339287068252
 20
51.68434268305833
 10
-15.29220264348252
 20
51.72590084465833
 10
-15.31187914588253
 20
51.76743326705832
 10
-15.33947604188253
 20
51.82319931665833
 10
-15.36842399868253
 20
51.87945818065833
 10
-15.39845617308253
 20
51.93616598225833
 10
-15.42928140668253
 20
51.99324358225831
 10
-15.49173305788252
 20
52.10759218385831
  0
LWPOLYLINE
  5
147
330
2
100
AcDbEntity
  8
0
100
AcDbPolyline
 90
       53
 70
     0
 43
0.0
 10
-12.66595576988253
 20
49.6503910814583
 10
-12.66781739068252
 20
49.75407951825832
 10
-12.67323261628253
 20
49.85365212465831
 10
-12.68187073628253
 20
49.94763492625833
 10
-12.69354709948252
 20
50.03641527025831
 10
-12.70855123868253
 20
50.12280772785832
 10
-12.72716117948253
 20
50.20808091825833
 10
-12.74915396508252
 20
50.29057838065833
 10
-12.77457652028252
 20
50.36991208145832
 10
-12.80400126108253
 20
50.44706037265831
 10
-12.83782994268253
 20
50.52199971665832
 10
-12.87598810748252
 20
50.59347891665831
 10
-12.91516214268253
 20
50.65541110865831
 10
-12.95122465468253
 20
50.70324108945832
 10
-12.98517187388253
 20
50.73931284625832
 10
-13.02078195228253
 20
50.76759410065832
 10
-13.06111676828253
 20
50.78995437585831
 10
-13.10682916348253
 20
50.80700432465832
 10
-13.15724283548253
 20
50.82122657905833
 10
-13.21234805148253
 20
50.83376572625832
 10
-13.27232054748253
 20
50.84590224465833
 10
-13.33762497468252
 20
50.85851151825832
 10
-13.40884004508252
 20
50.8721481118583
 10
-13.48663636828253
 20
50.88779592465832
 10
-13.57175219708253
 20
50.90682915345832
 10
-13.66506986268253
 20
50.93073859025833
 10
-13.76773930588252
 20
50.96128467825832
 10
-13.88135688668252
 20
51.00023146385831
 10
-14.00738424188253
 20
51.04973027345832
 10
-14.14599265468253
 20
51.11222292465831
 10
-14.28718049788253
 20
51.18492560465833
 10
-14.42033328348253
 20
51.26270538545833
 10
-14.54412008028252
 20
51.34365625265832
 10
-14.66321506908252
 20
51.43039262865833
 10
-14.78653864348252
 20
51.53111102545833
 10
-14.91906290268252
 20
51.65384273425832
 10
-15.04720540348253
 20
51.78919930545831
 10
-15.15989086588253
 20
51.92349631185831
 10
-15.25438734588253
 20
52.04823457425831
 10
-15.33556488668253
 20
52.16468222545831
 10
-15.40718776988252
 20
52.27425666225832
 10
-15.47115747388252
 20
52.37706838545832
 10
-15.52877938428252
 20
52.47311471345833
 10
-15.58072583068252
 20
52.5619890910583
 10
-15.62733502428253
 20
52.64323690545831
 10
-15.66888618588252
 20
52.71678958865831
 10
-15.70624571548252
 20
52.78380168305833
 10
-15.74074035068252
 20
52.84639601745832
 10
-15.77372174908252
 20
52.90691013585831
 10
-15.80646810748253
 20
52.96783370705833
 10
-15.83937519388253
 20
53.03015724785831
 10
-15.87237334268253
 20
53.09401809425833
 10
-15.90540769468252
 20
53.15955146225832
  0
LWPOLYLINE
  5
148
330
2
100
AcDbEntity
  8
0
100
AcDbPolyline
 90
       22
 70
     0
 43
0.0
 10
-15.07266373788253
 20
48.28739404785832
 10
-15.05987931548253
 20
48.34999286705832
 10
-15.04760572988253
 20
48.41273697425831
 10
-15.03585036508252
 20
48.47560668145831
 10
-15.02461961308253
 20
48.53859353745832
 10
-15.01391590588252
 20
48.60173403185831
 10
-15.00374068348253
 20
48.66507588625831
 10
-14.99409696508253
 20
48.72866306385834
 10
-14.98499407388253
 20
48.79252449585831
 10
-14.97644290908253
 20
48.85668535825832
 10
-14.96845568188253
 20
48.92116538065832
 10
-14.96104984828252
 20
48.98596252145833
 10
-14.95424417148252
 20
49.05106928785833
 10
-14.94805774268253
 20
49.11648008145832
 10
-14.94251094908253
 20
49.18219684145831
 10
-14.93762450588252
 20
49.24822339985832
 10
-14.93341984668252
 20
49.31455975825833
 10
-14.92992130268253
 20
49.38119060465831
 10
-14.92715393148253
 20
49.44809680625832
 10
-14.92514320188253
 20
49.51526347985833
 10
-14.92391625148252
 20
49.58269277105833
 10
-14.92350063388252
 20
49.6503910814583
  0
LWPOLYLINE
  5
149
330
2
100
AcDbEntity
  8
0
100
AcDbPolyline
 90
       22
 70
     0
 43
0.0
 10
-15.42682659068252
 20
47.30991900305832
 10
-15.39633890268253
 20
47.36642716945831
 10
-15.36672979388252
 20
47.42241367025831
 10
-15.33822753628253
 20
47.48004640465831
 10
-15.31102585788252
 20
47.53511660145832
 10
-15.29157697148252
 20
47.57623509585832
 10
-15.27294432668253
 20
47.61745555825831
 10
-15.25511158588253
 20
47.65901328945832
 10
-15.23809428348252
 20
47.70091171345831
 10
-15.22188628188253
 20
47.74315366705832
 10
-15.20636288348252
 20
47.78597153905832
 10
-15.19631413148252
 20
47.81500690065832
 10
-15.18643169788252
 20
47.84467523505833
 10
-15.17664622748253
 20
47.87522476305833
 10
-15.16691209148253
 20
47.90682479505832
 10
-15.15727855708253
 20
47.93932899505833
 10
-15.14781861148253
 20
47.97251211665832
 10
-15.13407245308252
 20
48.02315881905832
 10
-15.12087911228252
 20
48.0746166654583
 10
-15.10411002908253
 20
48.14423869585832
 10
-15.08810872828253
 20
48.21510588785833
 10
-15.07266373788253
 20
48.28739404785832
  0
LWPOLYLINE
  5
14A
330
2
100
AcDbEntity
  8
0
100
AcDbPolyline
 90
       22
 70
     0
 43
0.0
 10
-14.92350063388252
 20
49.6503910814583
 10
-14.92391484508253
 20
49.71795382225832
 10
-14.92513507068252
 20
49.78516359345832
 10
-14.92712999068253
 20
49.85201357745831
 10
-14.92986943068252
 20
49.91850151345833
 10
-14.93332777628252
 20
49.98464337905833
 10
-14.93748055708252
 20
50.05045971505831
 10
-14.94230454268253
 20
50.11597215985833
 10
-14.94778147868252
 20
50.18120675985833
 10
-14.95389435228253
 20
50.24619066545833
 10
-14.96062706748253
 20
50.31095032465831
 10
-14.96796720828253
 20
50.37550939665831
 10
-14.97590327068252
 20
50.43989084785832
 10
-14.98442421468253
 20
50.50411537105834
 10
-14.99352081628252
 20
50.56819459025831
 10
-15.00318430748252
 20
50.63213786705833
 10
-15.01340627388252
 20
50.69595452945833
 10
-15.02417970908253
 20
50.75965380465831
 10
-15.03549795868252
 20
50.82324489585833
 10
-15.04735468508252
 20
50.88673427185833
 10
-15.05974481148253
 20
50.95011748945831
 10
-15.07266358268252
 20
51.01338737265831
  0
LWPOLYLINE
  5
14B
330
2
100
AcDbEntity
  8
0
100
AcDbPolyline
 90
        3
 70
     0
 43
0.0
 10
-5.211132654682529
 20
48.5436445662583
 10
-5.199182622682528
 20
48.81472351505832
 10
-5.183339886682531
 20
49.6503910814583
  0
LWPOLYLINE
  5
14C
330
2
100
AcDbEntity
  8
0
100
AcDbPolyline
 90
        3
 70
     0
 43
0.0
 10
-5.183339886682531
 20
49.6503910814583
 10
-5.199182622682528
 20
50.48605864625833
 10
-5.211132654682529
 20
50.75713759505831
  0
LWPOLYLINE
  5
14D
330
2
100
AcDbEntity
  8
0
100
AcDbPolyline
 90
       24
 70
     0
 43
0.0
 10
-15.49173305788252
 20
52.10759218385831
 10
-15.51489050588253
 20
52.1501815294583
 10
-15.53760539228252
 20
52.19228843025831
 10
-15.55967187868253
 20
52.23363365905831
 10
-15.58088412348253
 20
52.27393798865833
 10
-15.60107676348252
 20
52.31297631185831
 10
-15.62024634748253
 20
52.35074001745832
 10
-15.63842990908253
 20
52.38727460945833
 10
-15.65566447708252
 20
52.42262559505832
 10
-15.67199657308252
 20
52.45685869745833
 10
-15.68751068348253
 20
52.49012048785832
 10
-15.70230078428252
 20
52.52257775345831
 10
-15.71646085788252
 20
52.5543972782583
 10
-15.73451601628252
 20
52.59612517425833
 10
-15.75179700188252
 20
52.63744494065832
 10
-15.76848262428252
 20
52.67878569905832
 10
-15.79268478108252
 20
52.74157204305831
 10
-15.81594652028252
 20
52.80560227825834
 10
-15.83823457308253
 20
52.87099484945833
 10
-15.85939524668252
 20
52.9374174430583
 10
-15.87925608188253
 20
53.00441365585832
 10
-15.89768999868252
 20
53.07148148305831
 10
-15.91461616508253
 20
53.13821956145833
 10
-15.93009339388252
 20
53.20467471025833
  0
LWPOLYLINE
  5
14E
330
2
100
AcDbEntity
  8
0
100
AcDbPolyline
 90
        4
 70
     0
 43
0.0
 10
-5.750037393882536
 20
54.61457645425833
 10
-5.859076561882531
 20
55.0655535342583
 10
-5.984552806682529
 20
55.5370615150583
 10
-6.072581873882526
 20
55.8448480862583
  0
LINE
  5
14F
330
2
100
AcDbEntity
  8
0
100
AcDbLine
 10
-5.750716976282532
 20
54.6171628366583
 30
0.0
 11
-5.750037577882523
 21
54.6145772494583
 31
0.0
  0
ENDSEC
  0
SECTION
  2
OBJECTS
  0
DICTIONARY
  5
A
330
0
100
AcDbDictionary
  3
ACAD_GROUP
350
23
  3
ACAD_LAYOUT
350
9
  3
ACAD_MLINESTYLE
350
24
  3
ACAD_PLOTSETTINGS
350
25
  3
ACAD_PLOTSTYLENAME
350
26
  3
ACDBHEADERROUNDTRIPXREC
350
1C6
  3
ACDBVARIABLEDICTIONARY
350
150
  0
DICTIONARY
  5
180
330
2
100
AcDbDictionary
280
     1
  3
ACAD_LAYOUTSELFREF
360
1E7
  0
DICTIONARY
  5
186
330
B
100
AcDbDictionary
280
     1
  3
ACAD_LAYOUTSELFREF
360
1E8
  0
DICTIONARY
  5
23
102
{ACAD_REACTORS
330
A
102
}
330
A
100
AcDbDictionary
  0
DICTIONARY
  5
9
102
{ACAD_REACTORS
330
A
102
}
330
A
100
AcDbDictionary
  0
DICTIONARY
  5
24
102
{ACAD_REACTORS
330
A
102
}
330
A
100
AcDbDictionary
  3
STANDARD
350
27
  0
DICTIONARY
  5
25
102
{ACAD_REACTORS
330
A
102
}
330
A
100
AcDbDictionary
  0
ACDBDICTIONARYWDFLT
  5
26
102
{ACAD_REACTORS
330
A
102
}
330
A
100
AcDbDictionary
281
     1
  3
Normal
350
5
100
AcDbDictionaryWithDefault
340
5
  0
DICTIONARY
  5
1C6
102
{ACAD_REACTORS
330
A
102
}
330
A
100
AcDbDictionary
  3
CEPSNTYPE
350
1D0
  3
DIMSTYLEDATA
350
1D4
  3
FINGERPRINTGUID
350
1D1
  3
HYPERLINKBASE
350
1C9
  3
INSUNITS
350
1CF
  3
LAYOUTDICT
350
1CB
  3
LWETCUNION
350
1CE
  3
PLOTSETDICT
350
1CC
  3
PLOTSTYLNAMDICT
350
1CD
  3
PSVPSCALE
350
1D3
  3
PUCSBASE
350
1D7
  3
PUCSORGBACK
350
1DD
  3
PUCSORGBOTTOM
350
1D9
  3
PUCSORGFRONT
350
1DC
  3
PUCSORGLEFT
350
1DA
  3
PUCSORGRIGHT
350
1DB
  3
PUCSORGTOP
350
1D8
  3
PUCSORTHOREF
350
1D5
  3
PUCSORTHOVIEW
350
1D6
  3
STYLESHEET
350
1CA
  3
TSTACKALIGN
350
1C7
  3
TSTACKSIZE
350
1C8
  3
UCSBASE
350
1E0
  3
UCSORGBACK
350
1E6
  3
UCSORGBOTTOM
350
1E2
  3
UCSORGFRONT
350
1E5
  3
UCSORGLEFT
350
1E3
  3
UCSORGRIGHT
350
1E4
  3
UCSORGTOP
350
1E1
  3
UCSORTHOREF
350
1DE
  3
UCSORTHOVIEW
350
1DF
  3
VERSIONGUID
350
1D2
  0
DICTIONARY
  5
150
102
{ACAD_REACTORS
330
A
102
}
330
A
100
AcDbDictionary
  3
DIMASSOC
350
152
  3
HIDETEXT
350
151
  0
XRECORD
  5
1E7
102
{ACAD_REACTORS
330
180
102
}
330
180
100
AcDbXrecord
340
2
  0
XRECORD
  5
1E8
102
{ACAD_REACTORS
330
186
102
}
330
186
100
AcDbXrecord
340
B
  0
MLINESTYLE
  5
27
102
{ACAD_REACTORS
330
24
102
}
330
24
100
AcDbMlineStyle
  2
STANDARD
 70
     0
  3

 62
   256
 51
90.0
 52
90.0
 71
     2
 49
0.5
 62
   256
  6
BYLAYER
 49
-0.5
 62
   256
  6
BYLAYER
  0
ACDBPLACEHOLDER
  5
5
102
{ACAD_REACTORS
330
26
102
}
330
0
100
AcDbPlaceHolder
280
     0
  0
XRECORD
  5
1D0
102
{ACAD_REACTORS
330
1C6
102
}
330
1C6
100
AcDbXrecord
 90
        0
  0
XRECORD
  5
1D4
102
{ACAD_REACTORS
330
1C6
102
}
330
1C6
100
AcDbXrecord
1000
DSTYLE
1002
{
1070
   341
340
1E
1070
   342
340
1E
1002
}
  0
XRECORD
  5
1D1
102
{ACAD_REACTORS
330
1C6
102
}
330
1C6
100
AcDbXrecord
  1

  0
XRECORD
  5
1C9
102
{ACAD_REACTORS
330
1C6
102
}
330
1C6
100
AcDbXrecord
  1

  0
XRECORD
  5
1CF
102
{ACAD_REACTORS
330
1C6
102
}
330
1C6
100
AcDbXrecord
 90
        1
  0
XRECORD
  5
1CB
102
{ACAD_REACTORS
330
1C6
102
}
330
1C6
100
AcDbXrecord
340
9
  0
XRECORD
  5
1CE
102
{ACAD_REACTORS
330
1C6
102
}
330
1C6
100
AcDbXrecord
 90
    10781
  0
XRECORD
  5
1CC
102
{ACAD_REACTORS
330
1C6
102
}
330
1C6
100
AcDbXrecord
340
25
  0
XRECORD
  5
1CD
102
{ACAD_REACTORS
330
1C6
102
}
330
1C6
100
AcDbXrecord
340
26
  0
XRECORD
  5
1D3
102
{ACAD_REACTORS
330
1C6
102
}
330
1C6
100
AcDbXrecord
 40
0.0
  0
XRECORD
  5
1D7
102
{ACAD_REACTORS
330
1C6
102
}
330
1C6
100
AcDbXrecord
340
0
  0
XRECORD
  5
1DD
102
{ACAD_REACTORS
330
1C6
102
}
330
1C6
100
AcDbXrecord
 10
0.0
 20
0.0
 30
0.0
  0
XRECORD
  5
1D9
102
{ACAD_REACTORS
330
1C6
102
}
330
1C6
100
AcDbXrecord
 10
0.0
 20
0.0
 30
0.0
  0
XRECORD
  5
1DC
102
{ACAD_REACTORS
330
1C6
102
}
330
1C6
100
AcDbXrecord
 10
0.0
 20
0.0
 30
0.0
  0
XRECORD
  5
1DA
102
{ACAD_REACTORS
330
1C6
102
}
330
1C6
100
AcDbXrecord
 10
0.0
 20
0.0
 30
0.0
  0
XRECORD
  5
1DB
102
{ACAD_REACTORS
330
1C6
102
}
330
1C6
100
AcDbXrecord
 10
0.0
 20
0.0
 30
0.0
  0
XRECORD
  5
1D8
102
{ACAD_REACTORS
330
1C6
102
}
330
1C6
100
AcDbXrecord
 10
0.0
 20
0.0
 30
0.0
  0
XRECORD
  5
1D5
102
{ACAD_REACTORS
330
1C6
102
}
330
1C6
100
AcDbXrecord
340
0
  0
XRECORD
  5
1D6
102
{ACAD_REACTORS
330
1C6
102
}
330
1C6
100
AcDbXrecord
 70
     0
  0
XRECORD
  5
1CA
102
{ACAD_REACTORS
330
1C6
102
}
330
1C6
100
AcDbXrecord
  1

  0
XRECORD
  5
1C7
102
{ACAD_REACTORS
330
1C6
102
}
330
1C6
100
AcDbXrecord
 90
        1
  0
XRECORD
  5
1C8
102
{ACAD_REACTORS
330
1C6
102
}
330
1C6
100
AcDbXrecord
 90
       70
  0
XRECORD
  5
1E0
102
{ACAD_REACTORS
330
1C6
102
}
330
1C6
100
AcDbXrecord
340
0
  0
XRECORD
  5
1E6
102
{ACAD_REACTORS
330
1C6
102
}
330
1C6
100
AcDbXrecord
 10
0.0
 20
0.0
 30
0.0
  0
XRECORD
  5
1E2
102
{ACAD_REACTORS
330
1C6
102
}
330
1C6
100
AcDbXrecord
 10
0.0
 20
0.0
 30
0.0
  0
XRECORD
  5
1E5
102
{ACAD_REACTORS
330
1C6
102
}
330
1C6
100
AcDbXrecord
 10
0.0
 20
0.0
 30
0.0
  0
XRECORD
  5
1E3
102
{ACAD_REACTORS
330
1C6
102
}
330
1C6
100
AcDbXrecord
 10
0.0
 20
0.0
 30
0.0
  0
XRECORD
  5
1E4
102
{ACAD_REACTORS
330
1C6
102
}
330
1C6
100
AcDbXrecord
 10
0.0
 20
0.0
 30
0.0
  0
XRECORD
  5
1E1
102
{ACAD_REACTORS
330
1C6
102
}
330
1C6
100
AcDbXrecord
 10
0.0
 20
0.0
 30
0.0
  0
XRECORD
  5
1DE
102
{ACAD_REACTORS
330
1C6
102
}
330
1C6
100
AcDbXrecord
340
0
  0
XRECORD
  5
1DF
102
{ACAD_REACTORS
330
1C6
102
}
330
1C6
100
AcDbXrecord
 70
     0
  0
XRECORD
  5
1D2
102
{ACAD_REACTORS
330
1C6
102
}
330
1C6
100
AcDbXrecord
  1
{0C900FD4-0716-4D0D-8B1B-F4D2E3F647AC}
  0
DICTIONARYVAR
  5
152
102
{ACAD_REACTORS
330
150
102
}
330
150
100
DictionaryVariables
280
     0
  1
1
  0
DICTIONARYVAR
  5
151
102
{ACAD_REACTORS
330
150
102
}
330
150
100
DictionaryVariables
280
     0
  1
1
  0
ENDSEC
  0
EOF
